ISO-10303-21;
HEADER;
FILE_DESCRIPTION (( 'STEP AP203' ),
    '1' );
FILE_NAME ('C-30-RK-28-ÃÞÌ«ÙÄ.STEP',
    '2009-06-29T01:57:44',
    ( '11sw' ),
    ( '^LQ»¢®ïÐ' ),
    'SwSTEP 2.0',
    'SolidWorks 2007',
    '' );
FILE_SCHEMA (( 'CONFIG_CONTROL_DESIGN' ));
ENDSEC;

DATA;
#1 = EDGE_LOOP ( 'NONE', ( #286, #287, #290, #293 ) ) ;
#2 = ADVANCED_FACE ( 'NONE', ( #283 ), #281, .T. ) ;
#3 = APPLICATION_PROTOCOL_DEFINITION ( 'international standard', 'config_control_design', 1994, #305 ) ;
#4 = VERTEX_POINT ( 'NONE', #277 ) ;
#5 = EDGE_CURVE ( 'NONE', #302, #4, #274, .T. ) ;
#6 = ORIENTED_EDGE ( 'NONE', *, *, #5, .F. ) ;
#7 = ORIENTED_EDGE ( 'NONE', *, *, #89, .F. ) ;
#8 = ADVANCED_FACE ( 'NONE', ( #270, #269 ), #268, .F. ) ;
#9 = EDGE_LOOP ( 'NONE', ( #72, #71 ) ) ;
#10 = PERSON ( 'UNSPECIFIED', 'UNSPECIFIED', 'UNSPECIFIED', ('UNSPECIFIED'), ('UNSPECIFIED'), ('UNSPECIFIED') ) ;
#11 = PRODUCT ( 'C-30-RK-28-ÃÞÌ«ÙÄ', 'C-30-RK-28-ÃÞÌ«ÙÄ', '', ( #12 ) ) ;
#12 = MECHANICAL_CONTEXT ( 'NONE', #305, 'mechanical' ) ;
#13 = ORIENTED_EDGE ( 'NONE', *, *, #294, .T. ) ;
#14 = ADVANCED_FACE ( 'NONE', ( #263 ), #262, .F. ) ;
#15 = EDGE_LOOP ( 'NONE', ( #16, #20, #23, #26 ) ) ;
#16 = ORIENTED_EDGE ( 'NONE', *, *, #17, .F. ) ;
#17 = EDGE_CURVE ( 'NONE', #18, #19, #261, .T. ) ;
#18 = VERTEX_POINT ( 'NONE', #252 ) ;
#19 = VERTEX_POINT ( 'NONE', #251 ) ;
#20 = ORIENTED_EDGE ( 'NONE', *, *, #21, .T. ) ;
#21 = EDGE_CURVE ( 'NONE', #18, #22, #250, .T. ) ;
#22 = VERTEX_POINT ( 'NONE', #246 ) ;
#23 = ORIENTED_EDGE ( 'NONE', *, *, #24, .T. ) ;
#24 = EDGE_CURVE ( 'NONE', #22, #25, #245, .T. ) ;
#25 = VERTEX_POINT ( 'NONE', #240 ) ;
#26 = ORIENTED_EDGE ( 'NONE', *, *, #27, .F. ) ;
#27 = EDGE_CURVE ( 'NONE', #19, #25, #239, .T. ) ;
#28 = ADVANCED_FACE ( 'NONE', ( #235 ), #234, .F. ) ;
#29 = EDGE_LOOP ( 'NONE', ( #300, #303, #276, #6 ) ) ;
#30 = VERTEX_POINT ( 'NONE', #229 ) ;
#31 = MANIFOLD_SOLID_BREP ( 'NONE', #67 ) ;
#32 = ADVANCED_FACE ( 'NONE', ( #228 ), #227, .T. ) ;
#33 = EDGE_LOOP ( 'NONE', ( #34, #38, #41, #44 ) ) ;
#34 = ORIENTED_EDGE ( 'NONE', *, *, #35, .F. ) ;
#35 = EDGE_CURVE ( 'NONE', #36, #37, #226, .T. ) ;
#36 = VERTEX_POINT ( 'NONE', #217 ) ;
#37 = VERTEX_POINT ( 'NONE', #216 ) ;
#38 = ORIENTED_EDGE ( 'NONE', *, *, #39, .T. ) ;
#39 = EDGE_CURVE ( 'NONE', #36, #40, #215, .T. ) ;
#40 = VERTEX_POINT ( 'NONE', #211 ) ;
#41 = ORIENTED_EDGE ( 'NONE', *, *, #42, .T. ) ;
#42 = EDGE_CURVE ( 'NONE', #40, #43, #210, .T. ) ;
#43 = VERTEX_POINT ( 'NONE', #205 ) ;
#44 = ORIENTED_EDGE ( 'NONE', *, *, #45, .F. ) ;
#45 = EDGE_CURVE ( 'NONE', #37, #43, #204, .T. ) ;
#46 = ORIENTED_EDGE ( 'NONE', *, *, #301, .T. ) ;
#47 = ADVANCED_FACE ( 'NONE', ( #200 ), #198, .F. ) ;
#48 = ORIENTED_EDGE ( 'NONE', *, *, #21, .F. ) ;
#49 = ORIENTED_EDGE ( 'NONE', *, *, #50, .F. ) ;
#50 = EDGE_CURVE ( 'NONE', #19, #18, #193, .T. ) ;
#51 = ORIENTED_EDGE ( 'NONE', *, *, #27, .T. ) ;
#52 = ORIENTED_EDGE ( 'NONE', *, *, #75, .T. ) ;
#53 = ADVANCED_FACE ( 'NONE', ( #189, #188 ), #187, .F. ) ;
#54 = EDGE_LOOP ( 'NONE', ( #55, #57 ) ) ;
#55 = ORIENTED_EDGE ( 'NONE', *, *, #56, .F. ) ;
#56 = EDGE_CURVE ( 'NONE', #43, #40, #182, .T. ) ;
#57 = ORIENTED_EDGE ( 'NONE', *, *, #42, .F. ) ;
#58 = EDGE_LOOP ( 'NONE', ( #59, #60 ) ) ;
#59 = ORIENTED_EDGE ( 'NONE', *, *, #50, .T. ) ;
#60 = ORIENTED_EDGE ( 'NONE', *, *, #17, .T. ) ;
#61 = ADVANCED_FACE ( 'NONE', ( #177 ), #175, .T. ) ;
#62 = EDGE_LOOP ( 'NONE', ( #63, #64, #65, #66 ) ) ;
#63 = ORIENTED_EDGE ( 'NONE', *, *, #39, .F. ) ;
#64 = ORIENTED_EDGE ( 'NONE', *, *, #299, .F. ) ;
#65 = ORIENTED_EDGE ( 'NONE', *, *, #45, .T. ) ;
#66 = ORIENTED_EDGE ( 'NONE', *, *, #56, .T. ) ;
#67 = CLOSED_SHELL ( 'NONE', ( #32, #14, #28, #2, #295, #8, #69, #87, #47, #53, #61 ) ) ;
#68 = ORIENTED_EDGE ( 'NONE', *, *, #89, .T. ) ;
#69 = ADVANCED_FACE ( 'NONE', ( #176 ), #170, .F. ) ;
#70 = EDGE_LOOP ( 'NONE', ( #82, #83, #85, #86 ) ) ;
#71 = ORIENTED_EDGE ( 'NONE', *, *, #309, .F. ) ;
#72 = ORIENTED_EDGE ( 'NONE', *, *, #80, .F. ) ;
#73 = ORIENTED_EDGE ( 'NONE', *, *, #291, .T. ) ;
#74 = ORIENTED_EDGE ( 'NONE', *, *, #75, .F. ) ;
#75 = EDGE_CURVE ( 'NONE', #25, #22, #164, .T. ) ;
#76 = ORIENTED_EDGE ( 'NONE', *, *, #24, .F. ) ;
#77 = EDGE_LOOP ( 'NONE', ( #78, #46 ) ) ;
#78 = ORIENTED_EDGE ( 'NONE', *, *, #84, .T. ) ;
#79 = EDGE_LOOP ( 'NONE', ( #48, #49, #51, #52 ) ) ;
#80 = EDGE_CURVE ( 'NONE', #4, #275, #160, .T. ) ;
#81 = EDGE_LOOP ( 'NONE', ( #73, #68 ) ) ;
#82 = ORIENTED_EDGE ( 'NONE', *, *, #304, .F. ) ;
#83 = ORIENTED_EDGE ( 'NONE', *, *, #84, .F. ) ;
#84 = EDGE_CURVE ( 'NONE', #302, #30, #155, .T. ) ;
#85 = ORIENTED_EDGE ( 'NONE', *, *, #5, .T. ) ;
#86 = ORIENTED_EDGE ( 'NONE', *, *, #80, .T. ) ;
#87 = ADVANCED_FACE ( 'NONE', ( #150, #149 ), #148, .F. ) ;
#88 = EDGE_LOOP ( 'NONE', ( #74, #76 ) ) ;
#89 = EDGE_CURVE ( 'NONE', #289, #292, #143, .T. ) ;
#90 = ADVANCED_BREP_SHAPE_REPRESENTATION ( 'C-30-RK-28-ÃÞÌ«ÙÄ', ( #31, #308 ), #91 ) ;
#91 =( GEOMETRIC_REPRESENTATION_CONTEXT ( 3 ) GLOBAL_UNCERTAINTY_ASSIGNED_CONTEXT ( ( #92 ) ) GLOBAL_UNIT_ASSIGNED_CONTEXT ( ( #284, #94, #93 ) ) REPRESENTATION_CONTEXT ( 'NONE', 'WORKASPACE' ) );
#92 = UNCERTAINTY_MEASURE_WITH_UNIT (LENGTH_MEASURE( 1.000000000000000100E-005 ), #284, 'distance_accuracy_value', 'NONE');
#93 =( NAMED_UNIT ( * ) SI_UNIT ( $, .STERADIAN. ) SOLID_ANGLE_UNIT ( ) );
#94 =( NAMED_UNIT ( * ) PLANE_ANGLE_UNIT ( ) SI_UNIT ( $, .RADIAN. ) );
#95 = DIRECTION ( 'NONE',  ( 0.0000000000000000000, 0.0000000000000000000, 1.000000000000000000 ) ) ;
#96 = DIRECTION ( 'NONE',  ( 0.0000000000000000000, 1.000000000000000000, 0.0000000000000000000 ) ) ;
#97 = CARTESIAN_POINT ( 'NONE',  ( -5.009326287108706300E-010, 3.499565654624392500E-009, 0.0000000000000000000 ) ) ;
#98 = AXIS2_PLACEMENT_3D ( 'NONE', #97, #96, #95 ) ;
#99 = CIRCLE ( 'NONE', #98, 6.000000000000000000 ) ;
#100 = DIRECTION ( 'NONE',  ( 0.0000000000000000000, 1.000000000000000000, 0.0000000000000000000 ) ) ;
#101 = VECTOR ( 'NONE', #100, 1000.000000000000000 ) ;
#102 = CARTESIAN_POINT ( 'NONE',  ( -5.009318939470583400E-010, 2.412507003500041800, -6.000000000000001800 ) ) ;
#103 = LINE ( 'NONE', #102, #101 ) ;
#104 = CARTESIAN_POINT ( 'NONE',  ( -5.009326287108706300E-010, -10.99999999650043500, 6.000000000000002700 ) ) ;
#105 = DIRECTION ( 'NONE',  ( 0.0000000000000000000, 0.0000000000000000000, 1.000000000000000000 ) ) ;
#106 = DIRECTION ( 'NONE',  ( 0.0000000000000000000, 1.000000000000000000, 0.0000000000000000000 ) ) ;
#107 = CARTESIAN_POINT ( 'NONE',  ( -5.009326287108706300E-010, -10.99999999650043500, 0.0000000000000000000 ) ) ;
#108 = AXIS2_PLACEMENT_3D ( 'NONE', #107, #106, #105 ) ;
#109 = CIRCLE ( 'NONE', #108, 6.000000000000002700 ) ;
#110 = DIRECTION ( 'NONE',  ( 0.0000000000000000000, 0.0000000000000000000, 1.000000000000000000 ) ) ;
#111 = DIRECTION ( 'NONE',  ( 0.0000000000000000000, 1.000000000000000000, 0.0000000000000000000 ) ) ;
#112 = CARTESIAN_POINT ( 'NONE',  ( -5.009326287108706300E-010, -1.671202021889731400, 0.0000000000000000000 ) ) ;
#113 = AXIS2_PLACEMENT_3D ( 'NONE', #112, #111, #110 ) ;
#114 = CIRCLE ( 'NONE', #113, 11.27853367089821600 ) ;
#115 = DIRECTION ( 'NONE',  ( 0.0000000000000000000, 0.0000000000000000000, 1.000000000000000000 ) ) ;
#116 = DIRECTION ( 'NONE',  ( 0.0000000000000000000, 1.000000000000000000, 0.0000000000000000000 ) ) ;
#117 = AXIS2_PLACEMENT_3D ( 'NONE', #119, #116, #115 ) ;
#118 = TOROIDAL_SURFACE ( 'NONE', #117, 9.305745823233925400, 2.000000000000000000 ) ;
#119 = CARTESIAN_POINT ( 'NONE',  ( -5.009326287108706300E-010, -1.999999996500434500, 0.0000000000000000000 ) ) ;
#120 = DIRECTION ( 'NONE',  ( 0.0000000000000000000, 0.0000000000000000000, 1.000000000000000000 ) ) ;
#121 = DIRECTION ( 'NONE',  ( -1.000000000000000000, 0.0000000000000000000, 0.0000000000000000000 ) ) ;
#122 = CARTESIAN_POINT ( 'NONE',  ( -5.009326287108706300E-010, -1.999999996500434500, 9.305745823233925400 ) ) ;
#123 = AXIS2_PLACEMENT_3D ( 'NONE', #122, #121, #120 ) ;
#124 = CIRCLE ( 'NONE', #123, 2.000000000000000000 ) ;
#125 = FACE_OUTER_BOUND ( 'NONE', #296, .T. ) ;
#126 = CARTESIAN_POINT ( 'NONE',  ( -5.009326287108706300E-010, 3.499565654624392500E-009, 9.305745823233914700 ) ) ;
#127 = DIRECTION ( 'NONE',  ( 0.0000000000000000000, 0.0000000000000000000, 1.000000000000000000 ) ) ;
#128 = DIRECTION ( 'NONE',  ( 0.0000000000000000000, 1.000000000000000000, 0.0000000000000000000 ) ) ;
#129 = CARTESIAN_POINT ( 'NONE',  ( -5.009326287108706300E-010, 3.499565654624392500E-009, 0.0000000000000000000 ) ) ;
#130 = AXIS2_PLACEMENT_3D ( 'NONE', #129, #128, #127 ) ;
#131 = CIRCLE ( 'NONE', #130, 9.305745823233914700 ) ;
#132 = CARTESIAN_POINT ( 'NONE',  ( -5.009313683288977200E-010, 3.499565654624392500E-009, -9.305745823233914700 ) ) ;
#133 = DIRECTION ( 'NONE',  ( 1.224606353612350900E-016, 0.0000000000000000000, -1.000000000000000000 ) ) ;
#134 = DIRECTION ( 'NONE',  ( 1.000000000000000000, 0.0000000000000000000, 1.224606353822377300E-016 ) ) ;
#135 = CARTESIAN_POINT ( 'NONE',  ( -5.009314891233243800E-010, -1.999999996500434500, -9.305745823233925400 ) ) ;
#136 = AXIS2_PLACEMENT_3D ( 'NONE', #135, #134, #133 ) ;
#137 = CIRCLE ( 'NONE', #136, 2.000000000000000000 ) ;
#138 = CARTESIAN_POINT ( 'NONE',  ( -5.009318939470583400E-010, 3.499565654624392500E-009, -6.000000000000000000 ) ) ;
#139 = DIRECTION ( 'NONE',  ( 0.0000000000000000000, 0.0000000000000000000, 1.000000000000000000 ) ) ;
#140 = DIRECTION ( 'NONE',  ( 0.0000000000000000000, 1.000000000000000000, 0.0000000000000000000 ) ) ;
#141 = CARTESIAN_POINT ( 'NONE',  ( -5.009326287108706300E-010, 3.499565654624392500E-009, 0.0000000000000000000 ) ) ;
#142 = AXIS2_PLACEMENT_3D ( 'NONE', #141, #140, #139 ) ;
#143 = CIRCLE ( 'NONE', #142, 9.305745823233914700 ) ;
#144 = DIRECTION ( 'NONE',  ( 0.0000000000000000000, 0.0000000000000000000, -1.000000000000000000 ) ) ;
#145 = DIRECTION ( 'NONE',  ( 0.0000000000000000000, -1.000000000000000000, 0.0000000000000000000 ) ) ;
#146 = CARTESIAN_POINT ( 'NONE',  ( 5.999999999499070000, -10.99999999650043500, 0.0000000000000000000 ) ) ;
#147 = AXIS2_PLACEMENT_3D ( 'NONE', #146, #145, #144 ) ;
#148 = PLANE ( 'NONE',  #147 ) ;
#149 = FACE_OUTER_BOUND ( 'NONE', #77, .T. ) ;
#150 = FACE_BOUND ( 'NONE', #88, .T. ) ;
#151 = DIRECTION ( 'NONE',  ( 0.0000000000000000000, 0.0000000000000000000, 1.000000000000000000 ) ) ;
#152 = DIRECTION ( 'NONE',  ( 0.0000000000000000000, 1.000000000000000000, 0.0000000000000000000 ) ) ;
#153 = CARTESIAN_POINT ( 'NONE',  ( -5.009326287108706300E-010, -10.99999999650043500, 0.0000000000000000000 ) ) ;
#154 = AXIS2_PLACEMENT_3D ( 'NONE', #153, #152, #151 ) ;
#155 = CIRCLE ( 'NONE', #154, 6.000000000000002700 ) ;
#156 = DIRECTION ( 'NONE',  ( 0.0000000000000000000, 0.0000000000000000000, 1.000000000000000000 ) ) ;
#157 = DIRECTION ( 'NONE',  ( 0.0000000000000000000, 1.000000000000000000, 0.0000000000000000000 ) ) ;
#158 = CARTESIAN_POINT ( 'NONE',  ( -5.009326287108706300E-010, 3.499565654624392500E-009, 0.0000000000000000000 ) ) ;
#159 = AXIS2_PLACEMENT_3D ( 'NONE', #158, #157, #156 ) ;
#160 = CIRCLE ( 'NONE', #159, 6.000000000000000000 ) ;
#161 = DIRECTION ( 'NONE',  ( 0.0000000000000000000, 0.0000000000000000000, 1.000000000000000000 ) ) ;
#162 = DIRECTION ( 'NONE',  ( 0.0000000000000000000, 1.000000000000000000, 0.0000000000000000000 ) ) ;
#163 = AXIS2_PLACEMENT_3D ( 'NONE', #169, #162, #161 ) ;
#164 = CIRCLE ( 'NONE', #163, 2.000000000000000000 ) ;
#165 = DIRECTION ( 'NONE',  ( 0.0000000000000000000, 0.0000000000000000000, 1.000000000000000000 ) ) ;
#166 = DIRECTION ( 'NONE',  ( 0.0000000000000000000, 1.000000000000000000, 0.0000000000000000000 ) ) ;
#167 = CARTESIAN_POINT ( 'NONE',  ( -5.009326287108706300E-010, 2.412507003500041800, 0.0000000000000000000 ) ) ;
#168 = AXIS2_PLACEMENT_3D ( 'NONE', #167, #166, #165 ) ;
#169 = CARTESIAN_POINT ( 'NONE',  ( -5.009326287108706300E-010, -10.99999999650043500, 0.0000000000000000000 ) ) ;
#170 = CYLINDRICAL_SURFACE ( 'NONE', #168, 6.000000000000001800 ) ;
#171 = DIRECTION ( 'NONE',  ( 0.0000000000000000000, 0.0000000000000000000, -1.000000000000000000 ) ) ;
#172 = DIRECTION ( 'NONE',  ( 0.0000000000000000000, -1.000000000000000000, 0.0000000000000000000 ) ) ;
#173 = CARTESIAN_POINT ( 'NONE',  ( -5.009326287108706300E-010, -17.99999999650043500, 0.0000000000000000000 ) ) ;
#174 = AXIS2_PLACEMENT_3D ( 'NONE', #173, #172, #171 ) ;
#175 = CONICAL_SURFACE ( 'NONE', #174, 14.00000000000000000, 0.1651486774146268300 ) ;
#176 = FACE_OUTER_BOUND ( 'NONE', #70, .T. ) ;
#177 = FACE_OUTER_BOUND ( 'NONE', #62, .T. ) ;
#178 = DIRECTION ( 'NONE',  ( 0.0000000000000000000, 0.0000000000000000000, 1.000000000000000000 ) ) ;
#179 = DIRECTION ( 'NONE',  ( 0.0000000000000000000, 1.000000000000000000, 0.0000000000000000000 ) ) ;
#180 = CARTESIAN_POINT ( 'NONE',  ( -5.009326287108706300E-010, -17.99999999650043500, 0.0000000000000000000 ) ) ;
#181 = AXIS2_PLACEMENT_3D ( 'NONE', #180, #179, #178 ) ;
#182 = CIRCLE ( 'NONE', #181, 14.00000000000000000 ) ;
#183 = DIRECTION ( 'NONE',  ( 0.0000000000000000000, 0.0000000000000000000, 1.000000000000000000 ) ) ;
#184 = DIRECTION ( 'NONE',  ( 0.0000000000000000000, 1.000000000000000000, 0.0000000000000000000 ) ) ;
#185 = CARTESIAN_POINT ( 'NONE',  ( 1.999999999499068300, -17.99999999650043500, 0.0000000000000000000 ) ) ;
#186 = AXIS2_PLACEMENT_3D ( 'NONE', #185, #184, #183 ) ;
#187 = PLANE ( 'NONE',  #186 ) ;
#188 = FACE_BOUND ( 'NONE', #58, .T. ) ;
#189 = FACE_OUTER_BOUND ( 'NONE', #54, .T. ) ;
#190 = DIRECTION ( 'NONE',  ( 0.0000000000000000000, 0.0000000000000000000, 1.000000000000000000 ) ) ;
#191 = DIRECTION ( 'NONE',  ( 0.0000000000000000000, 1.000000000000000000, 0.0000000000000000000 ) ) ;
#192 = AXIS2_PLACEMENT_3D ( 'NONE', #199, #191, #190 ) ;
#193 = CIRCLE ( 'NONE', #192, 2.000000000000000900 ) ;
#194 = DIRECTION ( 'NONE',  ( 0.0000000000000000000, 0.0000000000000000000, 1.000000000000000000 ) ) ;
#195 = DIRECTION ( 'NONE',  ( 0.0000000000000000000, 1.000000000000000000, 0.0000000000000000000 ) ) ;
#196 = CARTESIAN_POINT ( 'NONE',  ( -5.009326287108706300E-010, 2.412507003500041800, 0.0000000000000000000 ) ) ;
#197 = AXIS2_PLACEMENT_3D ( 'NONE', #196, #195, #194 ) ;
#198 = CYLINDRICAL_SURFACE ( 'NONE', #197, 2.000000000000000400 ) ;
#199 = CARTESIAN_POINT ( 'NONE',  ( -5.009326287108706300E-010, -17.99999999650043500, 0.0000000000000000000 ) ) ;
#200 = FACE_OUTER_BOUND ( 'NONE', #79, .T. ) ;
#201 = DIRECTION ( 'NONE',  ( 0.0000000000000000000, -0.9863939238321437500, -0.1643989873053573200 ) ) ;
#202 = VECTOR ( 'NONE', #201, 1000.000000000000000 ) ;
#203 = CARTESIAN_POINT ( 'NONE',  ( -5.009326287108706300E-010, -17.99999999650043500, -14.00000000000000000 ) ) ;
#204 = LINE ( 'NONE', #203, #202 ) ;
#205 = CARTESIAN_POINT ( 'NONE',  ( -5.009326287108706300E-010, -17.99999999650043500, -14.00000000000000000 ) ) ;
#206 = DIRECTION ( 'NONE',  ( 0.0000000000000000000, 0.0000000000000000000, 1.000000000000000000 ) ) ;
#207 = DIRECTION ( 'NONE',  ( 0.0000000000000000000, 1.000000000000000000, 0.0000000000000000000 ) ) ;
#208 = CARTESIAN_POINT ( 'NONE',  ( -5.009326287108706300E-010, -17.99999999650043500, 0.0000000000000000000 ) ) ;
#209 = AXIS2_PLACEMENT_3D ( 'NONE', #208, #207, #206 ) ;
#210 = CIRCLE ( 'NONE', #209, 14.00000000000000000 ) ;
#211 = CARTESIAN_POINT ( 'NONE',  ( -5.009309142619752800E-010, -17.99999999650043500, 14.00000000000000000 ) ) ;
#212 = DIRECTION ( 'NONE',  ( 2.013240444161049200E-017, -0.9863939238321437500, 0.1643989873053573200 ) ) ;
#213 = VECTOR ( 'NONE', #212, 1000.000000000000000 ) ;
#214 = CARTESIAN_POINT ( 'NONE',  ( -5.009309142619752800E-010, -17.99999999650043500, 14.00000000000000000 ) ) ;
#215 = LINE ( 'NONE', #214, #213 ) ;
#216 = CARTESIAN_POINT ( 'NONE',  ( -5.009312475344711700E-010, -1.671202021889731400, -11.27853367089821600 ) ) ;
#217 = CARTESIAN_POINT ( 'NONE',  ( -5.009326287108706300E-010, -1.671202021889731400, 11.27853367089821600 ) ) ;
#218 = DIRECTION ( 'NONE',  ( 0.0000000000000000000, 0.0000000000000000000, 1.000000000000000000 ) ) ;
#219 = DIRECTION ( 'NONE',  ( 0.0000000000000000000, 1.000000000000000000, 0.0000000000000000000 ) ) ;
#220 = CARTESIAN_POINT ( 'NONE',  ( -5.009326287108706300E-010, -1.671202021889731400, 0.0000000000000000000 ) ) ;
#221 = AXIS2_PLACEMENT_3D ( 'NONE', #220, #219, #218 ) ;
#222 = DIRECTION ( 'NONE',  ( 0.0000000000000000000, 0.0000000000000000000, -1.000000000000000000 ) ) ;
#223 = DIRECTION ( 'NONE',  ( 0.0000000000000000000, -1.000000000000000000, 0.0000000000000000000 ) ) ;
#224 = CARTESIAN_POINT ( 'NONE',  ( -5.009326287108706300E-010, -17.99999999650043500, 0.0000000000000000000 ) ) ;
#225 = AXIS2_PLACEMENT_3D ( 'NONE', #224, #223, #222 ) ;
#226 = CIRCLE ( 'NONE', #221, 11.27853367089821600 ) ;
#227 = CONICAL_SURFACE ( 'NONE', #225, 14.00000000000000000, 0.1651486774146268300 ) ;
#228 = FACE_OUTER_BOUND ( 'NONE', #33, .T. ) ;
#229 = CARTESIAN_POINT ( 'NONE',  ( -5.009318939470583400E-010, -10.99999999650043500, -6.000000000000003600 ) ) ;
#230 = DIRECTION ( 'NONE',  ( 0.0000000000000000000, 0.0000000000000000000, 1.000000000000000000 ) ) ;
#231 = DIRECTION ( 'NONE',  ( 0.0000000000000000000, 1.000000000000000000, 0.0000000000000000000 ) ) ;
#232 = CARTESIAN_POINT ( 'NONE',  ( -5.009326287108706300E-010, 2.412507003500041800, 0.0000000000000000000 ) ) ;
#233 = AXIS2_PLACEMENT_3D ( 'NONE', #232, #231, #230 ) ;
#234 = CYLINDRICAL_SURFACE ( 'NONE', #233, 6.000000000000001800 ) ;
#235 = FACE_OUTER_BOUND ( 'NONE', #29, .T. ) ;
#236 = DIRECTION ( 'NONE',  ( 0.0000000000000000000, 1.000000000000000000, 0.0000000000000000000 ) ) ;
#237 = VECTOR ( 'NONE', #236, 1000.000000000000000 ) ;
#238 = CARTESIAN_POINT ( 'NONE',  ( -5.009326287108706300E-010, 2.412507003500041800, 2.000000000000000400 ) ) ;
#239 = LINE ( 'NONE', #238, #237 ) ;
#240 = CARTESIAN_POINT ( 'NONE',  ( -5.009326287108706300E-010, -10.99999999650043500, 2.000000000000000000 ) ) ;
#241 = DIRECTION ( 'NONE',  ( 0.0000000000000000000, 0.0000000000000000000, 1.000000000000000000 ) ) ;
#242 = DIRECTION ( 'NONE',  ( 0.0000000000000000000, 1.000000000000000000, 0.0000000000000000000 ) ) ;
#243 = CARTESIAN_POINT ( 'NONE',  ( -5.009326287108706300E-010, -10.99999999650043500, 0.0000000000000000000 ) ) ;
#244 = AXIS2_PLACEMENT_3D ( 'NONE', #243, #242, #241 ) ;
#245 = CIRCLE ( 'NONE', #244, 2.000000000000000000 ) ;
#246 = CARTESIAN_POINT ( 'NONE',  ( -5.009323837895998700E-010, -10.99999999650043500, -2.000000000000000000 ) ) ;
#247 = DIRECTION ( 'NONE',  ( 0.0000000000000000000, 1.000000000000000000, 0.0000000000000000000 ) ) ;
#248 = VECTOR ( 'NONE', #247, 1000.000000000000000 ) ;
#249 = CARTESIAN_POINT ( 'NONE',  ( -5.009323837895998700E-010, 2.412507003500041800, -2.000000000000000400 ) ) ;
#250 = LINE ( 'NONE', #249, #248 ) ;
#251 = CARTESIAN_POINT ( 'NONE',  ( -5.009326287108706300E-010, -17.99999999650043500, 2.000000000000000900 ) ) ;
#252 = CARTESIAN_POINT ( 'NONE',  ( -5.009323837895998700E-010, -17.99999999650043500, -2.000000000000000900 ) ) ;
#253 = DIRECTION ( 'NONE',  ( 0.0000000000000000000, 0.0000000000000000000, 1.000000000000000000 ) ) ;
#254 = DIRECTION ( 'NONE',  ( 0.0000000000000000000, 1.000000000000000000, 0.0000000000000000000 ) ) ;
#255 = CARTESIAN_POINT ( 'NONE',  ( -5.009326287108706300E-010, -17.99999999650043500, 0.0000000000000000000 ) ) ;
#256 = AXIS2_PLACEMENT_3D ( 'NONE', #255, #254, #253 ) ;
#257 = DIRECTION ( 'NONE',  ( 0.0000000000000000000, 0.0000000000000000000, 1.000000000000000000 ) ) ;
#258 = DIRECTION ( 'NONE',  ( 0.0000000000000000000, 1.000000000000000000, 0.0000000000000000000 ) ) ;
#259 = CARTESIAN_POINT ( 'NONE',  ( -5.009326287108706300E-010, 2.412507003500041800, 0.0000000000000000000 ) ) ;
#260 = AXIS2_PLACEMENT_3D ( 'NONE', #259, #258, #257 ) ;
#261 = CIRCLE ( 'NONE', #256, 2.000000000000000900 ) ;
#262 = CYLINDRICAL_SURFACE ( 'NONE', #260, 2.000000000000000400 ) ;
#263 = FACE_OUTER_BOUND ( 'NONE', #15, .T. ) ;
#264 = DIRECTION ( 'NONE',  ( 0.0000000000000000000, 0.0000000000000000000, -1.000000000000000000 ) ) ;
#265 = DIRECTION ( 'NONE',  ( 0.0000000000000000000, -1.000000000000000000, 0.0000000000000000000 ) ) ;
#266 = CARTESIAN_POINT ( 'NONE',  ( 9.305745822732982100, 3.499565654624392500E-009, 0.0000000000000000000 ) ) ;
#267 = AXIS2_PLACEMENT_3D ( 'NONE', #266, #265, #264 ) ;
#268 = PLANE ( 'NONE',  #267 ) ;
#269 = FACE_OUTER_BOUND ( 'NONE', #81, .T. ) ;
#270 = FACE_BOUND ( 'NONE', #9, .T. ) ;
#271 = DIRECTION ( 'NONE',  ( 0.0000000000000000000, 1.000000000000000000, 0.0000000000000000000 ) ) ;
#272 = VECTOR ( 'NONE', #271, 1000.000000000000000 ) ;
#273 = CARTESIAN_POINT ( 'NONE',  ( -5.009326287108706300E-010, 2.412507003500041800, 6.000000000000001800 ) ) ;
#274 = LINE ( 'NONE', #273, #272 ) ;
#275 = VERTEX_POINT ( 'NONE', #138 ) ;
#276 = ORIENTED_EDGE ( 'NONE', *, *, #309, .T. ) ;
#277 = CARTESIAN_POINT ( 'NONE',  ( -5.009326287108706300E-010, 3.499565654624392500E-009, 6.000000000000000000 ) ) ;
#278 = DIRECTION ( 'NONE',  ( 0.0000000000000000000, 0.0000000000000000000, 1.000000000000000000 ) ) ;
#279 = DIRECTION ( 'NONE',  ( 0.0000000000000000000, 1.000000000000000000, 0.0000000000000000000 ) ) ;
#280 = AXIS2_PLACEMENT_3D ( 'NONE', #282, #279, #278 ) ;
#281 = TOROIDAL_SURFACE ( 'NONE', #280, 9.305745823233925400, 2.000000000000000000 ) ;
#282 = CARTESIAN_POINT ( 'NONE',  ( -5.009326287108706300E-010, -1.999999996500434500, 0.0000000000000000000 ) ) ;
#283 = FACE_OUTER_BOUND ( 'NONE', #1, .T. ) ;
#284 =( LENGTH_UNIT ( ) NAMED_UNIT ( * ) SI_UNIT ( .MILLI., .METRE. ) );
#285 = CARTESIAN_POINT ( 'NONE',  ( 0.0000000000000000000, 0.0000000000000000000, 0.0000000000000000000 ) ) ;
#286 = ORIENTED_EDGE ( 'NONE', *, *, #35, .T. ) ;
#287 = ORIENTED_EDGE ( 'NONE', *, *, #288, .T. ) ;
#288 = EDGE_CURVE ( 'NONE', #37, #289, #137, .T. ) ;
#289 = VERTEX_POINT ( 'NONE', #132 ) ;
#290 = ORIENTED_EDGE ( 'NONE', *, *, #291, .F. ) ;
#291 = EDGE_CURVE ( 'NONE', #292, #289, #131, .T. ) ;
#292 = VERTEX_POINT ( 'NONE', #126 ) ;
#293 = ORIENTED_EDGE ( 'NONE', *, *, #294, .F. ) ;
#294 = EDGE_CURVE ( 'NONE', #36, #292, #124, .T. ) ;
#295 = ADVANCED_FACE ( 'NONE', ( #125 ), #118, .T. ) ;
#296 = EDGE_LOOP ( 'NONE', ( #297, #298, #13, #7 ) ) ;
#297 = ORIENTED_EDGE ( 'NONE', *, *, #288, .F. ) ;
#298 = ORIENTED_EDGE ( 'NONE', *, *, #299, .T. ) ;
#299 = EDGE_CURVE ( 'NONE', #37, #36, #114, .T. ) ;
#300 = ORIENTED_EDGE ( 'NONE', *, *, #301, .F. ) ;
#301 = EDGE_CURVE ( 'NONE', #30, #302, #109, .T. ) ;
#302 = VERTEX_POINT ( 'NONE', #104 ) ;
#303 = ORIENTED_EDGE ( 'NONE', *, *, #304, .T. ) ;
#304 = EDGE_CURVE ( 'NONE', #30, #275, #103, .T. ) ;
#305 = APPLICATION_CONTEXT ( 'configuration controlled 3d designs of mechanical parts and assemblies' ) ;
#306 = DIRECTION ( 'NONE',  ( 1.000000000000000000, 0.0000000000000000000, 0.0000000000000000000 ) ) ;
#307 = DIRECTION ( 'NONE',  ( 0.0000000000000000000, 0.0000000000000000000, 1.000000000000000000 ) ) ;
#308 = AXIS2_PLACEMENT_3D ( 'NONE', #285, #307, #306 ) ;
#309 = EDGE_CURVE ( 'NONE', #275, #4, #99, .T. ) ;
#310 = APPROVAL_STATUS ( 'not_yet_approved' ) ;
#311 = PERSON_AND_ORGANIZATION ( #10, #319 ) ;
#312 = PRODUCT_DEFINITION ( 'UNKNOWN', '', #334, #313 ) ;
#313 = DESIGN_CONTEXT ( 'detailed design', #315, 'design' ) ;
#314 = APPLICATION_PROTOCOL_DEFINITION ( 'international standard', 'config_control_design', 1994, #315 ) ;
#315 = APPLICATION_CONTEXT ( 'configuration controlled 3d designs of mechanical parts and assemblies' ) ;
#316 = CC_DESIGN_PERSON_AND_ORGANIZATION_ASSIGNMENT ( #318, #317, ( #11 ) ) ;
#317 = PERSON_AND_ORGANIZATION_ROLE ( 'design_owner' ) ;
#318 = PERSON_AND_ORGANIZATION ( #10, #319 ) ;
#319 = ORGANIZATION ( 'UNSPECIFIED', 'UNSPECIFIED', '' ) ;
#320 = COORDINATED_UNIVERSAL_TIME_OFFSET ( 9, 0, .AHEAD. ) ;
#321 = LOCAL_TIME ( 10, 57, 44.00000000000000000, #320 ) ;
#322 = APPROVAL_ROLE ( '' ) ;
#323 = CC_DESIGN_APPROVAL ( #331, ( #334 ) ) ;
#324 = APPROVAL_DATE_TIME ( #325, #331 ) ;
#325 = DATE_AND_TIME ( #326, #327 ) ;
#326 = CALENDAR_DATE ( 2009, 29, 6 ) ;
#327 = LOCAL_TIME ( 10, 57, 44.00000000000000000, #328 ) ;
#328 = COORDINATED_UNIVERSAL_TIME_OFFSET ( 9, 0, .AHEAD. ) ;
#329 = APPROVAL_PERSON_ORGANIZATION ( #333, #331, #330 ) ;
#330 = APPROVAL_ROLE ( '' ) ;
#331 = APPROVAL ( #332, 'UNSPECIFIED' ) ;
#332 = APPROVAL_STATUS ( 'not_yet_approved' ) ;
#333 = PERSON_AND_ORGANIZATION ( #10, #319 ) ;
#334 = PRODUCT_DEFINITION_FORMATION_WITH_SPECIFIED_SOURCE ( 'ANY', '', #11, .NOT_KNOWN. ) ;
#335 = CC_DESIGN_DATE_AND_TIME_ASSIGNMENT ( #337, #336, ( #312 ) ) ;
#336 = DATE_TIME_ROLE ( 'creation_date' ) ;
#337 = DATE_AND_TIME ( #340, #341 ) ;
#338 = APPROVAL_PERSON_ORGANIZATION ( #311, #346, #322 ) ;
#339 = CC_DESIGN_APPROVAL ( #346, ( #312 ) ) ;
#340 = CALENDAR_DATE ( 2009, 29, 6 ) ;
#341 = LOCAL_TIME ( 10, 57, 44.00000000000000000, #342 ) ;
#342 = COORDINATED_UNIVERSAL_TIME_OFFSET ( 9, 0, .AHEAD. ) ;
#343 = CC_DESIGN_PERSON_AND_ORGANIZATION_ASSIGNMENT ( #345, #344, ( #312 ) ) ;
#344 = PERSON_AND_ORGANIZATION_ROLE ( 'creator' ) ;
#345 = PERSON_AND_ORGANIZATION ( #10, #319 ) ;
#346 = APPROVAL ( #310, 'UNSPECIFIED' ) ;
#347 = APPROVAL_DATE_TIME ( #348, #346 ) ;
#348 = DATE_AND_TIME ( #349, #321 ) ;
#349 = CALENDAR_DATE ( 2009, 29, 6 ) ;
#350 = CC_DESIGN_PERSON_AND_ORGANIZATION_ASSIGNMENT ( #351, #352, ( #334 ) ) ;
#351 = PERSON_AND_ORGANIZATION ( #10, #319 ) ;
#352 = PERSON_AND_ORGANIZATION_ROLE ( 'creator' ) ;
#353 = PERSON_AND_ORGANIZATION_ROLE ( 'classification_officer' ) ;
#354 = PERSON_AND_ORGANIZATION ( #10, #319 ) ;
#355 = SECURITY_CLASSIFICATION ( '', '', #356 ) ;
#356 = SECURITY_CLASSIFICATION_LEVEL ( 'unclassified' ) ;
#357 = CC_DESIGN_PERSON_AND_ORGANIZATION_ASSIGNMENT ( #359, #358, ( #334 ) ) ;
#358 = PERSON_AND_ORGANIZATION_ROLE ( 'design_supplier' ) ;
#359 = PERSON_AND_ORGANIZATION ( #10, #319 ) ;
#360 = APPROVAL_STATUS ( 'not_yet_approved' ) ;
#361 = PERSON_AND_ORGANIZATION ( #10, #319 ) ;
#362 = CC_DESIGN_DATE_AND_TIME_ASSIGNMENT ( #364, #363, ( #355 ) ) ;
#363 = DATE_TIME_ROLE ( 'classification_date' ) ;
#364 = DATE_AND_TIME ( #365, #366 ) ;
#365 = CALENDAR_DATE ( 2009, 29, 6 ) ;
#366 = LOCAL_TIME ( 10, 57, 44.00000000000000000, #367 ) ;
#367 = COORDINATED_UNIVERSAL_TIME_OFFSET ( 9, 0, .AHEAD. ) ;
#368 = CC_DESIGN_PERSON_AND_ORGANIZATION_ASSIGNMENT ( #354, #353, ( #355 ) ) ;
#369 = SHAPE_DEFINITION_REPRESENTATION ( #370, #90 ) ;
#370 = PRODUCT_DEFINITION_SHAPE ( 'NONE', 'NONE',  #312 ) ;
#371 = PRODUCT_RELATED_PRODUCT_CATEGORY ( 'detail', '', ( #11 ) ) ;
#372 = CC_DESIGN_SECURITY_CLASSIFICATION ( #355, ( #334 ) ) ;
#373 = CC_DESIGN_APPROVAL ( #381, ( #355 ) ) ;
#374 = APPROVAL_DATE_TIME ( #375, #381 ) ;
#375 = DATE_AND_TIME ( #376, #377 ) ;
#376 = CALENDAR_DATE ( 2009, 29, 6 ) ;
#377 = LOCAL_TIME ( 10, 57, 44.00000000000000000, #378 ) ;
#378 = COORDINATED_UNIVERSAL_TIME_OFFSET ( 9, 0, .AHEAD. ) ;
#379 = APPROVAL_PERSON_ORGANIZATION ( #361, #381, #380 ) ;
#380 = APPROVAL_ROLE ( '' ) ;
#381 = APPROVAL ( #360, 'UNSPECIFIED' ) ;
ENDSEC;
END-ISO-10303-21;
