ISO-10303-21;
HEADER;
FILE_DESCRIPTION (( 'STEP AP203' ),
    '1' );
FILE_NAME ('C-30-RK-28-gray.STEP',
    '2009-06-29T01:56:42',
    ( '11sw' ),
    ( '^LQ»¢®ïÐ' ),
    'SwSTEP 2.0',
    'SolidWorks 2007',
    '' );
FILE_SCHEMA (( 'CONFIG_CONTROL_DESIGN' ));
ENDSEC;

DATA;
#1 = EDGE_CURVE ( 'NONE', #347, #348, #89, .T. ) ;
#2 = VERTEX_POINT ( 'NONE', #87 ) ;
#3 = EDGE_LOOP ( 'NONE', ( #4, #349, #352, #24 ) ) ;
#4 = ORIENTED_EDGE ( 'NONE', *, *, #1, .F. ) ;
#5 = ADVANCED_FACE ( 'NONE', ( #86 ), #84, .F. ) ;
#6 = EDGE_CURVE ( 'NONE', #376, #2, #79, .T. ) ;
#7 = EDGE_CURVE ( 'NONE', #368, #370, #70, .T. ) ;
#8 = ORIENTED_EDGE ( 'NONE', *, *, #6, .F. ) ;
#9 = ORIENTED_EDGE ( 'NONE', *, *, #10, .F. ) ;
#10 = EDGE_CURVE ( 'NONE', #365, #370, #71, .T. ) ;
#11 = ADVANCED_FACE ( 'NONE', ( #94 ), #103, .T. ) ;
#12 = ADVANCED_FACE ( 'NONE', ( #104, #120 ), #139, .F. ) ;
#13 = ORIENTED_EDGE ( 'NONE', *, *, #34, .T. ) ;
#14 = EDGE_LOOP ( 'NONE', ( #46, #50 ) ) ;
#15 = ORIENTED_EDGE ( 'NONE', *, *, #375, .T. ) ;
#16 = ORIENTED_EDGE ( 'NONE', *, *, #61, .T. ) ;
#17 = EDGE_CURVE ( 'NONE', #377, #21, #129, .T. ) ;
#18 = EDGE_CURVE ( 'NONE', #2, #21, #125, .T. ) ;
#19 = EDGE_CURVE ( 'NONE', #348, #347, #151, .T. ) ;
#20 = ORIENTED_EDGE ( 'NONE', *, *, #33, .T. ) ;
#21 = VERTEX_POINT ( 'NONE', #96 ) ;
#22 = EDGE_LOOP ( 'NONE', ( #15, #23, #25, #8 ) ) ;
#23 = ORIENTED_EDGE ( 'NONE', *, *, #17, .T. ) ;
#24 = ORIENTED_EDGE ( 'NONE', *, *, #33, .F. ) ;
#25 = ORIENTED_EDGE ( 'NONE', *, *, #18, .F. ) ;
#26 = EDGE_CURVE ( 'NONE', #357, #380, #145, .T. ) ;
#27 = ORIENTED_EDGE ( 'NONE', *, *, #356, .F. ) ;
#28 = EDGE_LOOP ( 'NONE', ( #30, #27 ) ) ;
#29 = ADVANCED_FACE ( 'NONE', ( #91, #90 ), #95, .F. ) ;
#30 = ORIENTED_EDGE ( 'NONE', *, *, #26, .F. ) ;
#31 = ORIENTED_EDGE ( 'NONE', *, *, #350, .F. ) ;
#32 = ORIENTED_EDGE ( 'NONE', *, *, #19, .F. ) ;
#33 = EDGE_CURVE ( 'NONE', #348, #354, #118, .T. ) ;
#34 = EDGE_CURVE ( 'NONE', #354, #351, #108, .T. ) ;
#35 = EDGE_LOOP ( 'NONE', ( #31, #32, #20, #13 ) ) ;
#36 = ORIENTED_EDGE ( 'NONE', *, *, #34, .F. ) ;
#37 = EDGE_LOOP ( 'NONE', ( #62, #63 ) ) ;
#38 = ORIENTED_EDGE ( 'NONE', *, *, #353, .F. ) ;
#39 = ADVANCED_FACE ( 'NONE', ( #124 ), #121, .T. ) ;
#40 = ORIENTED_EDGE ( 'NONE', *, *, #345, .F. ) ;
#41 = EDGE_LOOP ( 'NONE', ( #42, #40, #52, #51 ) ) ;
#42 = ORIENTED_EDGE ( 'NONE', *, *, #379, .F. ) ;
#43 = ORIENTED_EDGE ( 'NONE', *, *, #44, .F. ) ;
#44 = EDGE_CURVE ( 'NONE', #365, #364, #132, .T. ) ;
#45 = ORIENTED_EDGE ( 'NONE', *, *, #10, .T. ) ;
#46 = ORIENTED_EDGE ( 'NONE', *, *, #44, .T. ) ;
#47 = ADVANCED_FACE ( 'NONE', ( #133 ), #176, .F. ) ;
#48 = EDGE_LOOP ( 'NONE', ( #49, #43, #45, #16 ) ) ;
#49 = ORIENTED_EDGE ( 'NONE', *, *, #367, .F. ) ;
#50 = ORIENTED_EDGE ( 'NONE', *, *, #363, .T. ) ;
#51 = ORIENTED_EDGE ( 'NONE', *, *, #26, .T. ) ;
#52 = ORIENTED_EDGE ( 'NONE', *, *, #359, .T. ) ;
#53 = CLOSED_SHELL ( 'NONE', ( #372, #360, #5, #11, #341, #339, #58, #12, #47, #29, #39 ) ) ;
#54 = ORIENTED_EDGE ( 'NONE', *, *, #1, .T. ) ;
#55 = ORIENTED_EDGE ( 'NONE', *, *, #7, .F. ) ;
#56 = ORIENTED_EDGE ( 'NONE', *, *, #19, .T. ) ;
#57 = EDGE_LOOP ( 'NONE', ( #56, #54 ) ) ;
#58 = ADVANCED_FACE ( 'NONE', ( #152 ), #206, .F. ) ;
#59 = EDGE_LOOP ( 'NONE', ( #60, #55 ) ) ;
#60 = ORIENTED_EDGE ( 'NONE', *, *, #61, .F. ) ;
#61 = EDGE_CURVE ( 'NONE', #370, #368, #166, .T. ) ;
#62 = ORIENTED_EDGE ( 'NONE', *, *, #18, .T. ) ;
#63 = ORIENTED_EDGE ( 'NONE', *, *, #381, .T. ) ;
#64 = DIRECTION ( 'NONE',  ( 0.0000000000000000000, 1.000000000000000000, 0.0000000000000000000 ) ) ;
#65 = VECTOR ( 'NONE', #64, 1000.000000000000000 ) ;
#66 = CARTESIAN_POINT ( 'NONE',  ( -5.009326287108706300E-010, 2.412507003500041800, 2.000000000000000400 ) ) ;
#67 = DIRECTION ( 'NONE',  ( 0.0000000000000000000, 0.0000000000000000000, 1.000000000000000000 ) ) ;
#68 = DIRECTION ( 'NONE',  ( 0.0000000000000000000, 1.000000000000000000, 0.0000000000000000000 ) ) ;
#69 = AXIS2_PLACEMENT_3D ( 'NONE', #80, #68, #67 ) ;
#70 = CIRCLE ( 'NONE', #69, 2.000000000000000000 ) ;
#71 = LINE ( 'NONE', #66, #65 ) ;
#72 = DIRECTION ( 'NONE',  ( 0.0000000000000000000, 0.0000000000000000000, 1.000000000000000000 ) ) ;
#73 = DIRECTION ( 'NONE',  ( -1.000000000000000000, 0.0000000000000000000, 0.0000000000000000000 ) ) ;
#74 = CARTESIAN_POINT ( 'NONE',  ( -5.009326287108706300E-010, -1.999999996500434500, 9.305745823233925400 ) ) ;
#75 = AXIS2_PLACEMENT_3D ( 'NONE', #74, #73, #72 ) ;
#76 = DIRECTION ( 'NONE',  ( 0.0000000000000000000, 1.000000000000000000, 0.0000000000000000000 ) ) ;
#77 = CARTESIAN_POINT ( 'NONE',  ( -5.009326287108706300E-010, -10.99999999650043500, 0.0000000000000000000 ) ) ;
#78 = AXIS2_PLACEMENT_3D ( 'NONE', #77, #76, #88 ) ;
#79 = CIRCLE ( 'NONE', #75, 2.000000000000000000 ) ;
#80 = CARTESIAN_POINT ( 'NONE',  ( -5.009326287108706300E-010, -10.99999999650043500, 0.0000000000000000000 ) ) ;
#81 = DIRECTION ( 'NONE',  ( 0.0000000000000000000, 0.0000000000000000000, 1.000000000000000000 ) ) ;
#82 = AXIS2_PLACEMENT_3D ( 'NONE', #83, #85, #81 ) ;
#83 = CARTESIAN_POINT ( 'NONE',  ( -5.009326287108706300E-010, 2.412507003500041800, 0.0000000000000000000 ) ) ;
#84 = CYLINDRICAL_SURFACE ( 'NONE', #82, 6.000000000000001800 ) ;
#85 = DIRECTION ( 'NONE',  ( 0.0000000000000000000, 1.000000000000000000, 0.0000000000000000000 ) ) ;
#86 = FACE_OUTER_BOUND ( 'NONE', #3, .T. ) ;
#87 = CARTESIAN_POINT ( 'NONE',  ( -5.009326287108706300E-010, 3.499565654624392500E-009, 9.305745823233914700 ) ) ;
#88 = DIRECTION ( 'NONE',  ( 0.0000000000000000000, 0.0000000000000000000, 1.000000000000000000 ) ) ;
#89 = CIRCLE ( 'NONE', #78, 6.000000000000002700 ) ;
#90 = FACE_BOUND ( 'NONE', #14, .T. ) ;
#91 = FACE_OUTER_BOUND ( 'NONE', #28, .T. ) ;
#92 = DIRECTION ( 'NONE',  ( 0.0000000000000000000, 0.0000000000000000000, 1.000000000000000000 ) ) ;
#93 = DIRECTION ( 'NONE',  ( 0.0000000000000000000, 1.000000000000000000, 0.0000000000000000000 ) ) ;
#94 = FACE_OUTER_BOUND ( 'NONE', #22, .T. ) ;
#95 = PLANE ( 'NONE',  #117 ) ;
#96 = CARTESIAN_POINT ( 'NONE',  ( -5.009313683288977200E-010, 3.499565654624392500E-009, -9.305745823233914700 ) ) ;
#97 = DIRECTION ( 'NONE',  ( 0.0000000000000000000, 0.0000000000000000000, 1.000000000000000000 ) ) ;
#98 = DIRECTION ( 'NONE',  ( 0.0000000000000000000, 1.000000000000000000, 0.0000000000000000000 ) ) ;
#99 = CARTESIAN_POINT ( 'NONE',  ( -5.009326287108706300E-010, 3.499565654624392500E-009, 0.0000000000000000000 ) ) ;
#100 = AXIS2_PLACEMENT_3D ( 'NONE', #99, #148, #147 ) ;
#101 = CARTESIAN_POINT ( 'NONE',  ( -5.009326287108706300E-010, -10.99999999650043500, 0.0000000000000000000 ) ) ;
#102 = DIRECTION ( 'NONE',  ( 0.0000000000000000000, 0.0000000000000000000, -1.000000000000000000 ) ) ;
#103 = TOROIDAL_SURFACE ( 'NONE', #146, 9.305745823233925400, 2.000000000000000000 ) ;
#104 = FACE_BOUND ( 'NONE', #59, .T. ) ;
#105 = DIRECTION ( 'NONE',  ( 0.0000000000000000000, 0.0000000000000000000, 1.000000000000000000 ) ) ;
#106 = DIRECTION ( 'NONE',  ( 0.0000000000000000000, 1.000000000000000000, 0.0000000000000000000 ) ) ;
#107 = AXIS2_PLACEMENT_3D ( 'NONE', #109, #106, #105 ) ;
#108 = CIRCLE ( 'NONE', #107, 6.000000000000000000 ) ;
#109 = CARTESIAN_POINT ( 'NONE',  ( -5.009326287108706300E-010, 3.499565654624392500E-009, 0.0000000000000000000 ) ) ;
#110 = DIRECTION ( 'NONE',  ( 0.0000000000000000000, 1.000000000000000000, 0.0000000000000000000 ) ) ;
#111 = VECTOR ( 'NONE', #110, 1000.000000000000000 ) ;
#112 = CARTESIAN_POINT ( 'NONE',  ( -5.009326287108706300E-010, 2.412507003500041800, 6.000000000000001800 ) ) ;
#113 = DIRECTION ( 'NONE',  ( 0.0000000000000000000, 0.0000000000000000000, 1.000000000000000000 ) ) ;
#114 = DIRECTION ( 'NONE',  ( 0.0000000000000000000, 1.000000000000000000, 0.0000000000000000000 ) ) ;
#115 = DIRECTION ( 'NONE',  ( 0.0000000000000000000, 1.000000000000000000, 0.0000000000000000000 ) ) ;
#116 = CARTESIAN_POINT ( 'NONE',  ( 1.999999999499068300, -17.99999999650043500, 0.0000000000000000000 ) ) ;
#117 = AXIS2_PLACEMENT_3D ( 'NONE', #116, #115, #119 ) ;
#118 = LINE ( 'NONE', #112, #111 ) ;
#119 = DIRECTION ( 'NONE',  ( 0.0000000000000000000, 0.0000000000000000000, 1.000000000000000000 ) ) ;
#120 = FACE_OUTER_BOUND ( 'NONE', #57, .T. ) ;
#121 = CONICAL_SURFACE ( 'NONE', #149, 14.00000000000000000, 0.1651486774146268300 ) ;
#122 = DIRECTION ( 'NONE',  ( 0.0000000000000000000, -1.000000000000000000, 0.0000000000000000000 ) ) ;
#123 = CARTESIAN_POINT ( 'NONE',  ( -5.009326287108706300E-010, -17.99999999650043500, 0.0000000000000000000 ) ) ;
#124 = FACE_OUTER_BOUND ( 'NONE', #41, .T. ) ;
#125 = CIRCLE ( 'NONE', #100, 9.305745823233914700 ) ;
#126 = DIRECTION ( 'NONE',  ( 1.224606353612350900E-016, 0.0000000000000000000, -1.000000000000000000 ) ) ;
#127 = DIRECTION ( 'NONE',  ( 1.000000000000000000, 0.0000000000000000000, 1.224606353822377300E-016 ) ) ;
#128 = AXIS2_PLACEMENT_3D ( 'NONE', #134, #127, #126 ) ;
#129 = CIRCLE ( 'NONE', #128, 2.000000000000000000 ) ;
#130 = CARTESIAN_POINT ( 'NONE',  ( -5.009326287108706300E-010, -17.99999999650043500, 0.0000000000000000000 ) ) ;
#131 = AXIS2_PLACEMENT_3D ( 'NONE', #130, #114, #113 ) ;
#132 = CIRCLE ( 'NONE', #131, 2.000000000000000900 ) ;
#133 = FACE_OUTER_BOUND ( 'NONE', #48, .T. ) ;
#134 = CARTESIAN_POINT ( 'NONE',  ( -5.009314891233243800E-010, -1.999999996500434500, -9.305745823233925400 ) ) ;
#135 = DIRECTION ( 'NONE',  ( 0.0000000000000000000, 0.0000000000000000000, -1.000000000000000000 ) ) ;
#136 = DIRECTION ( 'NONE',  ( 0.0000000000000000000, -1.000000000000000000, 0.0000000000000000000 ) ) ;
#137 = CARTESIAN_POINT ( 'NONE',  ( 5.999999999499070000, -10.99999999650043500, 0.0000000000000000000 ) ) ;
#138 = AXIS2_PLACEMENT_3D ( 'NONE', #137, #136, #135 ) ;
#139 = PLANE ( 'NONE',  #138 ) ;
#140 = CARTESIAN_POINT ( 'NONE',  ( -5.009326287108706300E-010, -1.999999996500434500, 0.0000000000000000000 ) ) ;
#141 = DIRECTION ( 'NONE',  ( 0.0000000000000000000, 0.0000000000000000000, 1.000000000000000000 ) ) ;
#142 = DIRECTION ( 'NONE',  ( 0.0000000000000000000, 1.000000000000000000, 0.0000000000000000000 ) ) ;
#143 = CARTESIAN_POINT ( 'NONE',  ( -5.009326287108706300E-010, -17.99999999650043500, 0.0000000000000000000 ) ) ;
#144 = AXIS2_PLACEMENT_3D ( 'NONE', #143, #142, #141 ) ;
#145 = CIRCLE ( 'NONE', #144, 14.00000000000000000 ) ;
#146 = AXIS2_PLACEMENT_3D ( 'NONE', #140, #93, #92 ) ;
#147 = DIRECTION ( 'NONE',  ( 0.0000000000000000000, 0.0000000000000000000, 1.000000000000000000 ) ) ;
#148 = DIRECTION ( 'NONE',  ( 0.0000000000000000000, 1.000000000000000000, 0.0000000000000000000 ) ) ;
#149 = AXIS2_PLACEMENT_3D ( 'NONE', #123, #122, #102 ) ;
#150 = AXIS2_PLACEMENT_3D ( 'NONE', #101, #98, #97 ) ;
#151 = CIRCLE ( 'NONE', #150, 6.000000000000002700 ) ;
#152 = FACE_OUTER_BOUND ( 'NONE', #35, .T. ) ;
#153 = CARTESIAN_POINT ( 'NONE',  ( -5.009326287108706300E-010, -10.99999999650043500, 6.000000000000002700 ) ) ;
#154 = CARTESIAN_POINT ( 'NONE',  ( -5.009318939470583400E-010, -10.99999999650043500, -6.000000000000003600 ) ) ;
#155 = DIRECTION ( 'NONE',  ( 0.0000000000000000000, 0.0000000000000000000, 1.000000000000000000 ) ) ;
#156 =( NAMED_UNIT ( * ) PLANE_ANGLE_UNIT ( ) SI_UNIT ( $, .RADIAN. ) );
#157 = AXIS2_PLACEMENT_3D ( 'NONE', #170, #212, #207 ) ;
#158 = DIRECTION ( 'NONE',  ( 0.0000000000000000000, -1.000000000000000000, 0.0000000000000000000 ) ) ;
#159 = CARTESIAN_POINT ( 'NONE',  ( -5.009326287108706300E-010, -17.99999999650043500, 0.0000000000000000000 ) ) ;
#160 = AXIS2_PLACEMENT_3D ( 'NONE', #159, #158, #171 ) ;
#161 = CONICAL_SURFACE ( 'NONE', #160, 14.00000000000000000, 0.1651486774146268300 ) ;
#162 = DIRECTION ( 'NONE',  ( 0.0000000000000000000, 1.000000000000000000, 0.0000000000000000000 ) ) ;
#163 = VECTOR ( 'NONE', #162, 1000.000000000000000 ) ;
#164 = CARTESIAN_POINT ( 'NONE',  ( -5.009323837895998700E-010, 2.412507003500041800, -2.000000000000000400 ) ) ;
#165 = LINE ( 'NONE', #164, #163 ) ;
#166 = CIRCLE ( 'NONE', #216, 2.000000000000000000 ) ;
#167 = DIRECTION ( 'NONE',  ( 0.0000000000000000000, 0.0000000000000000000, 1.000000000000000000 ) ) ;
#168 = DIRECTION ( 'NONE',  ( 0.0000000000000000000, 1.000000000000000000, 0.0000000000000000000 ) ) ;
#169 = CARTESIAN_POINT ( 'NONE',  ( -5.009326287108706300E-010, -10.99999999650043500, 0.0000000000000000000 ) ) ;
#170 = CARTESIAN_POINT ( 'NONE',  ( -5.009326287108706300E-010, 2.412507003500041800, 0.0000000000000000000 ) ) ;
#171 = DIRECTION ( 'NONE',  ( 0.0000000000000000000, 0.0000000000000000000, -1.000000000000000000 ) ) ;
#172 = DIRECTION ( 'NONE',  ( 0.0000000000000000000, -1.000000000000000000, 0.0000000000000000000 ) ) ;
#173 = CARTESIAN_POINT ( 'NONE',  ( 9.305745822732982100, 3.499565654624392500E-009, 0.0000000000000000000 ) ) ;
#174 = AXIS2_PLACEMENT_3D ( 'NONE', #173, #172, #185 ) ;
#175 = FACE_OUTER_BOUND ( 'NONE', #342, .T. ) ;
#176 = CYLINDRICAL_SURFACE ( 'NONE', #213, 2.000000000000000400 ) ;
#177 = CARTESIAN_POINT ( 'NONE',  ( -5.009326287108706300E-010, -17.99999999650043500, 2.000000000000000900 ) ) ;
#178 = CARTESIAN_POINT ( 'NONE',  ( -5.009323837895998700E-010, -17.99999999650043500, -2.000000000000000900 ) ) ;
#179 = DIRECTION ( 'NONE',  ( 0.0000000000000000000, 0.0000000000000000000, 1.000000000000000000 ) ) ;
#180 = DIRECTION ( 'NONE',  ( 0.0000000000000000000, 1.000000000000000000, 0.0000000000000000000 ) ) ;
#181 = FACE_OUTER_BOUND ( 'NONE', #373, .T. ) ;
#182 = CARTESIAN_POINT ( 'NONE',  ( -5.009326287108706300E-010, -10.99999999650043500, 2.000000000000000000 ) ) ;
#183 = CARTESIAN_POINT ( 'NONE',  ( -5.009323837895998700E-010, -10.99999999650043500, -2.000000000000000000 ) ) ;
#184 = AXIS2_PLACEMENT_3D ( 'NONE', #256, #255, #254 ) ;
#185 = DIRECTION ( 'NONE',  ( 0.0000000000000000000, 0.0000000000000000000, -1.000000000000000000 ) ) ;
#186 = CARTESIAN_POINT ( 'NONE',  ( -5.009312475344711700E-010, -1.671202021889731400, -11.27853367089821600 ) ) ;
#187 = CARTESIAN_POINT ( 'NONE',  ( -5.009326287108706300E-010, -1.671202021889731400, 11.27853367089821600 ) ) ;
#188 = DIRECTION ( 'NONE',  ( 0.0000000000000000000, 1.000000000000000000, 0.0000000000000000000 ) ) ;
#189 = CARTESIAN_POINT ( 'NONE',  ( -5.009326287108706300E-010, -1.671202021889731400, 0.0000000000000000000 ) ) ;
#190 = AXIS2_PLACEMENT_3D ( 'NONE', #189, #188, #155 ) ;
#191 = CIRCLE ( 'NONE', #190, 11.27853367089821600 ) ;
#192 = VECTOR ( 'NONE', #211, 1000.000000000000000 ) ;
#193 = CARTESIAN_POINT ( 'NONE',  ( -5.009326287108706300E-010, -17.99999999650043500, -14.00000000000000000 ) ) ;
#194 = LINE ( 'NONE', #193, #192 ) ;
#195 = DIRECTION ( 'NONE',  ( 0.0000000000000000000, 1.000000000000000000, 0.0000000000000000000 ) ) ;
#196 = LINE ( 'NONE', #201, #200 ) ;
#197 =( GEOMETRIC_REPRESENTATION_CONTEXT ( 3 ) GLOBAL_UNCERTAINTY_ASSIGNED_CONTEXT ( ( #204 ) ) GLOBAL_UNIT_ASSIGNED_CONTEXT ( ( #235, #156, #205 ) ) REPRESENTATION_CONTEXT ( 'NONE', 'WORKASPACE' ) );
#198 = CARTESIAN_POINT ( 'NONE',  ( -5.009318939470583400E-010, 3.499565654624392500E-009, -6.000000000000000000 ) ) ;
#199 = DIRECTION ( 'NONE',  ( 0.0000000000000000000, 1.000000000000000000, 0.0000000000000000000 ) ) ;
#200 = VECTOR ( 'NONE', #199, 1000.000000000000000 ) ;
#201 = CARTESIAN_POINT ( 'NONE',  ( -5.009318939470583400E-010, 2.412507003500041800, -6.000000000000001800 ) ) ;
#202 = AXIS2_PLACEMENT_3D ( 'NONE', #231, #180, #179 ) ;
#203 = CIRCLE ( 'NONE', #202, 2.000000000000000900 ) ;
#204 = UNCERTAINTY_MEASURE_WITH_UNIT (LENGTH_MEASURE( 1.000000000000000100E-005 ), #235, 'distance_accuracy_value', 'NONE');
#205 =( NAMED_UNIT ( * ) SI_UNIT ( $, .STERADIAN. ) SOLID_ANGLE_UNIT ( ) );
#206 = CYLINDRICAL_SURFACE ( 'NONE', #157, 6.000000000000001800 ) ;
#207 = DIRECTION ( 'NONE',  ( 0.0000000000000000000, 0.0000000000000000000, 1.000000000000000000 ) ) ;
#208 = DIRECTION ( 'NONE',  ( 0.0000000000000000000, 0.0000000000000000000, 1.000000000000000000 ) ) ;
#209 = AXIS2_PLACEMENT_3D ( 'NONE', #234, #233, #232 ) ;
#210 = FACE_OUTER_BOUND ( 'NONE', #361, .T. ) ;
#211 = DIRECTION ( 'NONE',  ( 0.0000000000000000000, -0.9863939238321437500, -0.1643989873053573200 ) ) ;
#212 = DIRECTION ( 'NONE',  ( 0.0000000000000000000, 1.000000000000000000, 0.0000000000000000000 ) ) ;
#213 = AXIS2_PLACEMENT_3D ( 'NONE', #230, #195, #208 ) ;
#214 = CYLINDRICAL_SURFACE ( 'NONE', #209, 2.000000000000000400 ) ;
#215 = ADVANCED_BREP_SHAPE_REPRESENTATION ( 'C-30-RK-28-gray', ( #371, #257 ), #197 ) ;
#216 = AXIS2_PLACEMENT_3D ( 'NONE', #169, #168, #167 ) ;
#217 = AXIS2_PLACEMENT_3D ( 'NONE', #238, #237, #236 ) ;
#218 = CIRCLE ( 'NONE', #217, 9.305745823233914700 ) ;
#219 = DIRECTION ( 'NONE',  ( 0.0000000000000000000, 0.0000000000000000000, 1.000000000000000000 ) ) ;
#220 = DIRECTION ( 'NONE',  ( 0.0000000000000000000, 1.000000000000000000, 0.0000000000000000000 ) ) ;
#221 = CARTESIAN_POINT ( 'NONE',  ( -5.009326287108706300E-010, 3.499565654624392500E-009, 0.0000000000000000000 ) ) ;
#222 = AXIS2_PLACEMENT_3D ( 'NONE', #221, #220, #219 ) ;
#223 = CIRCLE ( 'NONE', #222, 6.000000000000000000 ) ;
#224 = CARTESIAN_POINT ( 'NONE',  ( -5.009309142619752800E-010, -17.99999999650043500, 14.00000000000000000 ) ) ;
#225 = DIRECTION ( 'NONE',  ( 2.013240444161049200E-017, -0.9863939238321437500, 0.1643989873053573200 ) ) ;
#226 = VECTOR ( 'NONE', #225, 1000.000000000000000 ) ;
#227 = CARTESIAN_POINT ( 'NONE',  ( -5.009309142619752800E-010, -17.99999999650043500, 14.00000000000000000 ) ) ;
#228 = LINE ( 'NONE', #227, #226 ) ;
#229 = CARTESIAN_POINT ( 'NONE',  ( -5.009326287108706300E-010, 3.499565654624392500E-009, 6.000000000000000000 ) ) ;
#230 = CARTESIAN_POINT ( 'NONE',  ( -5.009326287108706300E-010, 2.412507003500041800, 0.0000000000000000000 ) ) ;
#231 = CARTESIAN_POINT ( 'NONE',  ( -5.009326287108706300E-010, -17.99999999650043500, 0.0000000000000000000 ) ) ;
#232 = DIRECTION ( 'NONE',  ( 0.0000000000000000000, 0.0000000000000000000, 1.000000000000000000 ) ) ;
#233 = DIRECTION ( 'NONE',  ( 0.0000000000000000000, 1.000000000000000000, 0.0000000000000000000 ) ) ;
#234 = CARTESIAN_POINT ( 'NONE',  ( -5.009326287108706300E-010, 2.412507003500041800, 0.0000000000000000000 ) ) ;
#235 =( LENGTH_UNIT ( ) NAMED_UNIT ( * ) SI_UNIT ( .MILLI., .METRE. ) );
#236 = DIRECTION ( 'NONE',  ( 0.0000000000000000000, 0.0000000000000000000, 1.000000000000000000 ) ) ;
#237 = DIRECTION ( 'NONE',  ( 0.0000000000000000000, 1.000000000000000000, 0.0000000000000000000 ) ) ;
#238 = CARTESIAN_POINT ( 'NONE',  ( -5.009326287108706300E-010, 3.499565654624392500E-009, 0.0000000000000000000 ) ) ;
#239 = PLANE ( 'NONE',  #174 ) ;
#240 = FACE_OUTER_BOUND ( 'NONE', #37, .T. ) ;
#241 = CARTESIAN_POINT ( 'NONE',  ( -5.009326287108706300E-010, -17.99999999650043500, -14.00000000000000000 ) ) ;
#242 = DIRECTION ( 'NONE',  ( 0.0000000000000000000, 0.0000000000000000000, 1.000000000000000000 ) ) ;
#243 = DIRECTION ( 'NONE',  ( 0.0000000000000000000, 0.0000000000000000000, 1.000000000000000000 ) ) ;
#244 = DIRECTION ( 'NONE',  ( 0.0000000000000000000, 1.000000000000000000, 0.0000000000000000000 ) ) ;
#245 = CARTESIAN_POINT ( 'NONE',  ( -5.009326287108706300E-010, -1.671202021889731400, 0.0000000000000000000 ) ) ;
#246 = AXIS2_PLACEMENT_3D ( 'NONE', #245, #244, #243 ) ;
#247 = CIRCLE ( 'NONE', #246, 11.27853367089821600 ) ;
#248 = TOROIDAL_SURFACE ( 'NONE', #184, 9.305745823233925400, 2.000000000000000000 ) ;
#249 = DIRECTION ( 'NONE',  ( 0.0000000000000000000, 1.000000000000000000, 0.0000000000000000000 ) ) ;
#250 = CARTESIAN_POINT ( 'NONE',  ( -5.009326287108706300E-010, -17.99999999650043500, 0.0000000000000000000 ) ) ;
#251 = AXIS2_PLACEMENT_3D ( 'NONE', #250, #249, #242 ) ;
#252 = CIRCLE ( 'NONE', #251, 14.00000000000000000 ) ;
#253 = FACE_BOUND ( 'NONE', #340, .T. ) ;
#254 = DIRECTION ( 'NONE',  ( 0.0000000000000000000, 0.0000000000000000000, 1.000000000000000000 ) ) ;
#255 = DIRECTION ( 'NONE',  ( 0.0000000000000000000, 1.000000000000000000, 0.0000000000000000000 ) ) ;
#256 = CARTESIAN_POINT ( 'NONE',  ( -5.009326287108706300E-010, -1.999999996500434500, 0.0000000000000000000 ) ) ;
#257 = AXIS2_PLACEMENT_3D ( 'NONE', #258, #262, #261 ) ;
#258 = CARTESIAN_POINT ( 'NONE',  ( 0.0000000000000000000, 0.0000000000000000000, 0.0000000000000000000 ) ) ;
#259 = APPLICATION_PROTOCOL_DEFINITION ( 'international standard', 'config_control_design', 1994, #260 ) ;
#260 = APPLICATION_CONTEXT ( 'configuration controlled 3d designs of mechanical parts and assemblies' ) ;
#261 = DIRECTION ( 'NONE',  ( 1.000000000000000000, 0.0000000000000000000, 0.0000000000000000000 ) ) ;
#262 = DIRECTION ( 'NONE',  ( 0.0000000000000000000, 0.0000000000000000000, 1.000000000000000000 ) ) ;
#263 = MECHANICAL_CONTEXT ( 'NONE', #260, 'mechanical' ) ;
#264 = PERSON ( 'UNSPECIFIED', 'UNSPECIFIED', 'UNSPECIFIED', ('UNSPECIFIED'), ('UNSPECIFIED'), ('UNSPECIFIED') ) ;
#265 = CC_DESIGN_DATE_AND_TIME_ASSIGNMENT ( #267, #266, ( #291 ) ) ;
#266 = DATE_TIME_ROLE ( 'creation_date' ) ;
#267 = DATE_AND_TIME ( #268, #269 ) ;
#268 = CALENDAR_DATE ( 2009, 29, 6 ) ;
#269 = LOCAL_TIME ( 10, 56, 42.00000000000000000, #270 ) ;
#270 = COORDINATED_UNIVERSAL_TIME_OFFSET ( 9, 0, .AHEAD. ) ;
#271 = CALENDAR_DATE ( 2009, 29, 6 ) ;
#272 = LOCAL_TIME ( 10, 56, 42.00000000000000000, #273 ) ;
#273 = COORDINATED_UNIVERSAL_TIME_OFFSET ( 9, 0, .AHEAD. ) ;
#274 = APPROVAL_PERSON_ORGANIZATION ( #278, #276, #275 ) ;
#275 = APPROVAL_ROLE ( '' ) ;
#276 = APPROVAL ( #277, 'UNSPECIFIED' ) ;
#277 = APPROVAL_STATUS ( 'not_yet_approved' ) ;
#278 = PERSON_AND_ORGANIZATION ( #264, #280 ) ;
#279 = PRODUCT_DEFINITION_FORMATION_WITH_SPECIFIED_SOURCE ( 'ANY', '', #287, .NOT_KNOWN. ) ;
#280 = ORGANIZATION ( 'UNSPECIFIED', 'UNSPECIFIED', '' ) ;
#281 = CC_DESIGN_PERSON_AND_ORGANIZATION_ASSIGNMENT ( #283, #282, ( #291 ) ) ;
#282 = PERSON_AND_ORGANIZATION_ROLE ( 'creator' ) ;
#283 = PERSON_AND_ORGANIZATION ( #264, #280 ) ;
#284 = CC_DESIGN_APPROVAL ( #288, ( #291 ) ) ;
#285 = APPROVAL_DATE_TIME ( #294, #288 ) ;
#286 = APPLICATION_CONTEXT ( 'configuration controlled 3d designs of mechanical parts and assemblies' ) ;
#287 = PRODUCT ( 'C-30-RK-28-gray', 'C-30-RK-28-gray', '', ( #263 ) ) ;
#288 = APPROVAL ( #289, 'UNSPECIFIED' ) ;
#289 = APPROVAL_STATUS ( 'not_yet_approved' ) ;
#290 = PERSON_AND_ORGANIZATION ( #264, #280 ) ;
#291 = PRODUCT_DEFINITION ( 'UNKNOWN', '', #279, #292 ) ;
#292 = DESIGN_CONTEXT ( 'detailed design', #286, 'design' ) ;
#293 = APPLICATION_PROTOCOL_DEFINITION ( 'international standard', 'config_control_design', 1994, #286 ) ;
#294 = DATE_AND_TIME ( #295, #296 ) ;
#295 = CALENDAR_DATE ( 2009, 29, 6 ) ;
#296 = LOCAL_TIME ( 10, 56, 42.00000000000000000, #297 ) ;
#297 = COORDINATED_UNIVERSAL_TIME_OFFSET ( 9, 0, .AHEAD. ) ;
#298 = APPROVAL_PERSON_ORGANIZATION ( #290, #288, #299 ) ;
#299 = APPROVAL_ROLE ( '' ) ;
#300 = PERSON_AND_ORGANIZATION ( #264, #280 ) ;
#301 = CC_DESIGN_PERSON_AND_ORGANIZATION_ASSIGNMENT ( #300, #302, ( #287 ) ) ;
#302 = PERSON_AND_ORGANIZATION_ROLE ( 'design_owner' ) ;
#303 = SHAPE_DEFINITION_REPRESENTATION ( #304, #215 ) ;
#304 = PRODUCT_DEFINITION_SHAPE ( 'NONE', 'NONE',  #291 ) ;
#305 = PRODUCT_RELATED_PRODUCT_CATEGORY ( 'detail', '', ( #287 ) ) ;
#306 = CC_DESIGN_SECURITY_CLASSIFICATION ( #327, ( #279 ) ) ;
#307 = CC_DESIGN_APPROVAL ( #315, ( #327 ) ) ;
#308 = APPROVAL_DATE_TIME ( #309, #315 ) ;
#309 = DATE_AND_TIME ( #310, #311 ) ;
#310 = CALENDAR_DATE ( 2009, 29, 6 ) ;
#311 = LOCAL_TIME ( 10, 56, 42.00000000000000000, #312 ) ;
#312 = COORDINATED_UNIVERSAL_TIME_OFFSET ( 9, 0, .AHEAD. ) ;
#313 = APPROVAL_PERSON_ORGANIZATION ( #317, #315, #314 ) ;
#314 = APPROVAL_ROLE ( '' ) ;
#315 = APPROVAL ( #316, 'UNSPECIFIED' ) ;
#316 = APPROVAL_STATUS ( 'not_yet_approved' ) ;
#317 = PERSON_AND_ORGANIZATION ( #264, #280 ) ;
#318 = CC_DESIGN_DATE_AND_TIME_ASSIGNMENT ( #320, #319, ( #327 ) ) ;
#319 = DATE_TIME_ROLE ( 'classification_date' ) ;
#320 = DATE_AND_TIME ( #321, #322 ) ;
#321 = CALENDAR_DATE ( 2009, 29, 6 ) ;
#322 = LOCAL_TIME ( 10, 56, 42.00000000000000000, #323 ) ;
#323 = COORDINATED_UNIVERSAL_TIME_OFFSET ( 9, 0, .AHEAD. ) ;
#324 = CC_DESIGN_PERSON_AND_ORGANIZATION_ASSIGNMENT ( #326, #325, ( #327 ) ) ;
#325 = PERSON_AND_ORGANIZATION_ROLE ( 'classification_officer' ) ;
#326 = PERSON_AND_ORGANIZATION ( #264, #280 ) ;
#327 = SECURITY_CLASSIFICATION ( '', '', #328 ) ;
#328 = SECURITY_CLASSIFICATION_LEVEL ( 'unclassified' ) ;
#329 = CC_DESIGN_PERSON_AND_ORGANIZATION_ASSIGNMENT ( #331, #330, ( #279 ) ) ;
#330 = PERSON_AND_ORGANIZATION_ROLE ( 'design_supplier' ) ;
#331 = PERSON_AND_ORGANIZATION ( #264, #280 ) ;
#332 = CC_DESIGN_PERSON_AND_ORGANIZATION_ASSIGNMENT ( #334, #333, ( #279 ) ) ;
#333 = PERSON_AND_ORGANIZATION_ROLE ( 'creator' ) ;
#334 = PERSON_AND_ORGANIZATION ( #264, #280 ) ;
#335 = CC_DESIGN_APPROVAL ( #276, ( #279 ) ) ;
#336 = APPROVAL_DATE_TIME ( #337, #276 ) ;
#337 = DATE_AND_TIME ( #271, #272 ) ;
#338 = ORIENTED_EDGE ( 'NONE', *, *, #381, .F. ) ;
#339 = ADVANCED_FACE ( 'NONE', ( #253, #240 ), #239, .F. ) ;
#340 = EDGE_LOOP ( 'NONE', ( #36, #38 ) ) ;
#341 = ADVANCED_FACE ( 'NONE', ( #175 ), #248, .T. ) ;
#342 = EDGE_LOOP ( 'NONE', ( #343, #344, #346, #338 ) ) ;
#343 = ORIENTED_EDGE ( 'NONE', *, *, #17, .F. ) ;
#344 = ORIENTED_EDGE ( 'NONE', *, *, #345, .T. ) ;
#345 = EDGE_CURVE ( 'NONE', #377, #376, #191, .T. ) ;
#346 = ORIENTED_EDGE ( 'NONE', *, *, #6, .T. ) ;
#347 = VERTEX_POINT ( 'NONE', #154 ) ;
#348 = VERTEX_POINT ( 'NONE', #153 ) ;
#349 = ORIENTED_EDGE ( 'NONE', *, *, #350, .T. ) ;
#350 = EDGE_CURVE ( 'NONE', #347, #351, #196, .T. ) ;
#351 = VERTEX_POINT ( 'NONE', #198 ) ;
#352 = ORIENTED_EDGE ( 'NONE', *, *, #353, .T. ) ;
#353 = EDGE_CURVE ( 'NONE', #351, #354, #223, .T. ) ;
#354 = VERTEX_POINT ( 'NONE', #229 ) ;
#355 = ORIENTED_EDGE ( 'NONE', *, *, #356, .T. ) ;
#356 = EDGE_CURVE ( 'NONE', #380, #357, #252, .T. ) ;
#357 = VERTEX_POINT ( 'NONE', #241 ) ;
#358 = ORIENTED_EDGE ( 'NONE', *, *, #359, .F. ) ;
#359 = EDGE_CURVE ( 'NONE', #377, #357, #194, .T. ) ;
#360 = ADVANCED_FACE ( 'NONE', ( #210 ), #214, .F. ) ;
#361 = EDGE_LOOP ( 'NONE', ( #362, #366, #369, #9 ) ) ;
#362 = ORIENTED_EDGE ( 'NONE', *, *, #363, .F. ) ;
#363 = EDGE_CURVE ( 'NONE', #364, #365, #203, .T. ) ;
#364 = VERTEX_POINT ( 'NONE', #178 ) ;
#365 = VERTEX_POINT ( 'NONE', #177 ) ;
#366 = ORIENTED_EDGE ( 'NONE', *, *, #367, .T. ) ;
#367 = EDGE_CURVE ( 'NONE', #364, #368, #165, .T. ) ;
#368 = VERTEX_POINT ( 'NONE', #183 ) ;
#369 = ORIENTED_EDGE ( 'NONE', *, *, #7, .T. ) ;
#370 = VERTEX_POINT ( 'NONE', #182 ) ;
#371 = MANIFOLD_SOLID_BREP ( 'NONE', #53 ) ;
#372 = ADVANCED_FACE ( 'NONE', ( #181 ), #161, .T. ) ;
#373 = EDGE_LOOP ( 'NONE', ( #374, #378, #355, #358 ) ) ;
#374 = ORIENTED_EDGE ( 'NONE', *, *, #375, .F. ) ;
#375 = EDGE_CURVE ( 'NONE', #376, #377, #247, .T. ) ;
#376 = VERTEX_POINT ( 'NONE', #187 ) ;
#377 = VERTEX_POINT ( 'NONE', #186 ) ;
#378 = ORIENTED_EDGE ( 'NONE', *, *, #379, .T. ) ;
#379 = EDGE_CURVE ( 'NONE', #376, #380, #228, .T. ) ;
#380 = VERTEX_POINT ( 'NONE', #224 ) ;
#381 = EDGE_CURVE ( 'NONE', #21, #2, #218, .T. ) ;
ENDSEC;
END-ISO-10303-21;
