ISO-10303-21;
HEADER;
FILE_DESCRIPTION (( 'STEP AP203' ),
    '1' );
FILE_NAME ('C-30-RK-28.STEP',
    '2009-06-26T05:01:02',
    ( '11sw' ),
    ( '^LQ»¢®ïÐ' ),
    'SwSTEP 2.0',
    'SolidWorks 2007',
    '' );
FILE_SCHEMA (( 'CONFIG_CONTROL_DESIGN' ));
ENDSEC;

DATA;
#1 = ORIENTED_EDGE ( 'NONE', *, *, #26, .T. ) ;
#2 = EDGE_CURVE ( 'NONE', #103, #108, #148, .T. ) ;
#3 = ORIENTED_EDGE ( 'NONE', *, *, #10, .T. ) ;
#4 = ORIENTED_EDGE ( 'NONE', *, *, #5, .F. ) ;
#5 = EDGE_CURVE ( 'NONE', #38, #11, #174, .T. ) ;
#6 = ORIENTED_EDGE ( 'NONE', *, *, #37, .F. ) ;
#7 = EDGE_LOOP ( 'NONE', ( #6, #8, #3, #4 ) ) ;
#8 = ORIENTED_EDGE ( 'NONE', *, *, #2, .T. ) ;
#9 = ADVANCED_FACE ( 'NONE', ( #169 ), #168, .T. ) ;
#10 = EDGE_CURVE ( 'NONE', #108, #11, #162, .T. ) ;
#11 = VERTEX_POINT ( 'NONE', #158 ) ;
#12 = ORIENTED_EDGE ( 'NONE', *, *, #10, .F. ) ;
#13 = APPROVAL_STATUS ( 'not_yet_approved' ) ;
#14 = PERSON_AND_ORGANIZATION ( #180, #179 ) ;
#15 = EDGE_CURVE ( 'NONE', #11, #38, #156, .T. ) ;
#16 = ORIENTED_EDGE ( 'NONE', *, *, #15, .F. ) ;
#17 = APPROVAL_PERSON_ORGANIZATION ( #14, #19, #18 ) ;
#18 = APPROVAL_ROLE ( '' ) ;
#19 = APPROVAL ( #13, 'UNSPECIFIED' ) ;
#20 = LOCAL_TIME ( 14, 1, 2.000000000000000000, #21 ) ;
#21 = COORDINATED_UNIVERSAL_TIME_OFFSET ( 9, 0, .AHEAD. ) ;
#22 = DATE_AND_TIME ( #25, #20 ) ;
#23 = APPROVAL_DATE_TIME ( #22, #19 ) ;
#24 = CC_DESIGN_APPROVAL ( #19, ( #119 ) ) ;
#25 = CALENDAR_DATE ( 2009, 26, 6 ) ;
#26 = EDGE_CURVE ( 'NONE', #116, #27, #157, .T. ) ;
#27 = VERTEX_POINT ( 'NONE', #143 ) ;
#28 = ORIENTED_EDGE ( 'NONE', *, *, #29, .T. ) ;
#29 = EDGE_CURVE ( 'NONE', #27, #30, #142, .T. ) ;
#30 = VERTEX_POINT ( 'NONE', #137 ) ;
#31 = ORIENTED_EDGE ( 'NONE', *, *, #32, .F. ) ;
#32 = EDGE_CURVE ( 'NONE', #115, #30, #136, .T. ) ;
#33 = ADVANCED_FACE ( 'NONE', ( #132 ), #130, .T. ) ;
#34 = EDGE_LOOP ( 'NONE', ( #35, #36, #16, #12 ) ) ;
#35 = ORIENTED_EDGE ( 'NONE', *, *, #109, .T. ) ;
#36 = ORIENTED_EDGE ( 'NONE', *, *, #37, .T. ) ;
#37 = EDGE_CURVE ( 'NONE', #103, #38, #126, .T. ) ;
#38 = VERTEX_POINT ( 'NONE', #327 ) ;
#39 = ADVANCED_FACE ( 'NONE', ( #326, #325 ), #324, .F. ) ;
#40 = EDGE_LOOP ( 'NONE', ( #41, #43 ) ) ;
#41 = ORIENTED_EDGE ( 'NONE', *, *, #42, .F. ) ;
#42 = EDGE_CURVE ( 'NONE', #30, #27, #318, .T. ) ;
#43 = ORIENTED_EDGE ( 'NONE', *, *, #29, .F. ) ;
#44 = EDGE_LOOP ( 'NONE', ( #45, #46 ) ) ;
#45 = ORIENTED_EDGE ( 'NONE', *, *, #15, .T. ) ;
#46 = ORIENTED_EDGE ( 'NONE', *, *, #5, .T. ) ;
#47 = ADVANCED_FACE ( 'NONE', ( #314 ), #313, .F. ) ;
#48 = EDGE_LOOP ( 'NONE', ( #49, #50, #52, #53 ) ) ;
#49 = ORIENTED_EDGE ( 'NONE', *, *, #26, .F. ) ;
#50 = ORIENTED_EDGE ( 'NONE', *, *, #51, .F. ) ;
#51 = EDGE_CURVE ( 'NONE', #115, #116, #312, .T. ) ;
#52 = ORIENTED_EDGE ( 'NONE', *, *, #32, .T. ) ;
#53 = ORIENTED_EDGE ( 'NONE', *, *, #42, .T. ) ;
#54 = ADVANCED_FACE ( 'NONE', ( #303, #302 ), #301, .F. ) ;
#55 = EDGE_LOOP ( 'NONE', ( #56, #58 ) ) ;
#56 = ORIENTED_EDGE ( 'NONE', *, *, #57, .F. ) ;
#57 = EDGE_CURVE ( 'NONE', #88, #100, #296, .T. ) ;
#58 = ORIENTED_EDGE ( 'NONE', *, *, #87, .F. ) ;
#59 = EDGE_LOOP ( 'NONE', ( #60, #61 ) ) ;
#60 = ORIENTED_EDGE ( 'NONE', *, *, #51, .T. ) ;
#61 = ORIENTED_EDGE ( 'NONE', *, *, #117, .T. ) ;
#62 = ADVANCED_FACE ( 'NONE', ( #291 ), #290, .F. ) ;
#63 = EDGE_LOOP ( 'NONE', ( #64, #65, #67, #68 ) ) ;
#64 = ORIENTED_EDGE ( 'NONE', *, *, #85, .F. ) ;
#65 = ORIENTED_EDGE ( 'NONE', *, *, #66, .F. ) ;
#66 = EDGE_CURVE ( 'NONE', #98, #99, #284, .T. ) ;
#67 = ORIENTED_EDGE ( 'NONE', *, *, #90, .T. ) ;
#68 = ORIENTED_EDGE ( 'NONE', *, *, #57, .T. ) ;
#69 = ADVANCED_FACE ( 'NONE', ( #280, #279 ), #278, .F. ) ;
#70 = EDGE_LOOP ( 'NONE', ( #71, #73 ) ) ;
#71 = ORIENTED_EDGE ( 'NONE', *, *, #72, .F. ) ;
#72 = EDGE_CURVE ( 'NONE', #106, #101, #273, .T. ) ;
#73 = ORIENTED_EDGE ( 'NONE', *, *, #105, .F. ) ;
#74 = EDGE_LOOP ( 'NONE', ( #75, #76 ) ) ;
#75 = ORIENTED_EDGE ( 'NONE', *, *, #66, .T. ) ;
#76 = ORIENTED_EDGE ( 'NONE', *, *, #95, .T. ) ;
#77 = ADVANCED_FACE ( 'NONE', ( #268 ), #267, .T. ) ;
#78 = EDGE_LOOP ( 'NONE', ( #79, #80, #81, #82 ) ) ;
#79 = ORIENTED_EDGE ( 'NONE', *, *, #102, .F. ) ;
#80 = ORIENTED_EDGE ( 'NONE', *, *, #2, .F. ) ;
#81 = ORIENTED_EDGE ( 'NONE', *, *, #118, .T. ) ;
#82 = ORIENTED_EDGE ( 'NONE', *, *, #72, .T. ) ;
#83 = CLOSED_SHELL ( 'NONE', ( #113, #96, #91, #33, #9, #39, #47, #54, #62, #69, #77 ) ) ;
#84 = ORIENTED_EDGE ( 'NONE', *, *, #85, .T. ) ;
#85 = EDGE_CURVE ( 'NONE', #99, #100, #262, .T. ) ;
#86 = ORIENTED_EDGE ( 'NONE', *, *, #87, .T. ) ;
#87 = EDGE_CURVE ( 'NONE', #100, #88, #258, .T. ) ;
#88 = VERTEX_POINT ( 'NONE', #253 ) ;
#89 = ORIENTED_EDGE ( 'NONE', *, *, #90, .F. ) ;
#90 = EDGE_CURVE ( 'NONE', #98, #88, #252, .T. ) ;
#91 = ADVANCED_FACE ( 'NONE', ( #248 ), #246, .F. ) ;
#92 = EDGE_LOOP ( 'NONE', ( #93, #1, #28, #31 ) ) ;
#93 = ORIENTED_EDGE ( 'NONE', *, *, #117, .F. ) ;
#94 = ORIENTED_EDGE ( 'NONE', *, *, #95, .F. ) ;
#95 = EDGE_CURVE ( 'NONE', #99, #98, #241, .T. ) ;
#96 = ADVANCED_FACE ( 'NONE', ( #237 ), #236, .F. ) ;
#97 = EDGE_LOOP ( 'NONE', ( #94, #84, #86, #89 ) ) ;
#98 = VERTEX_POINT ( 'NONE', #231 ) ;
#99 = VERTEX_POINT ( 'NONE', #230 ) ;
#100 = VERTEX_POINT ( 'NONE', #229 ) ;
#101 = VERTEX_POINT ( 'NONE', #228 ) ;
#102 = EDGE_CURVE ( 'NONE', #108, #101, #227, .T. ) ;
#103 = VERTEX_POINT ( 'NONE', #223 ) ;
#104 = ORIENTED_EDGE ( 'NONE', *, *, #105, .T. ) ;
#105 = EDGE_CURVE ( 'NONE', #101, #106, #222, .T. ) ;
#106 = VERTEX_POINT ( 'NONE', #217 ) ;
#107 = ORIENTED_EDGE ( 'NONE', *, *, #118, .F. ) ;
#108 = VERTEX_POINT ( 'NONE', #216 ) ;
#109 = EDGE_CURVE ( 'NONE', #108, #103, #215, .T. ) ;
#110 = ORIENTED_EDGE ( 'NONE', *, *, #102, .T. ) ;
#111 = MANIFOLD_SOLID_BREP ( 'NONE', #83 ) ;
#112 = EDGE_LOOP ( 'NONE', ( #114, #110, #104, #107 ) ) ;
#113 = ADVANCED_FACE ( 'NONE', ( #210 ), #209, .T. ) ;
#114 = ORIENTED_EDGE ( 'NONE', *, *, #109, .F. ) ;
#115 = VERTEX_POINT ( 'NONE', #204 ) ;
#116 = VERTEX_POINT ( 'NONE', #203 ) ;
#117 = EDGE_CURVE ( 'NONE', #116, #115, #201, .T. ) ;
#118 = EDGE_CURVE ( 'NONE', #103, #106, #202, .T. ) ;
#119 = PRODUCT_DEFINITION ( 'UNKNOWN', '', #378, #120 ) ;
#120 = DESIGN_CONTEXT ( 'detailed design', #122, 'design' ) ;
#121 = APPLICATION_PROTOCOL_DEFINITION ( 'international standard', 'config_control_design', 1994, #122 ) ;
#122 = APPLICATION_CONTEXT ( 'configuration controlled 3d designs of mechanical parts and assemblies' ) ;
#123 = DIRECTION ( 'NONE',  ( 1.000000000000000000, 0.0000000000000000000, 1.224606353822377300E-016 ) ) ;
#124 = CARTESIAN_POINT ( 'NONE',  ( -5.009314891233243800E-010, -1.999999996500434500, -9.305745823233925400 ) ) ;
#125 = AXIS2_PLACEMENT_3D ( 'NONE', #124, #123, #328 ) ;
#126 = CIRCLE ( 'NONE', #125, 2.000000000000000000 ) ;
#127 = DIRECTION ( 'NONE',  ( 0.0000000000000000000, 0.0000000000000000000, 1.000000000000000000 ) ) ;
#128 = DIRECTION ( 'NONE',  ( 0.0000000000000000000, 1.000000000000000000, 0.0000000000000000000 ) ) ;
#129 = AXIS2_PLACEMENT_3D ( 'NONE', #131, #128, #127 ) ;
#130 = TOROIDAL_SURFACE ( 'NONE', #129, 9.305745823233925400, 2.000000000000000000 ) ;
#131 = CARTESIAN_POINT ( 'NONE',  ( -5.009326287108706300E-010, -1.999999996500434500, 0.0000000000000000000 ) ) ;
#132 = FACE_OUTER_BOUND ( 'NONE', #34, .T. ) ;
#133 = DIRECTION ( 'NONE',  ( 0.0000000000000000000, 1.000000000000000000, 0.0000000000000000000 ) ) ;
#134 = VECTOR ( 'NONE', #133, 1000.000000000000000 ) ;
#135 = CARTESIAN_POINT ( 'NONE',  ( -5.009326287108706300E-010, 2.412507003500041800, 6.000000000000001800 ) ) ;
#136 = LINE ( 'NONE', #135, #134 ) ;
#137 = CARTESIAN_POINT ( 'NONE',  ( -5.009326287108706300E-010, 3.499565654624392500E-009, 6.000000000000000000 ) ) ;
#138 = DIRECTION ( 'NONE',  ( 0.0000000000000000000, 0.0000000000000000000, 1.000000000000000000 ) ) ;
#139 = DIRECTION ( 'NONE',  ( 0.0000000000000000000, 1.000000000000000000, 0.0000000000000000000 ) ) ;
#140 = CARTESIAN_POINT ( 'NONE',  ( -5.009326287108706300E-010, 3.499565654624392500E-009, 0.0000000000000000000 ) ) ;
#141 = AXIS2_PLACEMENT_3D ( 'NONE', #140, #139, #138 ) ;
#142 = CIRCLE ( 'NONE', #141, 6.000000000000000000 ) ;
#143 = CARTESIAN_POINT ( 'NONE',  ( -5.009318939470583400E-010, 3.499565654624392500E-009, -6.000000000000000000 ) ) ;
#144 = VECTOR ( 'NONE', #150, 1000.000000000000000 ) ;
#145 = DIRECTION ( 'NONE',  ( 0.0000000000000000000, 1.000000000000000000, 0.0000000000000000000 ) ) ;
#146 = CARTESIAN_POINT ( 'NONE',  ( -5.009326287108706300E-010, -1.671202021889731400, 0.0000000000000000000 ) ) ;
#147 = AXIS2_PLACEMENT_3D ( 'NONE', #146, #145, #175 ) ;
#148 = CIRCLE ( 'NONE', #147, 11.27853367089821600 ) ;
#149 =( LENGTH_UNIT ( ) NAMED_UNIT ( * ) SI_UNIT ( .MILLI., .METRE. ) );
#150 = DIRECTION ( 'NONE',  ( 0.0000000000000000000, 1.000000000000000000, 0.0000000000000000000 ) ) ;
#151 = CARTESIAN_POINT ( 'NONE',  ( -5.009318939470583400E-010, 2.412507003500041800, -6.000000000000001800 ) ) ;
#152 = DIRECTION ( 'NONE',  ( 0.0000000000000000000, 0.0000000000000000000, 1.000000000000000000 ) ) ;
#153 = DIRECTION ( 'NONE',  ( 0.0000000000000000000, 1.000000000000000000, 0.0000000000000000000 ) ) ;
#154 = CARTESIAN_POINT ( 'NONE',  ( -5.009326287108706300E-010, 3.499565654624392500E-009, 0.0000000000000000000 ) ) ;
#155 = AXIS2_PLACEMENT_3D ( 'NONE', #154, #153, #152 ) ;
#156 = CIRCLE ( 'NONE', #155, 9.305745823233914700 ) ;
#157 = LINE ( 'NONE', #151, #144 ) ;
#158 = CARTESIAN_POINT ( 'NONE',  ( -5.009326287108706300E-010, 3.499565654624392500E-009, 9.305745823233914700 ) ) ;
#159 = DIRECTION ( 'NONE',  ( 0.0000000000000000000, 0.0000000000000000000, 1.000000000000000000 ) ) ;
#160 = DIRECTION ( 'NONE',  ( -1.000000000000000000, 0.0000000000000000000, 0.0000000000000000000 ) ) ;
#161 = AXIS2_PLACEMENT_3D ( 'NONE', #167, #160, #159 ) ;
#162 = CIRCLE ( 'NONE', #161, 2.000000000000000000 ) ;
#163 = DIRECTION ( 'NONE',  ( 0.0000000000000000000, 0.0000000000000000000, 1.000000000000000000 ) ) ;
#164 = DIRECTION ( 'NONE',  ( 0.0000000000000000000, 1.000000000000000000, 0.0000000000000000000 ) ) ;
#165 = CARTESIAN_POINT ( 'NONE',  ( -5.009326287108706300E-010, -1.999999996500434500, 0.0000000000000000000 ) ) ;
#166 = AXIS2_PLACEMENT_3D ( 'NONE', #165, #164, #163 ) ;
#167 = CARTESIAN_POINT ( 'NONE',  ( -5.009326287108706300E-010, -1.999999996500434500, 9.305745823233925400 ) ) ;
#168 = TOROIDAL_SURFACE ( 'NONE', #166, 9.305745823233925400, 2.000000000000000000 ) ;
#169 = FACE_OUTER_BOUND ( 'NONE', #7, .T. ) ;
#170 = DIRECTION ( 'NONE',  ( 0.0000000000000000000, 0.0000000000000000000, 1.000000000000000000 ) ) ;
#171 = DIRECTION ( 'NONE',  ( 0.0000000000000000000, 1.000000000000000000, 0.0000000000000000000 ) ) ;
#172 = CARTESIAN_POINT ( 'NONE',  ( -5.009326287108706300E-010, 3.499565654624392500E-009, 0.0000000000000000000 ) ) ;
#173 = AXIS2_PLACEMENT_3D ( 'NONE', #172, #171, #170 ) ;
#174 = CIRCLE ( 'NONE', #173, 9.305745823233914700 ) ;
#175 = DIRECTION ( 'NONE',  ( 0.0000000000000000000, 0.0000000000000000000, 1.000000000000000000 ) ) ;
#176 = CC_DESIGN_PERSON_AND_ORGANIZATION_ASSIGNMENT ( #178, #177, ( #181 ) ) ;
#177 = PERSON_AND_ORGANIZATION_ROLE ( 'design_owner' ) ;
#178 = PERSON_AND_ORGANIZATION ( #180, #179 ) ;
#179 = ORGANIZATION ( 'UNSPECIFIED', 'UNSPECIFIED', '' ) ;
#180 = PERSON ( 'UNSPECIFIED', 'UNSPECIFIED', 'UNSPECIFIED', ('UNSPECIFIED'), ('UNSPECIFIED'), ('UNSPECIFIED') ) ;
#181 = PRODUCT ( 'C-30-RK-28', 'C-30-RK-28', '', ( #182 ) ) ;
#182 = MECHANICAL_CONTEXT ( 'NONE', #184, 'mechanical' ) ;
#183 = APPLICATION_PROTOCOL_DEFINITION ( 'international standard', 'config_control_design', 1994, #184 ) ;
#184 = APPLICATION_CONTEXT ( 'configuration controlled 3d designs of mechanical parts and assemblies' ) ;
#185 = DIRECTION ( 'NONE',  ( 1.000000000000000000, 0.0000000000000000000, 0.0000000000000000000 ) ) ;
#186 = DIRECTION ( 'NONE',  ( 0.0000000000000000000, 0.0000000000000000000, 1.000000000000000000 ) ) ;
#187 = CARTESIAN_POINT ( 'NONE',  ( 0.0000000000000000000, 0.0000000000000000000, 0.0000000000000000000 ) ) ;
#188 = AXIS2_PLACEMENT_3D ( 'NONE', #187, #186, #185 ) ;
#189 = ADVANCED_BREP_SHAPE_REPRESENTATION ( 'C-30-RK-28', ( #111, #188 ), #190 ) ;
#190 =( GEOMETRIC_REPRESENTATION_CONTEXT ( 3 ) GLOBAL_UNCERTAINTY_ASSIGNED_CONTEXT ( ( #191 ) ) GLOBAL_UNIT_ASSIGNED_CONTEXT ( ( #149, #193, #192 ) ) REPRESENTATION_CONTEXT ( 'NONE', 'WORKASPACE' ) );
#191 = UNCERTAINTY_MEASURE_WITH_UNIT (LENGTH_MEASURE( 1.000000000000000100E-005 ), #149, 'distance_accuracy_value', 'NONE');
#192 =( NAMED_UNIT ( * ) SI_UNIT ( $, .STERADIAN. ) SOLID_ANGLE_UNIT ( ) );
#193 =( NAMED_UNIT ( * ) PLANE_ANGLE_UNIT ( ) SI_UNIT ( $, .RADIAN. ) );
#194 = DIRECTION ( 'NONE',  ( 0.0000000000000000000, -0.9863939238321437500, -0.1643989873053573200 ) ) ;
#195 = VECTOR ( 'NONE', #194, 1000.000000000000000 ) ;
#196 = CARTESIAN_POINT ( 'NONE',  ( -5.009326287108706300E-010, -17.99999999650043500, -14.00000000000000000 ) ) ;
#197 = DIRECTION ( 'NONE',  ( 0.0000000000000000000, 0.0000000000000000000, 1.000000000000000000 ) ) ;
#198 = DIRECTION ( 'NONE',  ( 0.0000000000000000000, 1.000000000000000000, 0.0000000000000000000 ) ) ;
#199 = CARTESIAN_POINT ( 'NONE',  ( -5.009326287108706300E-010, -10.99999999650043500, 0.0000000000000000000 ) ) ;
#200 = AXIS2_PLACEMENT_3D ( 'NONE', #199, #198, #197 ) ;
#201 = CIRCLE ( 'NONE', #200, 6.000000000000002700 ) ;
#202 = LINE ( 'NONE', #196, #195 ) ;
#203 = CARTESIAN_POINT ( 'NONE',  ( -5.009318939470583400E-010, -10.99999999650043500, -6.000000000000002700 ) ) ;
#204 = CARTESIAN_POINT ( 'NONE',  ( -5.009326287108706300E-010, -10.99999999650043500, 6.000000000000002700 ) ) ;
#205 = DIRECTION ( 'NONE',  ( 0.0000000000000000000, 0.0000000000000000000, -1.000000000000000000 ) ) ;
#206 = DIRECTION ( 'NONE',  ( 0.0000000000000000000, -1.000000000000000000, 0.0000000000000000000 ) ) ;
#207 = CARTESIAN_POINT ( 'NONE',  ( -5.009326287108706300E-010, -17.99999999650043500, 0.0000000000000000000 ) ) ;
#208 = AXIS2_PLACEMENT_3D ( 'NONE', #207, #206, #205 ) ;
#209 = CONICAL_SURFACE ( 'NONE', #208, 14.00000000000000000, 0.1651486774146268300 ) ;
#210 = FACE_OUTER_BOUND ( 'NONE', #112, .T. ) ;
#211 = DIRECTION ( 'NONE',  ( 0.0000000000000000000, 0.0000000000000000000, 1.000000000000000000 ) ) ;
#212 = DIRECTION ( 'NONE',  ( 0.0000000000000000000, 1.000000000000000000, 0.0000000000000000000 ) ) ;
#213 = CARTESIAN_POINT ( 'NONE',  ( -5.009326287108706300E-010, -1.671202021889731400, 0.0000000000000000000 ) ) ;
#214 = AXIS2_PLACEMENT_3D ( 'NONE', #213, #212, #211 ) ;
#215 = CIRCLE ( 'NONE', #214, 11.27853367089821600 ) ;
#216 = CARTESIAN_POINT ( 'NONE',  ( -5.009326287108706300E-010, -1.671202021889731400, 11.27853367089821600 ) ) ;
#217 = CARTESIAN_POINT ( 'NONE',  ( -5.009326287108706300E-010, -17.99999999650043500, -14.00000000000000000 ) ) ;
#218 = DIRECTION ( 'NONE',  ( 0.0000000000000000000, 0.0000000000000000000, 1.000000000000000000 ) ) ;
#219 = DIRECTION ( 'NONE',  ( 0.0000000000000000000, 1.000000000000000000, 0.0000000000000000000 ) ) ;
#220 = CARTESIAN_POINT ( 'NONE',  ( -5.009326287108706300E-010, -17.99999999650043500, 0.0000000000000000000 ) ) ;
#221 = AXIS2_PLACEMENT_3D ( 'NONE', #220, #219, #218 ) ;
#222 = CIRCLE ( 'NONE', #221, 14.00000000000000000 ) ;
#223 = CARTESIAN_POINT ( 'NONE',  ( -5.009312475344711700E-010, -1.671202021889731400, -11.27853367089821600 ) ) ;
#224 = DIRECTION ( 'NONE',  ( 2.013240444161049200E-017, -0.9863939238321437500, 0.1643989873053573200 ) ) ;
#225 = VECTOR ( 'NONE', #224, 1000.000000000000000 ) ;
#226 = CARTESIAN_POINT ( 'NONE',  ( -5.009309142619752800E-010, -17.99999999650043500, 14.00000000000000000 ) ) ;
#227 = LINE ( 'NONE', #226, #225 ) ;
#228 = CARTESIAN_POINT ( 'NONE',  ( -5.009309142619752800E-010, -17.99999999650043500, 14.00000000000000000 ) ) ;
#229 = CARTESIAN_POINT ( 'NONE',  ( -5.009323837895998700E-010, -10.99999999650043500, -2.000000000000000000 ) ) ;
#230 = CARTESIAN_POINT ( 'NONE',  ( -5.009323837895998700E-010, -17.99999999650043500, -2.000000000000000900 ) ) ;
#231 = CARTESIAN_POINT ( 'NONE',  ( -5.009326287108706300E-010, -17.99999999650043500, 2.000000000000000900 ) ) ;
#232 = DIRECTION ( 'NONE',  ( 0.0000000000000000000, 0.0000000000000000000, 1.000000000000000000 ) ) ;
#233 = DIRECTION ( 'NONE',  ( 0.0000000000000000000, 1.000000000000000000, 0.0000000000000000000 ) ) ;
#234 = CARTESIAN_POINT ( 'NONE',  ( -5.009326287108706300E-010, 2.412507003500041800, 0.0000000000000000000 ) ) ;
#235 = AXIS2_PLACEMENT_3D ( 'NONE', #234, #233, #232 ) ;
#236 = CYLINDRICAL_SURFACE ( 'NONE', #235, 2.000000000000000400 ) ;
#237 = FACE_OUTER_BOUND ( 'NONE', #97, .T. ) ;
#238 = DIRECTION ( 'NONE',  ( 0.0000000000000000000, 0.0000000000000000000, 1.000000000000000000 ) ) ;
#239 = DIRECTION ( 'NONE',  ( 0.0000000000000000000, 1.000000000000000000, 0.0000000000000000000 ) ) ;
#240 = AXIS2_PLACEMENT_3D ( 'NONE', #247, #239, #238 ) ;
#241 = CIRCLE ( 'NONE', #240, 2.000000000000000900 ) ;
#242 = DIRECTION ( 'NONE',  ( 0.0000000000000000000, 0.0000000000000000000, 1.000000000000000000 ) ) ;
#243 = DIRECTION ( 'NONE',  ( 0.0000000000000000000, 1.000000000000000000, 0.0000000000000000000 ) ) ;
#244 = CARTESIAN_POINT ( 'NONE',  ( -5.009326287108706300E-010, 2.412507003500041800, 0.0000000000000000000 ) ) ;
#245 = AXIS2_PLACEMENT_3D ( 'NONE', #244, #243, #242 ) ;
#246 = CYLINDRICAL_SURFACE ( 'NONE', #245, 6.000000000000001800 ) ;
#247 = CARTESIAN_POINT ( 'NONE',  ( -5.009326287108706300E-010, -17.99999999650043500, 0.0000000000000000000 ) ) ;
#248 = FACE_OUTER_BOUND ( 'NONE', #92, .T. ) ;
#249 = DIRECTION ( 'NONE',  ( 0.0000000000000000000, 1.000000000000000000, 0.0000000000000000000 ) ) ;
#250 = VECTOR ( 'NONE', #249, 1000.000000000000000 ) ;
#251 = CARTESIAN_POINT ( 'NONE',  ( -5.009326287108706300E-010, 2.412507003500041800, 2.000000000000000400 ) ) ;
#252 = LINE ( 'NONE', #251, #250 ) ;
#253 = CARTESIAN_POINT ( 'NONE',  ( -5.009326287108706300E-010, -10.99999999650043500, 2.000000000000000000 ) ) ;
#254 = DIRECTION ( 'NONE',  ( 0.0000000000000000000, 0.0000000000000000000, 1.000000000000000000 ) ) ;
#255 = DIRECTION ( 'NONE',  ( 0.0000000000000000000, 1.000000000000000000, 0.0000000000000000000 ) ) ;
#256 = CARTESIAN_POINT ( 'NONE',  ( -5.009326287108706300E-010, -10.99999999650043500, 0.0000000000000000000 ) ) ;
#257 = AXIS2_PLACEMENT_3D ( 'NONE', #256, #255, #254 ) ;
#258 = CIRCLE ( 'NONE', #257, 2.000000000000000000 ) ;
#259 = DIRECTION ( 'NONE',  ( 0.0000000000000000000, 1.000000000000000000, 0.0000000000000000000 ) ) ;
#260 = VECTOR ( 'NONE', #259, 1000.000000000000000 ) ;
#261 = CARTESIAN_POINT ( 'NONE',  ( -5.009323837895998700E-010, 2.412507003500041800, -2.000000000000000400 ) ) ;
#262 = LINE ( 'NONE', #261, #260 ) ;
#263 = DIRECTION ( 'NONE',  ( 0.0000000000000000000, 0.0000000000000000000, -1.000000000000000000 ) ) ;
#264 = DIRECTION ( 'NONE',  ( 0.0000000000000000000, -1.000000000000000000, 0.0000000000000000000 ) ) ;
#265 = CARTESIAN_POINT ( 'NONE',  ( -5.009326287108706300E-010, -17.99999999650043500, 0.0000000000000000000 ) ) ;
#266 = AXIS2_PLACEMENT_3D ( 'NONE', #265, #264, #263 ) ;
#267 = CONICAL_SURFACE ( 'NONE', #266, 14.00000000000000000, 0.1651486774146268300 ) ;
#268 = FACE_OUTER_BOUND ( 'NONE', #78, .T. ) ;
#269 = DIRECTION ( 'NONE',  ( 0.0000000000000000000, 0.0000000000000000000, 1.000000000000000000 ) ) ;
#270 = DIRECTION ( 'NONE',  ( 0.0000000000000000000, 1.000000000000000000, 0.0000000000000000000 ) ) ;
#271 = CARTESIAN_POINT ( 'NONE',  ( -5.009326287108706300E-010, -17.99999999650043500, 0.0000000000000000000 ) ) ;
#272 = AXIS2_PLACEMENT_3D ( 'NONE', #271, #270, #269 ) ;
#273 = CIRCLE ( 'NONE', #272, 14.00000000000000000 ) ;
#274 = DIRECTION ( 'NONE',  ( 0.0000000000000000000, 0.0000000000000000000, 1.000000000000000000 ) ) ;
#275 = DIRECTION ( 'NONE',  ( 0.0000000000000000000, 1.000000000000000000, 0.0000000000000000000 ) ) ;
#276 = CARTESIAN_POINT ( 'NONE',  ( 1.999999999499068300, -17.99999999650043500, 0.0000000000000000000 ) ) ;
#277 = AXIS2_PLACEMENT_3D ( 'NONE', #276, #275, #274 ) ;
#278 = PLANE ( 'NONE',  #277 ) ;
#279 = FACE_BOUND ( 'NONE', #74, .T. ) ;
#280 = FACE_OUTER_BOUND ( 'NONE', #70, .T. ) ;
#281 = DIRECTION ( 'NONE',  ( 0.0000000000000000000, 0.0000000000000000000, 1.000000000000000000 ) ) ;
#282 = DIRECTION ( 'NONE',  ( 0.0000000000000000000, 1.000000000000000000, 0.0000000000000000000 ) ) ;
#283 = AXIS2_PLACEMENT_3D ( 'NONE', #289, #282, #281 ) ;
#284 = CIRCLE ( 'NONE', #283, 2.000000000000000900 ) ;
#285 = DIRECTION ( 'NONE',  ( 0.0000000000000000000, 0.0000000000000000000, 1.000000000000000000 ) ) ;
#286 = DIRECTION ( 'NONE',  ( 0.0000000000000000000, 1.000000000000000000, 0.0000000000000000000 ) ) ;
#287 = CARTESIAN_POINT ( 'NONE',  ( -5.009326287108706300E-010, 2.412507003500041800, 0.0000000000000000000 ) ) ;
#288 = AXIS2_PLACEMENT_3D ( 'NONE', #287, #286, #285 ) ;
#289 = CARTESIAN_POINT ( 'NONE',  ( -5.009326287108706300E-010, -17.99999999650043500, 0.0000000000000000000 ) ) ;
#290 = CYLINDRICAL_SURFACE ( 'NONE', #288, 2.000000000000000400 ) ;
#291 = FACE_OUTER_BOUND ( 'NONE', #63, .T. ) ;
#292 = DIRECTION ( 'NONE',  ( 0.0000000000000000000, 0.0000000000000000000, 1.000000000000000000 ) ) ;
#293 = DIRECTION ( 'NONE',  ( 0.0000000000000000000, 1.000000000000000000, 0.0000000000000000000 ) ) ;
#294 = CARTESIAN_POINT ( 'NONE',  ( -5.009326287108706300E-010, -10.99999999650043500, 0.0000000000000000000 ) ) ;
#295 = AXIS2_PLACEMENT_3D ( 'NONE', #294, #293, #292 ) ;
#296 = CIRCLE ( 'NONE', #295, 2.000000000000000000 ) ;
#297 = DIRECTION ( 'NONE',  ( 0.0000000000000000000, 0.0000000000000000000, -1.000000000000000000 ) ) ;
#298 = DIRECTION ( 'NONE',  ( 0.0000000000000000000, -1.000000000000000000, 0.0000000000000000000 ) ) ;
#299 = CARTESIAN_POINT ( 'NONE',  ( 5.999999999499070000, -10.99999999650043500, 0.0000000000000000000 ) ) ;
#300 = AXIS2_PLACEMENT_3D ( 'NONE', #299, #298, #297 ) ;
#301 = PLANE ( 'NONE',  #300 ) ;
#302 = FACE_OUTER_BOUND ( 'NONE', #59, .T. ) ;
#303 = FACE_BOUND ( 'NONE', #55, .T. ) ;
#304 = DIRECTION ( 'NONE',  ( 0.0000000000000000000, 0.0000000000000000000, 1.000000000000000000 ) ) ;
#305 = DIRECTION ( 'NONE',  ( 0.0000000000000000000, 1.000000000000000000, 0.0000000000000000000 ) ) ;
#306 = CARTESIAN_POINT ( 'NONE',  ( -5.009326287108706300E-010, -10.99999999650043500, 0.0000000000000000000 ) ) ;
#307 = AXIS2_PLACEMENT_3D ( 'NONE', #306, #305, #304 ) ;
#308 = DIRECTION ( 'NONE',  ( 0.0000000000000000000, 0.0000000000000000000, 1.000000000000000000 ) ) ;
#309 = DIRECTION ( 'NONE',  ( 0.0000000000000000000, 1.000000000000000000, 0.0000000000000000000 ) ) ;
#310 = CARTESIAN_POINT ( 'NONE',  ( -5.009326287108706300E-010, 2.412507003500041800, 0.0000000000000000000 ) ) ;
#311 = AXIS2_PLACEMENT_3D ( 'NONE', #310, #309, #308 ) ;
#312 = CIRCLE ( 'NONE', #307, 6.000000000000002700 ) ;
#313 = CYLINDRICAL_SURFACE ( 'NONE', #311, 6.000000000000001800 ) ;
#314 = FACE_OUTER_BOUND ( 'NONE', #48, .T. ) ;
#315 = DIRECTION ( 'NONE',  ( 0.0000000000000000000, 0.0000000000000000000, 1.000000000000000000 ) ) ;
#316 = DIRECTION ( 'NONE',  ( 0.0000000000000000000, 1.000000000000000000, 0.0000000000000000000 ) ) ;
#317 = AXIS2_PLACEMENT_3D ( 'NONE', #323, #316, #315 ) ;
#318 = CIRCLE ( 'NONE', #317, 6.000000000000000000 ) ;
#319 = DIRECTION ( 'NONE',  ( 0.0000000000000000000, 0.0000000000000000000, -1.000000000000000000 ) ) ;
#320 = DIRECTION ( 'NONE',  ( 0.0000000000000000000, -1.000000000000000000, 0.0000000000000000000 ) ) ;
#321 = CARTESIAN_POINT ( 'NONE',  ( 9.305745822732982100, 3.499565654624392500E-009, 0.0000000000000000000 ) ) ;
#322 = AXIS2_PLACEMENT_3D ( 'NONE', #321, #320, #319 ) ;
#323 = CARTESIAN_POINT ( 'NONE',  ( -5.009326287108706300E-010, 3.499565654624392500E-009, 0.0000000000000000000 ) ) ;
#324 = PLANE ( 'NONE',  #322 ) ;
#325 = FACE_OUTER_BOUND ( 'NONE', #44, .T. ) ;
#326 = FACE_BOUND ( 'NONE', #40, .T. ) ;
#327 = CARTESIAN_POINT ( 'NONE',  ( -5.009313683288977200E-010, 3.499565654624392500E-009, -9.305745823233914700 ) ) ;
#328 = DIRECTION ( 'NONE',  ( 1.224606353612350900E-016, 0.0000000000000000000, -1.000000000000000000 ) ) ;
#329 = SHAPE_DEFINITION_REPRESENTATION ( #330, #189 ) ;
#330 = PRODUCT_DEFINITION_SHAPE ( 'NONE', 'NONE',  #119 ) ;
#331 = PRODUCT_RELATED_PRODUCT_CATEGORY ( 'detail', '', ( #181 ) ) ;
#332 = CC_DESIGN_SECURITY_CLASSIFICATION ( #353, ( #378 ) ) ;
#333 = CC_DESIGN_APPROVAL ( #341, ( #353 ) ) ;
#334 = APPROVAL_DATE_TIME ( #335, #341 ) ;
#335 = DATE_AND_TIME ( #336, #337 ) ;
#336 = CALENDAR_DATE ( 2009, 26, 6 ) ;
#337 = LOCAL_TIME ( 14, 1, 2.000000000000000000, #338 ) ;
#338 = COORDINATED_UNIVERSAL_TIME_OFFSET ( 9, 0, .AHEAD. ) ;
#339 = APPROVAL_PERSON_ORGANIZATION ( #343, #341, #340 ) ;
#340 = APPROVAL_ROLE ( '' ) ;
#341 = APPROVAL ( #342, 'UNSPECIFIED' ) ;
#342 = APPROVAL_STATUS ( 'not_yet_approved' ) ;
#343 = PERSON_AND_ORGANIZATION ( #180, #179 ) ;
#344 = CC_DESIGN_DATE_AND_TIME_ASSIGNMENT ( #346, #345, ( #353 ) ) ;
#345 = DATE_TIME_ROLE ( 'classification_date' ) ;
#346 = DATE_AND_TIME ( #347, #348 ) ;
#347 = CALENDAR_DATE ( 2009, 26, 6 ) ;
#348 = LOCAL_TIME ( 14, 1, 2.000000000000000000, #349 ) ;
#349 = COORDINATED_UNIVERSAL_TIME_OFFSET ( 9, 0, .AHEAD. ) ;
#350 = CC_DESIGN_PERSON_AND_ORGANIZATION_ASSIGNMENT ( #352, #351, ( #353 ) ) ;
#351 = PERSON_AND_ORGANIZATION_ROLE ( 'classification_officer' ) ;
#352 = PERSON_AND_ORGANIZATION ( #180, #179 ) ;
#353 = SECURITY_CLASSIFICATION ( '', '', #354 ) ;
#354 = SECURITY_CLASSIFICATION_LEVEL ( 'unclassified' ) ;
#355 = CC_DESIGN_PERSON_AND_ORGANIZATION_ASSIGNMENT ( #357, #356, ( #378 ) ) ;
#356 = PERSON_AND_ORGANIZATION_ROLE ( 'design_supplier' ) ;
#357 = PERSON_AND_ORGANIZATION ( #180, #179 ) ;
#358 = CC_DESIGN_PERSON_AND_ORGANIZATION_ASSIGNMENT ( #360, #359, ( #378 ) ) ;
#359 = PERSON_AND_ORGANIZATION_ROLE ( 'creator' ) ;
#360 = PERSON_AND_ORGANIZATION ( #180, #179 ) ;
#361 = CC_DESIGN_DATE_AND_TIME_ASSIGNMENT ( #379, #362, ( #119 ) ) ;
#362 = DATE_TIME_ROLE ( 'creation_date' ) ;
#363 = CALENDAR_DATE ( 2009, 26, 6 ) ;
#364 = COORDINATED_UNIVERSAL_TIME_OFFSET ( 9, 0, .AHEAD. ) ;
#365 = CC_DESIGN_PERSON_AND_ORGANIZATION_ASSIGNMENT ( #366, #381, ( #119 ) ) ;
#366 = PERSON_AND_ORGANIZATION ( #180, #179 ) ;
#367 = CC_DESIGN_APPROVAL ( #375, ( #378 ) ) ;
#368 = APPROVAL_DATE_TIME ( #369, #375 ) ;
#369 = DATE_AND_TIME ( #370, #371 ) ;
#370 = CALENDAR_DATE ( 2009, 26, 6 ) ;
#371 = LOCAL_TIME ( 14, 1, 2.000000000000000000, #372 ) ;
#372 = COORDINATED_UNIVERSAL_TIME_OFFSET ( 9, 0, .AHEAD. ) ;
#373 = APPROVAL_PERSON_ORGANIZATION ( #377, #375, #374 ) ;
#374 = APPROVAL_ROLE ( '' ) ;
#375 = APPROVAL ( #376, 'UNSPECIFIED' ) ;
#376 = APPROVAL_STATUS ( 'not_yet_approved' ) ;
#377 = PERSON_AND_ORGANIZATION ( #180, #179 ) ;
#378 = PRODUCT_DEFINITION_FORMATION_WITH_SPECIFIED_SOURCE ( 'ANY', '', #181, .NOT_KNOWN. ) ;
#379 = DATE_AND_TIME ( #363, #380 ) ;
#380 = LOCAL_TIME ( 14, 1, 2.000000000000000000, #364 ) ;
#381 = PERSON_AND_ORGANIZATION_ROLE ( 'creator' ) ;
ENDSEC;
END-ISO-10303-21;
