ISO-10303-21;
HEADER;
FILE_DESCRIPTION (( 'STEP AP203' ),
    '1' );
FILE_NAME ('C-30-RK-26-ÃÞÌ«ÙÄ.STEP',
    '2009-06-29T01:54:29',
    ( '11sw' ),
    ( '^LQ»¢®ïÐ' ),
    'SwSTEP 2.0',
    'SolidWorks 2007',
    '' );
FILE_SCHEMA (( 'CONFIG_CONTROL_DESIGN' ));
ENDSEC;

DATA;
#1 = ORIENTED_EDGE ( 'NONE', *, *, #2, .F. ) ;
#2 = EDGE_CURVE ( 'NONE', #8, #4, #139, .T. ) ;
#3 = VERTEX_POINT ( 'NONE', #141 ) ;
#4 = VERTEX_POINT ( 'NONE', #137 ) ;
#5 = ORIENTED_EDGE ( 'NONE', *, *, #6, .T. ) ;
#6 = EDGE_CURVE ( 'NONE', #11, #12, #140, .T. ) ;
#7 = ORIENTED_EDGE ( 'NONE', *, *, #9, .T. ) ;
#8 = VERTEX_POINT ( 'NONE', #144 ) ;
#9 = EDGE_CURVE ( 'NONE', #12, #4, #87, .T. ) ;
#10 = EDGE_CURVE ( 'NONE', #11, #8, #71, .T. ) ;
#11 = VERTEX_POINT ( 'NONE', #74 ) ;
#12 = VERTEX_POINT ( 'NONE', #73 ) ;
#13 = ORIENTED_EDGE ( 'NONE', *, *, #31, .T. ) ;
#14 = ORIENTED_EDGE ( 'NONE', *, *, #31, .F. ) ;
#15 = ORIENTED_EDGE ( 'NONE', *, *, #10, .F. ) ;
#16 = EDGE_LOOP ( 'NONE', ( #14, #35 ) ) ;
#17 = ADVANCED_FACE ( 'NONE', ( #85, #84 ), #72, .F. ) ;
#18 = EDGE_CURVE ( 'NONE', #46, #3, #58, .T. ) ;
#19 = ADVANCED_FACE ( 'NONE', ( #157 ), #156, .F. ) ;
#20 = ORIENTED_EDGE ( 'NONE', *, *, #120, .T. ) ;
#21 = EDGE_CURVE ( 'NONE', #107, #106, #149, .T. ) ;
#22 = ADVANCED_FACE ( 'NONE', ( #177 ), #176, .F. ) ;
#23 = EDGE_LOOP ( 'NONE', ( #24, #26, #27, #25 ) ) ;
#24 = ORIENTED_EDGE ( 'NONE', *, *, #109, .F. ) ;
#25 = ORIENTED_EDGE ( 'NONE', *, *, #103, .T. ) ;
#26 = ORIENTED_EDGE ( 'NONE', *, *, #21, .F. ) ;
#27 = ORIENTED_EDGE ( 'NONE', *, *, #130, .T. ) ;
#28 = ORIENTED_EDGE ( 'NONE', *, *, #18, .T. ) ;
#29 = EDGE_CURVE ( 'NONE', #63, #3, #172, .T. ) ;
#30 = ORIENTED_EDGE ( 'NONE', *, *, #29, .F. ) ;
#31 = EDGE_CURVE ( 'NONE', #4, #12, #168, .T. ) ;
#32 = ORIENTED_EDGE ( 'NONE', *, *, #124, .T. ) ;
#33 = EDGE_LOOP ( 'NONE', ( #15, #5, #7, #1 ) ) ;
#34 = EDGE_LOOP ( 'NONE', ( #37, #32 ) ) ;
#35 = ORIENTED_EDGE ( 'NONE', *, *, #9, .F. ) ;
#36 = EDGE_LOOP ( 'NONE', ( #38, #42, #39, #13 ) ) ;
#37 = ORIENTED_EDGE ( 'NONE', *, *, #21, .T. ) ;
#38 = ORIENTED_EDGE ( 'NONE', *, *, #6, .F. ) ;
#39 = ORIENTED_EDGE ( 'NONE', *, *, #2, .T. ) ;
#40 = ORIENTED_EDGE ( 'NONE', *, *, #44, .F. ) ;
#41 = ADVANCED_FACE ( 'NONE', ( #163 ), #162, .F. ) ;
#42 = ORIENTED_EDGE ( 'NONE', *, *, #43, .F. ) ;
#43 = EDGE_CURVE ( 'NONE', #8, #11, #190, .T. ) ;
#44 = EDGE_CURVE ( 'NONE', #3, #46, #200, .T. ) ;
#45 = EDGE_LOOP ( 'NONE', ( #40, #77 ) ) ;
#46 = VERTEX_POINT ( 'NONE', #193 ) ;
#47 = DIRECTION ( 'NONE',  ( 0.0000000000000000000, 1.000000000000000000, 0.0000000000000000000 ) ) ;
#48 = DIRECTION ( 'NONE',  ( 0.0000000000000000000, 0.0000000000000000000, 1.000000000000000000 ) ) ;
#49 = DIRECTION ( 'NONE',  ( 0.0000000000000000000, 0.0000000000000000000, 1.000000000000000000 ) ) ;
#50 = DIRECTION ( 'NONE',  ( 0.0000000000000000000, 0.0000000000000000000, -1.000000000000000000 ) ) ;
#51 = DIRECTION ( 'NONE',  ( 0.0000000000000000000, -1.000000000000000000, 0.0000000000000000000 ) ) ;
#52 = CARTESIAN_POINT ( 'NONE',  ( 4.999999999499068300, -9.999999996500434900, 0.0000000000000000000 ) ) ;
#53 = VERTEX_POINT ( 'NONE', #180 ) ;
#54 = ORIENTED_EDGE ( 'NONE', *, *, #66, .T. ) ;
#55 = ORIENTED_EDGE ( 'NONE', *, *, #76, .F. ) ;
#56 = DIRECTION ( 'NONE',  ( 0.0000000000000000000, 1.000000000000000000, 0.0000000000000000000 ) ) ;
#57 = AXIS2_PLACEMENT_3D ( 'NONE', #94, #56, #49 ) ;
#58 = CIRCLE ( 'NONE', #57, 13.00000000000000000 ) ;
#59 = DIRECTION ( 'NONE',  ( 0.0000000000000000000, 1.000000000000000000, 0.0000000000000000000 ) ) ;
#60 = ADVANCED_FACE ( 'NONE', ( #182, #189 ), #183, .F. ) ;
#61 = EDGE_LOOP ( 'NONE', ( #68, #79, #90, #89 ) ) ;
#62 = ADVANCED_FACE ( 'NONE', ( #184 ), #187, .T. ) ;
#63 = VERTEX_POINT ( 'NONE', #204 ) ;
#64 = EDGE_LOOP ( 'NONE', ( #55, #54, #28, #30 ) ) ;
#65 = MANIFOLD_SOLID_BREP ( 'NONE', #67 ) ;
#66 = EDGE_CURVE ( 'NONE', #53, #46, #151, .T. ) ;
#67 = CLOSED_SHELL ( 'NONE', ( #62, #19, #121, #111, #104, #126, #22, #17, #41, #60, #88 ) ) ;
#68 = ORIENTED_EDGE ( 'NONE', *, *, #66, .F. ) ;
#69 = DIRECTION ( 'NONE',  ( 0.0000000000000000000, 1.000000000000000000, 0.0000000000000000000 ) ) ;
#70 = AXIS2_PLACEMENT_3D ( 'NONE', #93, #69, #75 ) ;
#71 = CIRCLE ( 'NONE', #70, 2.000000000000000400 ) ;
#72 = PLANE ( 'NONE',  #83 ) ;
#73 = CARTESIAN_POINT ( 'NONE',  ( -5.009323837895998700E-010, -9.999999996500434900, -2.000000000000000000 ) ) ;
#74 = CARTESIAN_POINT ( 'NONE',  ( -5.009323837895998700E-010, -14.99999999650043500, -2.000000000000000400 ) ) ;
#75 = DIRECTION ( 'NONE',  ( 0.0000000000000000000, 0.0000000000000000000, 1.000000000000000000 ) ) ;
#76 = EDGE_CURVE ( 'NONE', #53, #63, #210, .T. ) ;
#77 = ORIENTED_EDGE ( 'NONE', *, *, #18, .F. ) ;
#78 = ORIENTED_EDGE ( 'NONE', *, *, #43, .T. ) ;
#79 = ORIENTED_EDGE ( 'NONE', *, *, #101, .F. ) ;
#80 = DIRECTION ( 'NONE',  ( 0.0000000000000000000, 0.0000000000000000000, 1.000000000000000000 ) ) ;
#81 = DIRECTION ( 'NONE',  ( 0.0000000000000000000, 1.000000000000000000, 0.0000000000000000000 ) ) ;
#82 = CARTESIAN_POINT ( 'NONE',  ( -5.009326287108706300E-010, -9.999999996500434900, 0.0000000000000000000 ) ) ;
#83 = AXIS2_PLACEMENT_3D ( 'NONE', #52, #51, #50 ) ;
#84 = FACE_OUTER_BOUND ( 'NONE', #34, .T. ) ;
#85 = FACE_BOUND ( 'NONE', #16, .T. ) ;
#86 = AXIS2_PLACEMENT_3D ( 'NONE', #82, #81, #80 ) ;
#87 = CIRCLE ( 'NONE', #86, 2.000000000000000000 ) ;
#88 = ADVANCED_FACE ( 'NONE', ( #205 ), #212, .T. ) ;
#89 = ORIENTED_EDGE ( 'NONE', *, *, #44, .T. ) ;
#90 = ORIENTED_EDGE ( 'NONE', *, *, #29, .T. ) ;
#91 = ORIENTED_EDGE ( 'NONE', *, *, #10, .T. ) ;
#92 = EDGE_LOOP ( 'NONE', ( #78, #91 ) ) ;
#93 = CARTESIAN_POINT ( 'NONE',  ( -5.009326287108706300E-010, -14.99999999650043500, 0.0000000000000000000 ) ) ;
#94 = CARTESIAN_POINT ( 'NONE',  ( -5.009326287108706300E-010, -14.99999999650043500, 0.0000000000000000000 ) ) ;
#95 = ORIENTED_EDGE ( 'NONE', *, *, #96, .T. ) ;
#96 = EDGE_CURVE ( 'NONE', #110, #97, #231, .T. ) ;
#97 = VERTEX_POINT ( 'NONE', #219 ) ;
#98 = EDGE_LOOP ( 'NONE', ( #99, #100, #118, #119 ) ) ;
#99 = ORIENTED_EDGE ( 'NONE', *, *, #132, .F. ) ;
#100 = ORIENTED_EDGE ( 'NONE', *, *, #101, .T. ) ;
#101 = EDGE_CURVE ( 'NONE', #63, #53, #218, .T. ) ;
#102 = ORIENTED_EDGE ( 'NONE', *, *, #103, .F. ) ;
#103 = EDGE_CURVE ( 'NONE', #97, #110, #230, .T. ) ;
#104 = ADVANCED_FACE ( 'NONE', ( #233 ), #232, .T. ) ;
#105 = ORIENTED_EDGE ( 'NONE', *, *, #96, .F. ) ;
#106 = VERTEX_POINT ( 'NONE', #235 ) ;
#107 = VERTEX_POINT ( 'NONE', #234 ) ;
#108 = ORIENTED_EDGE ( 'NONE', *, *, #109, .T. ) ;
#109 = EDGE_CURVE ( 'NONE', #106, #110, #283, .T. ) ;
#110 = VERTEX_POINT ( 'NONE', #279 ) ;
#111 = ADVANCED_FACE ( 'NONE', ( #278 ), #276, .T. ) ;
#112 = ORIENTED_EDGE ( 'NONE', *, *, #76, .T. ) ;
#113 = ORIENTED_EDGE ( 'NONE', *, *, #132, .T. ) ;
#114 = EDGE_CURVE ( 'NONE', #115, #133, #272, .T. ) ;
#115 = VERTEX_POINT ( 'NONE', #267 ) ;
#116 = ORIENTED_EDGE ( 'NONE', *, *, #117, .F. ) ;
#117 = EDGE_CURVE ( 'NONE', #53, #115, #265, .T. ) ;
#118 = ORIENTED_EDGE ( 'NONE', *, *, #117, .T. ) ;
#119 = ORIENTED_EDGE ( 'NONE', *, *, #120, .F. ) ;
#120 = EDGE_CURVE ( 'NONE', #133, #115, #260, .T. ) ;
#121 = ADVANCED_FACE ( 'NONE', ( #256 ), #255, .F. ) ;
#122 = EDGE_LOOP ( 'NONE', ( #123, #108, #95, #129 ) ) ;
#123 = ORIENTED_EDGE ( 'NONE', *, *, #124, .F. ) ;
#124 = EDGE_CURVE ( 'NONE', #106, #107, #254, .T. ) ;
#125 = ORIENTED_EDGE ( 'NONE', *, *, #114, .T. ) ;
#126 = ADVANCED_FACE ( 'NONE', ( #305, #304 ), #303, .F. ) ;
#127 = EDGE_LOOP ( 'NONE', ( #102, #105 ) ) ;
#128 = EDGE_LOOP ( 'NONE', ( #112, #113, #134, #116 ) ) ;
#129 = ORIENTED_EDGE ( 'NONE', *, *, #130, .F. ) ;
#130 = EDGE_CURVE ( 'NONE', #107, #97, #298, .T. ) ;
#131 = EDGE_LOOP ( 'NONE', ( #125, #20 ) ) ;
#132 = EDGE_CURVE ( 'NONE', #63, #133, #294, .T. ) ;
#133 = VERTEX_POINT ( 'NONE', #289 ) ;
#134 = ORIENTED_EDGE ( 'NONE', *, *, #114, .F. ) ;
#135 = DIRECTION ( 'NONE',  ( 0.0000000000000000000, 1.000000000000000000, 0.0000000000000000000 ) ) ;
#136 = CARTESIAN_POINT ( 'NONE',  ( -5.009326287108706300E-010, 2.412507003500041800, 2.000000000000000000 ) ) ;
#137 = CARTESIAN_POINT ( 'NONE',  ( -5.009326287108706300E-010, -9.999999996500434900, 2.000000000000000000 ) ) ;
#138 = VECTOR ( 'NONE', #135, 1000.000000000000000 ) ;
#139 = LINE ( 'NONE', #136, #138 ) ;
#140 = LINE ( 'NONE', #142, #146 ) ;
#141 = CARTESIAN_POINT ( 'NONE',  ( -5.009326287108706300E-010, -14.99999999650043500, -13.00000000000000000 ) ) ;
#142 = CARTESIAN_POINT ( 'NONE',  ( -5.009323837895998700E-010, 2.412507003500041800, -2.000000000000000000 ) ) ;
#143 = DIRECTION ( 'NONE',  ( 0.0000000000000000000, 0.0000000000000000000, 1.000000000000000000 ) ) ;
#144 = CARTESIAN_POINT ( 'NONE',  ( -5.009326287108706300E-010, -14.99999999650043500, 2.000000000000000400 ) ) ;
#145 = DIRECTION ( 'NONE',  ( 0.0000000000000000000, 1.000000000000000000, 0.0000000000000000000 ) ) ;
#146 = VECTOR ( 'NONE', #145, 1000.000000000000000 ) ;
#147 = CARTESIAN_POINT ( 'NONE',  ( -5.009326287108706300E-010, 2.412507003500041800, 0.0000000000000000000 ) ) ;
#148 = AXIS2_PLACEMENT_3D ( 'NONE', #152, #59, #48 ) ;
#149 = CIRCLE ( 'NONE', #148, 5.000000000000000900 ) ;
#150 = CARTESIAN_POINT ( 'NONE',  ( -5.009310367226106600E-010, -14.99999999650043500, 13.00000000000000000 ) ) ;
#151 = LINE ( 'NONE', #150, #161 ) ;
#152 = CARTESIAN_POINT ( 'NONE',  ( -5.009326287108706300E-010, -9.999999996500434900, 0.0000000000000000000 ) ) ;
#153 = DIRECTION ( 'NONE',  ( 0.0000000000000000000, 0.0000000000000000000, 1.000000000000000000 ) ) ;
#154 = DIRECTION ( 'NONE',  ( 0.0000000000000000000, 1.000000000000000000, 0.0000000000000000000 ) ) ;
#155 = AXIS2_PLACEMENT_3D ( 'NONE', #147, #154, #153 ) ;
#156 = CYLINDRICAL_SURFACE ( 'NONE', #155, 2.000000000000000000 ) ;
#157 = FACE_OUTER_BOUND ( 'NONE', #33, .T. ) ;
#158 = CARTESIAN_POINT ( 'NONE',  ( -5.009326287108706300E-010, 2.412507003500041800, 0.0000000000000000000 ) ) ;
#159 = AXIS2_PLACEMENT_3D ( 'NONE', #158, #47, #143 ) ;
#160 = DIRECTION ( 'NONE',  ( 2.401650651773080700E-017, -0.9805806756909202200, 0.1961161351381839600 ) ) ;
#161 = VECTOR ( 'NONE', #160, 1000.000000000000000 ) ;
#162 = CYLINDRICAL_SURFACE ( 'NONE', #159, 2.000000000000000000 ) ;
#163 = FACE_OUTER_BOUND ( 'NONE', #36, .T. ) ;
#164 = DIRECTION ( 'NONE',  ( 0.0000000000000000000, 0.0000000000000000000, 1.000000000000000000 ) ) ;
#165 = DIRECTION ( 'NONE',  ( 0.0000000000000000000, 1.000000000000000000, 0.0000000000000000000 ) ) ;
#166 = CARTESIAN_POINT ( 'NONE',  ( -5.009326287108706300E-010, -9.999999996500434900, 0.0000000000000000000 ) ) ;
#167 = AXIS2_PLACEMENT_3D ( 'NONE', #166, #165, #164 ) ;
#168 = CIRCLE ( 'NONE', #167, 2.000000000000000000 ) ;
#169 = DIRECTION ( 'NONE',  ( 0.0000000000000000000, -0.9805806756909202200, -0.1961161351381839600 ) ) ;
#170 = VECTOR ( 'NONE', #169, 1000.000000000000000 ) ;
#171 = CARTESIAN_POINT ( 'NONE',  ( -5.009326287108706300E-010, -14.99999999650043500, -13.00000000000000000 ) ) ;
#172 = LINE ( 'NONE', #171, #170 ) ;
#173 = DIRECTION ( 'NONE',  ( 0.0000000000000000000, 0.0000000000000000000, 1.000000000000000000 ) ) ;
#174 = DIRECTION ( 'NONE',  ( 0.0000000000000000000, 1.000000000000000000, 0.0000000000000000000 ) ) ;
#175 = CARTESIAN_POINT ( 'NONE',  ( -5.009326287108706300E-010, 2.412507003500041800, 0.0000000000000000000 ) ) ;
#176 = CYLINDRICAL_SURFACE ( 'NONE', #178, 5.000000000000000000 ) ;
#177 = FACE_OUTER_BOUND ( 'NONE', #23, .T. ) ;
#178 = AXIS2_PLACEMENT_3D ( 'NONE', #175, #174, #173 ) ;
#179 = DIRECTION ( 'NONE',  ( 0.0000000000000000000, 0.0000000000000000000, -1.000000000000000000 ) ) ;
#180 = CARTESIAN_POINT ( 'NONE',  ( -5.009326287108706300E-010, -0.8038838613622563100, 10.16077677297236500 ) ) ;
#181 = AXIS2_PLACEMENT_3D ( 'NONE', #192, #199, #194 ) ;
#182 = FACE_OUTER_BOUND ( 'NONE', #45, .T. ) ;
#183 = PLANE ( 'NONE',  #188 ) ;
#184 = FACE_OUTER_BOUND ( 'NONE', #64, .T. ) ;
#185 = DIRECTION ( 'NONE',  ( 0.0000000000000000000, 1.000000000000000000, 0.0000000000000000000 ) ) ;
#186 = DIRECTION ( 'NONE',  ( 0.0000000000000000000, 0.0000000000000000000, 1.000000000000000000 ) ) ;
#187 = CONICAL_SURFACE ( 'NONE', #203, 13.00000000000000000, 0.1973955598498806400 ) ;
#188 = AXIS2_PLACEMENT_3D ( 'NONE', #197, #196, #195 ) ;
#189 = FACE_BOUND ( 'NONE', #92, .T. ) ;
#190 = CIRCLE ( 'NONE', #198, 2.000000000000000400 ) ;
#191 = CARTESIAN_POINT ( 'NONE',  ( -5.009326287108706300E-010, -14.99999999650043500, 0.0000000000000000000 ) ) ;
#192 = CARTESIAN_POINT ( 'NONE',  ( -5.009326287108706300E-010, -14.99999999650043500, 0.0000000000000000000 ) ) ;
#193 = CARTESIAN_POINT ( 'NONE',  ( -5.009310367226106600E-010, -14.99999999650043500, 13.00000000000000000 ) ) ;
#194 = DIRECTION ( 'NONE',  ( 0.0000000000000000000, 0.0000000000000000000, 1.000000000000000000 ) ) ;
#195 = DIRECTION ( 'NONE',  ( 0.0000000000000000000, 0.0000000000000000000, 1.000000000000000000 ) ) ;
#196 = DIRECTION ( 'NONE',  ( 0.0000000000000000000, 1.000000000000000000, 0.0000000000000000000 ) ) ;
#197 = CARTESIAN_POINT ( 'NONE',  ( 1.999999999499067800, -14.99999999650043500, 0.0000000000000000000 ) ) ;
#198 = AXIS2_PLACEMENT_3D ( 'NONE', #191, #185, #186 ) ;
#199 = DIRECTION ( 'NONE',  ( 0.0000000000000000000, 1.000000000000000000, 0.0000000000000000000 ) ) ;
#200 = CIRCLE ( 'NONE', #181, 13.00000000000000000 ) ;
#201 = DIRECTION ( 'NONE',  ( 0.0000000000000000000, -1.000000000000000000, 0.0000000000000000000 ) ) ;
#202 = CARTESIAN_POINT ( 'NONE',  ( -5.009326287108706300E-010, -14.99999999650043500, 0.0000000000000000000 ) ) ;
#203 = AXIS2_PLACEMENT_3D ( 'NONE', #202, #201, #179 ) ;
#204 = CARTESIAN_POINT ( 'NONE',  ( -5.009313844156910000E-010, -0.8038838613622563100, -10.16077677297236500 ) ) ;
#205 = FACE_OUTER_BOUND ( 'NONE', #61, .T. ) ;
#206 = DIRECTION ( 'NONE',  ( 0.0000000000000000000, 0.0000000000000000000, -1.000000000000000000 ) ) ;
#207 = DIRECTION ( 'NONE',  ( 0.0000000000000000000, -1.000000000000000000, 0.0000000000000000000 ) ) ;
#208 = AXIS2_PLACEMENT_3D ( 'NONE', #211, #207, #206 ) ;
#209 = AXIS2_PLACEMENT_3D ( 'NONE', #215, #214, #213 ) ;
#210 = CIRCLE ( 'NONE', #209, 10.16077677297236500 ) ;
#211 = CARTESIAN_POINT ( 'NONE',  ( -5.009326287108706300E-010, -14.99999999650043500, 0.0000000000000000000 ) ) ;
#212 = CONICAL_SURFACE ( 'NONE', #208, 13.00000000000000000, 0.1973955598498806400 ) ;
#213 = DIRECTION ( 'NONE',  ( 0.0000000000000000000, 0.0000000000000000000, 1.000000000000000000 ) ) ;
#214 = DIRECTION ( 'NONE',  ( 0.0000000000000000000, 1.000000000000000000, 0.0000000000000000000 ) ) ;
#215 = CARTESIAN_POINT ( 'NONE',  ( -5.009326287108706300E-010, -0.8038838613622563100, 0.0000000000000000000 ) ) ;
#216 = CARTESIAN_POINT ( 'NONE',  ( -5.009326287108706300E-010, 3.499565654624392500E-009, 0.0000000000000000000 ) ) ;
#217 = AXIS2_PLACEMENT_3D ( 'NONE', #216, #225, #226 ) ;
#218 = CIRCLE ( 'NONE', #223, 10.16077677297236500 ) ;
#219 = CARTESIAN_POINT ( 'NONE',  ( -5.009326287108706300E-010, 3.499565654624392500E-009, 4.999999999999999100 ) ) ;
#220 = DIRECTION ( 'NONE',  ( 0.0000000000000000000, 0.0000000000000000000, 1.000000000000000000 ) ) ;
#221 = DIRECTION ( 'NONE',  ( 0.0000000000000000000, 1.000000000000000000, 0.0000000000000000000 ) ) ;
#222 = CARTESIAN_POINT ( 'NONE',  ( -5.009326287108706300E-010, -0.8038838613622563100, 0.0000000000000000000 ) ) ;
#223 = AXIS2_PLACEMENT_3D ( 'NONE', #222, #221, #220 ) ;
#224 = CARTESIAN_POINT ( 'NONE',  ( -5.009326287108706300E-010, 3.499565654624392500E-009, 0.0000000000000000000 ) ) ;
#225 = DIRECTION ( 'NONE',  ( 0.0000000000000000000, 1.000000000000000000, 0.0000000000000000000 ) ) ;
#226 = DIRECTION ( 'NONE',  ( 0.0000000000000000000, 0.0000000000000000000, 1.000000000000000000 ) ) ;
#227 = DIRECTION ( 'NONE',  ( 0.0000000000000000000, 0.0000000000000000000, 1.000000000000000000 ) ) ;
#228 = DIRECTION ( 'NONE',  ( 0.0000000000000000000, 1.000000000000000000, 0.0000000000000000000 ) ) ;
#229 = AXIS2_PLACEMENT_3D ( 'NONE', #224, #228, #227 ) ;
#230 = CIRCLE ( 'NONE', #229, 4.999999999999999100 ) ;
#231 = CIRCLE ( 'NONE', #217, 4.999999999999999100 ) ;
#232 = TOROIDAL_SURFACE ( 'NONE', #239, 9.180196097281443800, 1.000000000000000000 ) ;
#233 = FACE_OUTER_BOUND ( 'NONE', #98, .T. ) ;
#234 = CARTESIAN_POINT ( 'NONE',  ( -5.009326287108706300E-010, -9.999999996500434900, 5.000000000000000900 ) ) ;
#235 = CARTESIAN_POINT ( 'NONE',  ( -5.009320164076937200E-010, -9.999999996500434900, -5.000000000000000900 ) ) ;
#236 = DIRECTION ( 'NONE',  ( 0.0000000000000000000, 0.0000000000000000000, 1.000000000000000000 ) ) ;
#237 = DIRECTION ( 'NONE',  ( 0.0000000000000000000, 1.000000000000000000, 0.0000000000000000000 ) ) ;
#238 = CARTESIAN_POINT ( 'NONE',  ( -5.009326287108706300E-010, -0.9999999965004343600, 0.0000000000000000000 ) ) ;
#239 = AXIS2_PLACEMENT_3D ( 'NONE', #238, #237, #236 ) ;
#240 = PERSON ( 'UNSPECIFIED', 'UNSPECIFIED', 'UNSPECIFIED', ('UNSPECIFIED'), ('UNSPECIFIED'), ('UNSPECIFIED') ) ;
#241 = PRODUCT ( 'C-30-RK-26-ÃÞÌ«ÙÄ', 'C-30-RK-26-ÃÞÌ«ÙÄ', '', ( #242 ) ) ;
#242 = MECHANICAL_CONTEXT ( 'NONE', #244, 'mechanical' ) ;
#243 = APPLICATION_PROTOCOL_DEFINITION ( 'international standard', 'config_control_design', 1994, #244 ) ;
#244 = APPLICATION_CONTEXT ( 'configuration controlled 3d designs of mechanical parts and assemblies' ) ;
#245 = DIRECTION ( 'NONE',  ( 1.000000000000000000, 0.0000000000000000000, 0.0000000000000000000 ) ) ;
#246 = DIRECTION ( 'NONE',  ( 0.0000000000000000000, 0.0000000000000000000, 1.000000000000000000 ) ) ;
#247 = AXIS2_PLACEMENT_3D ( 'NONE', #288, #246, #245 ) ;
#248 = ADVANCED_BREP_SHAPE_REPRESENTATION ( 'C-30-RK-26-ÃÞÌ«ÙÄ', ( #65, #247 ), #249 ) ;
#249 =( GEOMETRIC_REPRESENTATION_CONTEXT ( 3 ) GLOBAL_UNCERTAINTY_ASSIGNED_CONTEXT ( ( #284 ) ) GLOBAL_UNIT_ASSIGNED_CONTEXT ( ( #287, #286, #285 ) ) REPRESENTATION_CONTEXT ( 'NONE', 'WORKASPACE' ) );
#250 = DIRECTION ( 'NONE',  ( 0.0000000000000000000, 0.0000000000000000000, 1.000000000000000000 ) ) ;
#251 = DIRECTION ( 'NONE',  ( 0.0000000000000000000, 1.000000000000000000, 0.0000000000000000000 ) ) ;
#252 = CARTESIAN_POINT ( 'NONE',  ( -5.009326287108706300E-010, 2.412507003500041800, 0.0000000000000000000 ) ) ;
#253 = AXIS2_PLACEMENT_3D ( 'NONE', #252, #251, #250 ) ;
#254 = CIRCLE ( 'NONE', #309, 5.000000000000000900 ) ;
#255 = CYLINDRICAL_SURFACE ( 'NONE', #253, 5.000000000000000000 ) ;
#256 = FACE_OUTER_BOUND ( 'NONE', #122, .T. ) ;
#257 = DIRECTION ( 'NONE',  ( 0.0000000000000000000, 0.0000000000000000000, 1.000000000000000000 ) ) ;
#258 = DIRECTION ( 'NONE',  ( 0.0000000000000000000, 1.000000000000000000, 0.0000000000000000000 ) ) ;
#259 = AXIS2_PLACEMENT_3D ( 'NONE', #266, #258, #257 ) ;
#260 = CIRCLE ( 'NONE', #259, 9.180196097281438500 ) ;
#261 = DIRECTION ( 'NONE',  ( 0.0000000000000000000, 0.0000000000000000000, 1.000000000000000000 ) ) ;
#262 = DIRECTION ( 'NONE',  ( -1.000000000000000000, 0.0000000000000000000, 0.0000000000000000000 ) ) ;
#263 = CARTESIAN_POINT ( 'NONE',  ( -5.009326287108706300E-010, -0.9999999965004343600, 9.180196097281443800 ) ) ;
#264 = AXIS2_PLACEMENT_3D ( 'NONE', #263, #262, #261 ) ;
#265 = CIRCLE ( 'NONE', #264, 0.9999999999999991100 ) ;
#266 = CARTESIAN_POINT ( 'NONE',  ( -5.009326287108706300E-010, 3.499565654624392500E-009, 0.0000000000000000000 ) ) ;
#267 = CARTESIAN_POINT ( 'NONE',  ( -5.009326287108706300E-010, 3.499565654624392500E-009, 9.180196097281438500 ) ) ;
#268 = DIRECTION ( 'NONE',  ( 0.0000000000000000000, 0.0000000000000000000, 1.000000000000000000 ) ) ;
#269 = DIRECTION ( 'NONE',  ( 0.0000000000000000000, 1.000000000000000000, 0.0000000000000000000 ) ) ;
#270 = CARTESIAN_POINT ( 'NONE',  ( -5.009326287108706300E-010, 3.499565654624392500E-009, 0.0000000000000000000 ) ) ;
#271 = AXIS2_PLACEMENT_3D ( 'NONE', #270, #269, #268 ) ;
#272 = CIRCLE ( 'NONE', #271, 9.180196097281438500 ) ;
#273 = DIRECTION ( 'NONE',  ( 0.0000000000000000000, 0.0000000000000000000, 1.000000000000000000 ) ) ;
#274 = DIRECTION ( 'NONE',  ( 0.0000000000000000000, 1.000000000000000000, 0.0000000000000000000 ) ) ;
#275 = AXIS2_PLACEMENT_3D ( 'NONE', #277, #274, #273 ) ;
#276 = TOROIDAL_SURFACE ( 'NONE', #275, 9.180196097281443800, 1.000000000000000000 ) ;
#277 = CARTESIAN_POINT ( 'NONE',  ( -5.009326287108706300E-010, -0.9999999965004343600, 0.0000000000000000000 ) ) ;
#278 = FACE_OUTER_BOUND ( 'NONE', #128, .T. ) ;
#279 = CARTESIAN_POINT ( 'NONE',  ( -5.009320164076937200E-010, 3.499565654624392500E-009, -4.999999999999999100 ) ) ;
#280 = DIRECTION ( 'NONE',  ( 0.0000000000000000000, 1.000000000000000000, 0.0000000000000000000 ) ) ;
#281 = VECTOR ( 'NONE', #280, 1000.000000000000000 ) ;
#282 = CARTESIAN_POINT ( 'NONE',  ( -5.009320164076937200E-010, 2.412507003500041800, -5.000000000000000000 ) ) ;
#283 = LINE ( 'NONE', #282, #281 ) ;
#284 = UNCERTAINTY_MEASURE_WITH_UNIT (LENGTH_MEASURE( 1.000000000000000100E-005 ), #287, 'distance_accuracy_value', 'NONE');
#285 =( NAMED_UNIT ( * ) SI_UNIT ( $, .STERADIAN. ) SOLID_ANGLE_UNIT ( ) );
#286 =( NAMED_UNIT ( * ) PLANE_ANGLE_UNIT ( ) SI_UNIT ( $, .RADIAN. ) );
#287 =( LENGTH_UNIT ( ) NAMED_UNIT ( * ) SI_UNIT ( .MILLI., .METRE. ) );
#288 = CARTESIAN_POINT ( 'NONE',  ( 0.0000000000000000000, 0.0000000000000000000, 0.0000000000000000000 ) ) ;
#289 = CARTESIAN_POINT ( 'NONE',  ( -5.009314444569573500E-010, 3.499565654624392500E-009, -9.180196097281438500 ) ) ;
#290 = DIRECTION ( 'NONE',  ( 1.224606353612351900E-016, 0.0000000000000000000, -1.000000000000000000 ) ) ;
#291 = DIRECTION ( 'NONE',  ( 1.000000000000000000, 0.0000000000000000000, 1.224606353822377300E-016 ) ) ;
#292 = CARTESIAN_POINT ( 'NONE',  ( -5.009315044982236900E-010, -0.9999999965004343600, -9.180196097281443800 ) ) ;
#293 = AXIS2_PLACEMENT_3D ( 'NONE', #292, #291, #290 ) ;
#294 = CIRCLE ( 'NONE', #293, 0.9999999999999991100 ) ;
#295 = DIRECTION ( 'NONE',  ( 0.0000000000000000000, 1.000000000000000000, 0.0000000000000000000 ) ) ;
#296 = VECTOR ( 'NONE', #295, 1000.000000000000000 ) ;
#297 = CARTESIAN_POINT ( 'NONE',  ( -5.009326287108706300E-010, 2.412507003500041800, 5.000000000000000000 ) ) ;
#298 = LINE ( 'NONE', #297, #296 ) ;
#299 = DIRECTION ( 'NONE',  ( 0.0000000000000000000, 0.0000000000000000000, -1.000000000000000000 ) ) ;
#300 = DIRECTION ( 'NONE',  ( 0.0000000000000000000, -1.000000000000000000, 0.0000000000000000000 ) ) ;
#301 = CARTESIAN_POINT ( 'NONE',  ( 9.180196096780505900, 3.499565591525951900E-009, 0.0000000000000000000 ) ) ;
#302 = AXIS2_PLACEMENT_3D ( 'NONE', #301, #300, #299 ) ;
#303 = PLANE ( 'NONE',  #302 ) ;
#304 = FACE_OUTER_BOUND ( 'NONE', #131, .T. ) ;
#305 = FACE_BOUND ( 'NONE', #127, .T. ) ;
#306 = DIRECTION ( 'NONE',  ( 0.0000000000000000000, 0.0000000000000000000, 1.000000000000000000 ) ) ;
#307 = DIRECTION ( 'NONE',  ( 0.0000000000000000000, 1.000000000000000000, 0.0000000000000000000 ) ) ;
#308 = CARTESIAN_POINT ( 'NONE',  ( -5.009326287108706300E-010, -9.999999996500434900, 0.0000000000000000000 ) ) ;
#309 = AXIS2_PLACEMENT_3D ( 'NONE', #308, #307, #306 ) ;
#310 = PRODUCT_DEFINITION_SHAPE ( 'NONE', 'NONE',  #373 ) ;
#311 = PRODUCT_RELATED_PRODUCT_CATEGORY ( 'detail', '', ( #241 ) ) ;
#312 = CC_DESIGN_SECURITY_CLASSIFICATION ( #333, ( #352 ) ) ;
#313 = CC_DESIGN_APPROVAL ( #321, ( #333 ) ) ;
#314 = APPROVAL_DATE_TIME ( #315, #321 ) ;
#315 = DATE_AND_TIME ( #316, #317 ) ;
#316 = CALENDAR_DATE ( 2009, 29, 6 ) ;
#317 = LOCAL_TIME ( 10, 54, 29.00000000000000000, #318 ) ;
#318 = COORDINATED_UNIVERSAL_TIME_OFFSET ( 9, 0, .AHEAD. ) ;
#319 = APPROVAL_PERSON_ORGANIZATION ( #323, #321, #320 ) ;
#320 = APPROVAL_ROLE ( '' ) ;
#321 = APPROVAL ( #322, 'UNSPECIFIED' ) ;
#322 = APPROVAL_STATUS ( 'not_yet_approved' ) ;
#323 = PERSON_AND_ORGANIZATION ( #240, #381 ) ;
#324 = CC_DESIGN_DATE_AND_TIME_ASSIGNMENT ( #326, #325, ( #333 ) ) ;
#325 = DATE_TIME_ROLE ( 'classification_date' ) ;
#326 = DATE_AND_TIME ( #327, #328 ) ;
#327 = CALENDAR_DATE ( 2009, 29, 6 ) ;
#328 = LOCAL_TIME ( 10, 54, 29.00000000000000000, #329 ) ;
#329 = COORDINATED_UNIVERSAL_TIME_OFFSET ( 9, 0, .AHEAD. ) ;
#330 = CC_DESIGN_PERSON_AND_ORGANIZATION_ASSIGNMENT ( #332, #331, ( #333 ) ) ;
#331 = PERSON_AND_ORGANIZATION_ROLE ( 'classification_officer' ) ;
#332 = PERSON_AND_ORGANIZATION ( #240, #381 ) ;
#333 = SECURITY_CLASSIFICATION ( '', '', #334 ) ;
#334 = SECURITY_CLASSIFICATION_LEVEL ( 'unclassified' ) ;
#335 = CC_DESIGN_PERSON_AND_ORGANIZATION_ASSIGNMENT ( #337, #336, ( #352 ) ) ;
#336 = PERSON_AND_ORGANIZATION_ROLE ( 'design_supplier' ) ;
#337 = PERSON_AND_ORGANIZATION ( #240, #381 ) ;
#338 = CC_DESIGN_PERSON_AND_ORGANIZATION_ASSIGNMENT ( #340, #339, ( #352 ) ) ;
#339 = PERSON_AND_ORGANIZATION_ROLE ( 'creator' ) ;
#340 = PERSON_AND_ORGANIZATION ( #240, #381 ) ;
#341 = CC_DESIGN_APPROVAL ( #349, ( #352 ) ) ;
#342 = APPROVAL_DATE_TIME ( #343, #349 ) ;
#343 = DATE_AND_TIME ( #344, #345 ) ;
#344 = CALENDAR_DATE ( 2009, 29, 6 ) ;
#345 = LOCAL_TIME ( 10, 54, 29.00000000000000000, #346 ) ;
#346 = COORDINATED_UNIVERSAL_TIME_OFFSET ( 9, 0, .AHEAD. ) ;
#347 = APPROVAL_PERSON_ORGANIZATION ( #351, #349, #348 ) ;
#348 = APPROVAL_ROLE ( '' ) ;
#349 = APPROVAL ( #350, 'UNSPECIFIED' ) ;
#350 = APPROVAL_STATUS ( 'not_yet_approved' ) ;
#351 = PERSON_AND_ORGANIZATION ( #240, #381 ) ;
#352 = PRODUCT_DEFINITION_FORMATION_WITH_SPECIFIED_SOURCE ( 'ANY', '', #241, .NOT_KNOWN. ) ;
#353 = CC_DESIGN_DATE_AND_TIME_ASSIGNMENT ( #355, #354, ( #373 ) ) ;
#354 = DATE_TIME_ROLE ( 'creation_date' ) ;
#355 = DATE_AND_TIME ( #356, #357 ) ;
#356 = CALENDAR_DATE ( 2009, 29, 6 ) ;
#357 = LOCAL_TIME ( 10, 54, 29.00000000000000000, #358 ) ;
#358 = COORDINATED_UNIVERSAL_TIME_OFFSET ( 9, 0, .AHEAD. ) ;
#359 = CC_DESIGN_PERSON_AND_ORGANIZATION_ASSIGNMENT ( #361, #360, ( #373 ) ) ;
#360 = PERSON_AND_ORGANIZATION_ROLE ( 'creator' ) ;
#361 = PERSON_AND_ORGANIZATION ( #240, #381 ) ;
#362 = CC_DESIGN_APPROVAL ( #370, ( #373 ) ) ;
#363 = APPROVAL_DATE_TIME ( #364, #370 ) ;
#364 = DATE_AND_TIME ( #365, #366 ) ;
#365 = CALENDAR_DATE ( 2009, 29, 6 ) ;
#366 = LOCAL_TIME ( 10, 54, 29.00000000000000000, #367 ) ;
#367 = COORDINATED_UNIVERSAL_TIME_OFFSET ( 9, 0, .AHEAD. ) ;
#368 = APPROVAL_PERSON_ORGANIZATION ( #372, #370, #369 ) ;
#369 = APPROVAL_ROLE ( '' ) ;
#370 = APPROVAL ( #371, 'UNSPECIFIED' ) ;
#371 = APPROVAL_STATUS ( 'not_yet_approved' ) ;
#372 = PERSON_AND_ORGANIZATION ( #240, #381 ) ;
#373 = PRODUCT_DEFINITION ( 'UNKNOWN', '', #352, #374 ) ;
#374 = DESIGN_CONTEXT ( 'detailed design', #376, 'design' ) ;
#375 = APPLICATION_PROTOCOL_DEFINITION ( 'international standard', 'config_control_design', 1994, #376 ) ;
#376 = APPLICATION_CONTEXT ( 'configuration controlled 3d designs of mechanical parts and assemblies' ) ;
#377 = SHAPE_DEFINITION_REPRESENTATION ( #310, #248 ) ;
#378 = CC_DESIGN_PERSON_AND_ORGANIZATION_ASSIGNMENT ( #380, #379, ( #241 ) ) ;
#379 = PERSON_AND_ORGANIZATION_ROLE ( 'design_owner' ) ;
#380 = PERSON_AND_ORGANIZATION ( #240, #381 ) ;
#381 = ORGANIZATION ( 'UNSPECIFIED', 'UNSPECIFIED', '' ) ;
ENDSEC;
END-ISO-10303-21;
