ISO-10303-21;
HEADER;
FILE_DESCRIPTION (( 'STEP AP203' ),
    '1' );
FILE_NAME ('C-30-RK-26.STEP',
    '2009-06-26T04:53:31',
    ( '11sw' ),
    ( '^LQ»¢®ïÐ' ),
    'SwSTEP 2.0',
    'SolidWorks 2007',
    '' );
FILE_SCHEMA (( 'CONFIG_CONTROL_DESIGN' ));
ENDSEC;

DATA;
#1 = AXIS2_PLACEMENT_3D ( 'NONE', #64, #63, #62 ) ;
#2 = DIRECTION ( 'NONE',  ( 0.0000000000000000000, 0.0000000000000000000, 1.000000000000000000 ) ) ;
#3 = DIRECTION ( 'NONE',  ( 0.0000000000000000000, 1.000000000000000000, 0.0000000000000000000 ) ) ;
#4 = AXIS2_PLACEMENT_3D ( 'NONE', #7, #3, #2 ) ;
#5 = CYLINDRICAL_SURFACE ( 'NONE', #4, 2.000000000000000000 ) ;
#6 = CIRCLE ( 'NONE', #1, 2.000000000000000400 ) ;
#7 = CARTESIAN_POINT ( 'NONE',  ( -5.009326287108706300E-010, 2.412507003500041800, 0.0000000000000000000 ) ) ;
#8 = FACE_OUTER_BOUND ( 'NONE', #151, .T. ) ;
#9 = CARTESIAN_POINT ( 'NONE',  ( -5.009326287108706300E-010, -0.8038838613622563100, 10.16077677297236500 ) ) ;
#10 = DIRECTION ( 'NONE',  ( 0.0000000000000000000, 0.0000000000000000000, -1.000000000000000000 ) ) ;
#11 = DIRECTION ( 'NONE',  ( 0.0000000000000000000, -1.000000000000000000, 0.0000000000000000000 ) ) ;
#12 = CARTESIAN_POINT ( 'NONE',  ( -5.009326287108706300E-010, -14.99999999650043500, 0.0000000000000000000 ) ) ;
#13 = AXIS2_PLACEMENT_3D ( 'NONE', #12, #11, #10 ) ;
#14 = CONICAL_SURFACE ( 'NONE', #13, 13.00000000000000000, 0.1973955598498806400 ) ;
#15 = FACE_OUTER_BOUND ( 'NONE', #143, .T. ) ;
#16 = DIRECTION ( 'NONE',  ( 0.0000000000000000000, 0.0000000000000000000, 1.000000000000000000 ) ) ;
#17 = DIRECTION ( 'NONE',  ( 0.0000000000000000000, 1.000000000000000000, 0.0000000000000000000 ) ) ;
#18 = AXIS2_PLACEMENT_3D ( 'NONE', #25, #17, #16 ) ;
#19 = CIRCLE ( 'NONE', #18, 2.000000000000000400 ) ;
#20 = DIRECTION ( 'NONE',  ( 0.0000000000000000000, 0.0000000000000000000, 1.000000000000000000 ) ) ;
#21 = DIRECTION ( 'NONE',  ( 0.0000000000000000000, 1.000000000000000000, 0.0000000000000000000 ) ) ;
#22 = CARTESIAN_POINT ( 'NONE',  ( -5.009326287108706300E-010, 2.412507003500041800, 0.0000000000000000000 ) ) ;
#23 = AXIS2_PLACEMENT_3D ( 'NONE', #22, #21, #20 ) ;
#24 = CYLINDRICAL_SURFACE ( 'NONE', #23, 2.000000000000000000 ) ;
#25 = CARTESIAN_POINT ( 'NONE',  ( -5.009326287108706300E-010, -14.99999999650043500, 0.0000000000000000000 ) ) ;
#26 = FACE_OUTER_BOUND ( 'NONE', #138, .T. ) ;
#27 = DIRECTION ( 'NONE',  ( 0.0000000000000000000, -0.9805806756909202200, -0.1961161351381839600 ) ) ;
#28 = VECTOR ( 'NONE', #27, 1000.000000000000000 ) ;
#29 = CARTESIAN_POINT ( 'NONE',  ( -5.009326287108706300E-010, -14.99999999650043500, -13.00000000000000000 ) ) ;
#30 = LINE ( 'NONE', #29, #28 ) ;
#31 = CARTESIAN_POINT ( 'NONE',  ( -5.009326287108706300E-010, -14.99999999650043500, -13.00000000000000000 ) ) ;
#32 = DIRECTION ( 'NONE',  ( 0.0000000000000000000, 0.0000000000000000000, 1.000000000000000000 ) ) ;
#33 = DIRECTION ( 'NONE',  ( 0.0000000000000000000, 1.000000000000000000, 0.0000000000000000000 ) ) ;
#34 = CARTESIAN_POINT ( 'NONE',  ( -5.009326287108706300E-010, -14.99999999650043500, 0.0000000000000000000 ) ) ;
#35 = AXIS2_PLACEMENT_3D ( 'NONE', #34, #33, #32 ) ;
#36 = CIRCLE ( 'NONE', #35, 13.00000000000000000 ) ;
#37 = CARTESIAN_POINT ( 'NONE',  ( -5.009310367226106600E-010, -14.99999999650043500, 13.00000000000000000 ) ) ;
#38 = DIRECTION ( 'NONE',  ( 2.401650651773080700E-017, -0.9805806756909202200, 0.1961161351381839600 ) ) ;
#39 = VECTOR ( 'NONE', #38, 1000.000000000000000 ) ;
#40 = CARTESIAN_POINT ( 'NONE',  ( -5.009310367226106600E-010, -14.99999999650043500, 13.00000000000000000 ) ) ;
#41 = LINE ( 'NONE', #40, #39 ) ;
#42 = CARTESIAN_POINT ( 'NONE',  ( -5.009313844156910000E-010, -0.8038838613622563100, -10.16077677297236500 ) ) ;
#43 = DIRECTION ( 'NONE',  ( 0.0000000000000000000, 0.0000000000000000000, 1.000000000000000000 ) ) ;
#44 = DIRECTION ( 'NONE',  ( 0.0000000000000000000, 1.000000000000000000, 0.0000000000000000000 ) ) ;
#45 = CARTESIAN_POINT ( 'NONE',  ( -5.009326287108706300E-010, -0.8038838613622563100, 0.0000000000000000000 ) ) ;
#46 = AXIS2_PLACEMENT_3D ( 'NONE', #45, #44, #43 ) ;
#47 = CIRCLE ( 'NONE', #46, 10.16077677297236500 ) ;
#48 = FACE_OUTER_BOUND ( 'NONE', #145, .T. ) ;
#49 = DIRECTION ( 'NONE',  ( 0.0000000000000000000, 0.0000000000000000000, 1.000000000000000000 ) ) ;
#50 = DIRECTION ( 'NONE',  ( 0.0000000000000000000, 1.000000000000000000, 0.0000000000000000000 ) ) ;
#51 = CARTESIAN_POINT ( 'NONE',  ( -5.009326287108706300E-010, -14.99999999650043500, 0.0000000000000000000 ) ) ;
#52 = AXIS2_PLACEMENT_3D ( 'NONE', #51, #50, #49 ) ;
#53 = CIRCLE ( 'NONE', #52, 13.00000000000000000 ) ;
#54 = FACE_BOUND ( 'NONE', #163, .T. ) ;
#55 = DIRECTION ( 'NONE',  ( 0.0000000000000000000, 0.0000000000000000000, 1.000000000000000000 ) ) ;
#56 = DIRECTION ( 'NONE',  ( 0.0000000000000000000, 1.000000000000000000, 0.0000000000000000000 ) ) ;
#57 = CARTESIAN_POINT ( 'NONE',  ( 1.999999999499067800, -14.99999999650043500, 0.0000000000000000000 ) ) ;
#58 = AXIS2_PLACEMENT_3D ( 'NONE', #57, #56, #55 ) ;
#59 = PLANE ( 'NONE',  #58 ) ;
#60 = FACE_BOUND ( 'NONE', #101, .T. ) ;
#61 = FACE_OUTER_BOUND ( 'NONE', #148, .T. ) ;
#62 = DIRECTION ( 'NONE',  ( 0.0000000000000000000, 0.0000000000000000000, 1.000000000000000000 ) ) ;
#63 = DIRECTION ( 'NONE',  ( 0.0000000000000000000, 1.000000000000000000, 0.0000000000000000000 ) ) ;
#64 = CARTESIAN_POINT ( 'NONE',  ( -5.009326287108706300E-010, -14.99999999650043500, 0.0000000000000000000 ) ) ;
#65 = CARTESIAN_POINT ( 'NONE',  ( -5.009320164076937200E-010, -9.999999996500434900, -5.000000000000000900 ) ) ;
#66 = DIRECTION ( 'NONE',  ( 0.0000000000000000000, 0.0000000000000000000, 1.000000000000000000 ) ) ;
#67 = DIRECTION ( 'NONE',  ( 0.0000000000000000000, 1.000000000000000000, 0.0000000000000000000 ) ) ;
#68 = AXIS2_PLACEMENT_3D ( 'NONE', #75, #67, #66 ) ;
#69 = CIRCLE ( 'NONE', #68, 5.000000000000000900 ) ;
#70 = DIRECTION ( 'NONE',  ( 0.0000000000000000000, 0.0000000000000000000, 1.000000000000000000 ) ) ;
#71 = DIRECTION ( 'NONE',  ( 0.0000000000000000000, 1.000000000000000000, 0.0000000000000000000 ) ) ;
#72 = CARTESIAN_POINT ( 'NONE',  ( -5.009326287108706300E-010, 2.412507003500041800, 0.0000000000000000000 ) ) ;
#73 = AXIS2_PLACEMENT_3D ( 'NONE', #72, #71, #70 ) ;
#74 = CYLINDRICAL_SURFACE ( 'NONE', #73, 5.000000000000000000 ) ;
#75 = CARTESIAN_POINT ( 'NONE',  ( -5.009326287108706300E-010, -9.999999996500434900, 0.0000000000000000000 ) ) ;
#76 = FACE_OUTER_BOUND ( 'NONE', #122, .T. ) ;
#77 = DIRECTION ( 'NONE',  ( 0.0000000000000000000, 1.000000000000000000, 0.0000000000000000000 ) ) ;
#78 = VECTOR ( 'NONE', #77, 1000.000000000000000 ) ;
#79 = CARTESIAN_POINT ( 'NONE',  ( -5.009326287108706300E-010, 2.412507003500041800, 2.000000000000000000 ) ) ;
#80 = LINE ( 'NONE', #79, #78 ) ;
#81 = CARTESIAN_POINT ( 'NONE',  ( -5.009326287108706300E-010, -9.999999996500434900, 2.000000000000000000 ) ) ;
#82 = DIRECTION ( 'NONE',  ( 0.0000000000000000000, 0.0000000000000000000, 1.000000000000000000 ) ) ;
#83 = DIRECTION ( 'NONE',  ( 0.0000000000000000000, 1.000000000000000000, 0.0000000000000000000 ) ) ;
#84 = CARTESIAN_POINT ( 'NONE',  ( -5.009326287108706300E-010, -9.999999996500434900, 0.0000000000000000000 ) ) ;
#85 = AXIS2_PLACEMENT_3D ( 'NONE', #84, #83, #82 ) ;
#86 = CIRCLE ( 'NONE', #85, 2.000000000000000000 ) ;
#87 = CARTESIAN_POINT ( 'NONE',  ( -5.009323837895998700E-010, -9.999999996500434900, -2.000000000000000000 ) ) ;
#88 = DIRECTION ( 'NONE',  ( 0.0000000000000000000, 1.000000000000000000, 0.0000000000000000000 ) ) ;
#89 = VECTOR ( 'NONE', #88, 1000.000000000000000 ) ;
#90 = CARTESIAN_POINT ( 'NONE',  ( -5.009323837895998700E-010, 2.412507003500041800, -2.000000000000000000 ) ) ;
#91 = LINE ( 'NONE', #90, #89 ) ;
#92 = CARTESIAN_POINT ( 'NONE',  ( -5.009326287108706300E-010, -14.99999999650043500, 2.000000000000000400 ) ) ;
#93 = CARTESIAN_POINT ( 'NONE',  ( -5.009323837895998700E-010, -14.99999999650043500, -2.000000000000000400 ) ) ;
#94 = DIRECTION ( 'NONE',  ( 0.0000000000000000000, 0.0000000000000000000, -1.000000000000000000 ) ) ;
#95 = DIRECTION ( 'NONE',  ( 0.0000000000000000000, -1.000000000000000000, 0.0000000000000000000 ) ) ;
#96 = AXIS2_PLACEMENT_3D ( 'NONE', #98, #95, #94 ) ;
#97 = CONICAL_SURFACE ( 'NONE', #96, 13.00000000000000000, 0.1973955598498806400 ) ;
#98 = CARTESIAN_POINT ( 'NONE',  ( -5.009326287108706300E-010, -14.99999999650043500, 0.0000000000000000000 ) ) ;
#99 = FACE_OUTER_BOUND ( 'NONE', #105, .T. ) ;
#100 = ORIENTED_EDGE ( 'NONE', *, *, #133, .F. ) ;
#101 = EDGE_LOOP ( 'NONE', ( #102, #103 ) ) ;
#102 = ORIENTED_EDGE ( 'NONE', *, *, #153, .T. ) ;
#103 = ORIENTED_EDGE ( 'NONE', *, *, #140, .T. ) ;
#104 = ADVANCED_FACE ( 'NONE', ( #99 ), #97, .T. ) ;
#105 = EDGE_LOOP ( 'NONE', ( #106, #107, #108, #109 ) ) ;
#106 = ORIENTED_EDGE ( 'NONE', *, *, #130, .F. ) ;
#107 = ORIENTED_EDGE ( 'NONE', *, *, #181, .F. ) ;
#108 = ORIENTED_EDGE ( 'NONE', *, *, #136, .T. ) ;
#109 = ORIENTED_EDGE ( 'NONE', *, *, #158, .T. ) ;
#110 = CLOSED_SHELL ( 'NONE', ( #142, #137, #121, #199, #184, #177, #167, #162, #149, #156, #104 ) ) ;
#111 = VERTEX_POINT ( 'NONE', #93 ) ;
#112 = VERTEX_POINT ( 'NONE', #92 ) ;
#113 = ORIENTED_EDGE ( 'NONE', *, *, #114, .T. ) ;
#114 = EDGE_CURVE ( 'NONE', #111, #115, #91, .T. ) ;
#115 = VERTEX_POINT ( 'NONE', #87 ) ;
#116 = ORIENTED_EDGE ( 'NONE', *, *, #117, .T. ) ;
#117 = EDGE_CURVE ( 'NONE', #115, #118, #86, .T. ) ;
#118 = VERTEX_POINT ( 'NONE', #81 ) ;
#119 = ORIENTED_EDGE ( 'NONE', *, *, #120, .F. ) ;
#120 = EDGE_CURVE ( 'NONE', #112, #118, #80, .T. ) ;
#121 = ADVANCED_FACE ( 'NONE', ( #76 ), #74, .F. ) ;
#122 = EDGE_LOOP ( 'NONE', ( #123, #239, #202, #193 ) ) ;
#123 = ORIENTED_EDGE ( 'NONE', *, *, #124, .F. ) ;
#124 = EDGE_CURVE ( 'NONE', #125, #238, #69, .T. ) ;
#125 = VERTEX_POINT ( 'NONE', #65 ) ;
#126 = ORIENTED_EDGE ( 'NONE', *, *, #127, .F. ) ;
#127 = EDGE_CURVE ( 'NONE', #144, #128, #47, .T. ) ;
#128 = VERTEX_POINT ( 'NONE', #42 ) ;
#129 = ORIENTED_EDGE ( 'NONE', *, *, #130, .T. ) ;
#130 = EDGE_CURVE ( 'NONE', #144, #131, #41, .T. ) ;
#131 = VERTEX_POINT ( 'NONE', #37 ) ;
#132 = ORIENTED_EDGE ( 'NONE', *, *, #133, .T. ) ;
#133 = EDGE_CURVE ( 'NONE', #131, #134, #36, .T. ) ;
#134 = VERTEX_POINT ( 'NONE', #31 ) ;
#135 = ORIENTED_EDGE ( 'NONE', *, *, #136, .F. ) ;
#136 = EDGE_CURVE ( 'NONE', #128, #134, #30, .T. ) ;
#137 = ADVANCED_FACE ( 'NONE', ( #26 ), #24, .F. ) ;
#138 = EDGE_LOOP ( 'NONE', ( #139, #113, #116, #119 ) ) ;
#139 = ORIENTED_EDGE ( 'NONE', *, *, #140, .F. ) ;
#140 = EDGE_CURVE ( 'NONE', #111, #112, #19, .T. ) ;
#141 = MANIFOLD_SOLID_BREP ( 'NONE', #110 ) ;
#142 = ADVANCED_FACE ( 'NONE', ( #15 ), #14, .T. ) ;
#143 = EDGE_LOOP ( 'NONE', ( #126, #129, #132, #135 ) ) ;
#144 = VERTEX_POINT ( 'NONE', #9 ) ;
#145 = EDGE_LOOP ( 'NONE', ( #154, #155 ) ) ;
#146 = ORIENTED_EDGE ( 'NONE', *, *, #120, .T. ) ;
#147 = ORIENTED_EDGE ( 'NONE', *, *, #165, .T. ) ;
#148 = EDGE_LOOP ( 'NONE', ( #157, #100 ) ) ;
#149 = ADVANCED_FACE ( 'NONE', ( #8 ), #5, .F. ) ;
#150 = ORIENTED_EDGE ( 'NONE', *, *, #114, .F. ) ;
#151 = EDGE_LOOP ( 'NONE', ( #150, #152, #146, #147 ) ) ;
#152 = ORIENTED_EDGE ( 'NONE', *, *, #153, .F. ) ;
#153 = EDGE_CURVE ( 'NONE', #112, #111, #6, .T. ) ;
#154 = ORIENTED_EDGE ( 'NONE', *, *, #170, .T. ) ;
#155 = ORIENTED_EDGE ( 'NONE', *, *, #124, .T. ) ;
#156 = ADVANCED_FACE ( 'NONE', ( #61, #60 ), #59, .F. ) ;
#157 = ORIENTED_EDGE ( 'NONE', *, *, #158, .F. ) ;
#158 = EDGE_CURVE ( 'NONE', #134, #131, #53, .T. ) ;
#159 = ORIENTED_EDGE ( 'NONE', *, *, #117, .F. ) ;
#160 = ORIENTED_EDGE ( 'NONE', *, *, #195, .T. ) ;
#161 = ORIENTED_EDGE ( 'NONE', *, *, #175, .T. ) ;
#162 = ADVANCED_FACE ( 'NONE', ( #54, #48 ), #236, .F. ) ;
#163 = EDGE_LOOP ( 'NONE', ( #164, #159 ) ) ;
#164 = ORIENTED_EDGE ( 'NONE', *, *, #165, .F. ) ;
#165 = EDGE_CURVE ( 'NONE', #118, #115, #231, .T. ) ;
#166 = ORIENTED_EDGE ( 'NONE', *, *, #203, .F. ) ;
#167 = ADVANCED_FACE ( 'NONE', ( #226 ), #225, .F. ) ;
#168 = EDGE_LOOP ( 'NONE', ( #166, #169, #160, #161 ) ) ;
#169 = ORIENTED_EDGE ( 'NONE', *, *, #170, .F. ) ;
#170 = EDGE_CURVE ( 'NONE', #238, #125, #224, .T. ) ;
#171 = ORIENTED_EDGE ( 'NONE', *, *, #179, .T. ) ;
#172 = ORIENTED_EDGE ( 'NONE', *, *, #175, .F. ) ;
#173 = ORIENTED_EDGE ( 'NONE', *, *, #188, .T. ) ;
#174 = ORIENTED_EDGE ( 'NONE', *, *, #190, .F. ) ;
#175 = EDGE_CURVE ( 'NONE', #200, #237, #215, .T. ) ;
#176 = EDGE_LOOP ( 'NONE', ( #173, #171 ) ) ;
#177 = ADVANCED_FACE ( 'NONE', ( #210, #209 ), #208, .F. ) ;
#178 = EDGE_LOOP ( 'NONE', ( #172, #174 ) ) ;
#179 = EDGE_CURVE ( 'NONE', #191, #189, #273, .T. ) ;
#180 = ORIENTED_EDGE ( 'NONE', *, *, #179, .F. ) ;
#181 = EDGE_CURVE ( 'NONE', #128, #144, #325, .T. ) ;
#182 = ORIENTED_EDGE ( 'NONE', *, *, #186, .T. ) ;
#183 = ORIENTED_EDGE ( 'NONE', *, *, #181, .T. ) ;
#184 = ADVANCED_FACE ( 'NONE', ( #279 ), #278, .T. ) ;
#185 = ORIENTED_EDGE ( 'NONE', *, *, #196, .F. ) ;
#186 = EDGE_CURVE ( 'NONE', #144, #189, #313, .T. ) ;
#187 = EDGE_LOOP ( 'NONE', ( #185, #183, #182, #180 ) ) ;
#188 = EDGE_CURVE ( 'NONE', #189, #191, #329, .T. ) ;
#189 = VERTEX_POINT ( 'NONE', #340 ) ;
#190 = EDGE_CURVE ( 'NONE', #237, #200, #318, .T. ) ;
#191 = VERTEX_POINT ( 'NONE', #314 ) ;
#192 = ORIENTED_EDGE ( 'NONE', *, *, #127, .T. ) ;
#193 = ORIENTED_EDGE ( 'NONE', *, *, #195, .F. ) ;
#194 = ORIENTED_EDGE ( 'NONE', *, *, #196, .T. ) ;
#195 = EDGE_CURVE ( 'NONE', #238, #200, #244, .T. ) ;
#196 = EDGE_CURVE ( 'NONE', #128, #191, #337, .T. ) ;
#197 = EDGE_LOOP ( 'NONE', ( #192, #194, #198, #201 ) ) ;
#198 = ORIENTED_EDGE ( 'NONE', *, *, #188, .F. ) ;
#199 = ADVANCED_FACE ( 'NONE', ( #338 ), #348, .T. ) ;
#200 = VERTEX_POINT ( 'NONE', #344 ) ;
#201 = ORIENTED_EDGE ( 'NONE', *, *, #186, .F. ) ;
#202 = ORIENTED_EDGE ( 'NONE', *, *, #190, .T. ) ;
#203 = EDGE_CURVE ( 'NONE', #125, #237, #343, .T. ) ;
#204 = DIRECTION ( 'NONE',  ( 0.0000000000000000000, 0.0000000000000000000, -1.000000000000000000 ) ) ;
#205 = DIRECTION ( 'NONE',  ( 0.0000000000000000000, -1.000000000000000000, 0.0000000000000000000 ) ) ;
#206 = CARTESIAN_POINT ( 'NONE',  ( 9.180196096780505900, 3.499565591525951900E-009, 0.0000000000000000000 ) ) ;
#207 = AXIS2_PLACEMENT_3D ( 'NONE', #206, #205, #204 ) ;
#208 = PLANE ( 'NONE',  #207 ) ;
#209 = FACE_OUTER_BOUND ( 'NONE', #176, .T. ) ;
#210 = FACE_BOUND ( 'NONE', #178, .T. ) ;
#211 = DIRECTION ( 'NONE',  ( 0.0000000000000000000, 0.0000000000000000000, 1.000000000000000000 ) ) ;
#212 = DIRECTION ( 'NONE',  ( 0.0000000000000000000, 1.000000000000000000, 0.0000000000000000000 ) ) ;
#213 = CARTESIAN_POINT ( 'NONE',  ( -5.009326287108706300E-010, 3.499565654624392500E-009, 0.0000000000000000000 ) ) ;
#214 = AXIS2_PLACEMENT_3D ( 'NONE', #213, #212, #211 ) ;
#215 = CIRCLE ( 'NONE', #214, 4.999999999999999100 ) ;
#216 = DIRECTION ( 'NONE',  ( 0.0000000000000000000, 0.0000000000000000000, 1.000000000000000000 ) ) ;
#217 = DIRECTION ( 'NONE',  ( 0.0000000000000000000, 1.000000000000000000, 0.0000000000000000000 ) ) ;
#218 = CARTESIAN_POINT ( 'NONE',  ( -5.009326287108706300E-010, -9.999999996500434900, 0.0000000000000000000 ) ) ;
#219 = AXIS2_PLACEMENT_3D ( 'NONE', #218, #217, #216 ) ;
#220 = DIRECTION ( 'NONE',  ( 0.0000000000000000000, 0.0000000000000000000, 1.000000000000000000 ) ) ;
#221 = DIRECTION ( 'NONE',  ( 0.0000000000000000000, 1.000000000000000000, 0.0000000000000000000 ) ) ;
#222 = CARTESIAN_POINT ( 'NONE',  ( -5.009326287108706300E-010, 2.412507003500041800, 0.0000000000000000000 ) ) ;
#223 = AXIS2_PLACEMENT_3D ( 'NONE', #222, #221, #220 ) ;
#224 = CIRCLE ( 'NONE', #219, 5.000000000000000900 ) ;
#225 = CYLINDRICAL_SURFACE ( 'NONE', #223, 5.000000000000000000 ) ;
#226 = FACE_OUTER_BOUND ( 'NONE', #168, .T. ) ;
#227 = DIRECTION ( 'NONE',  ( 0.0000000000000000000, 0.0000000000000000000, 1.000000000000000000 ) ) ;
#228 = DIRECTION ( 'NONE',  ( 0.0000000000000000000, 1.000000000000000000, 0.0000000000000000000 ) ) ;
#229 = CARTESIAN_POINT ( 'NONE',  ( -5.009326287108706300E-010, -9.999999996500434900, 0.0000000000000000000 ) ) ;
#230 = AXIS2_PLACEMENT_3D ( 'NONE', #229, #228, #227 ) ;
#231 = CIRCLE ( 'NONE', #230, 2.000000000000000000 ) ;
#232 = DIRECTION ( 'NONE',  ( 0.0000000000000000000, 0.0000000000000000000, -1.000000000000000000 ) ) ;
#233 = DIRECTION ( 'NONE',  ( 0.0000000000000000000, -1.000000000000000000, 0.0000000000000000000 ) ) ;
#234 = CARTESIAN_POINT ( 'NONE',  ( 4.999999999499068300, -9.999999996500434900, 0.0000000000000000000 ) ) ;
#235 = AXIS2_PLACEMENT_3D ( 'NONE', #234, #233, #232 ) ;
#236 = PLANE ( 'NONE',  #235 ) ;
#237 = VERTEX_POINT ( 'NONE', #321 ) ;
#238 = VERTEX_POINT ( 'NONE', #320 ) ;
#239 = ORIENTED_EDGE ( 'NONE', *, *, #203, .T. ) ;
#240 = AXIS2_PLACEMENT_3D ( 'NONE', #381, #380, #379 ) ;
#241 = DIRECTION ( 'NONE',  ( 0.0000000000000000000, 1.000000000000000000, 0.0000000000000000000 ) ) ;
#242 = VECTOR ( 'NONE', #241, 1000.000000000000000 ) ;
#243 = CARTESIAN_POINT ( 'NONE',  ( -5.009326287108706300E-010, 2.412507003500041800, 5.000000000000000000 ) ) ;
#244 = LINE ( 'NONE', #243, #242 ) ;
#245 = AXIS2_PLACEMENT_3D ( 'NONE', #282, #281, #280 ) ;
#246 = CARTESIAN_POINT ( 'NONE',  ( 0.0000000000000000000, 0.0000000000000000000, 0.0000000000000000000 ) ) ;
#247 = SHAPE_DEFINITION_REPRESENTATION ( #349, #248 ) ;
#248 = ADVANCED_BREP_SHAPE_REPRESENTATION ( 'C-30-RK-26', ( #141, #312 ), #249 ) ;
#249 =( GEOMETRIC_REPRESENTATION_CONTEXT ( 3 ) GLOBAL_UNCERTAINTY_ASSIGNED_CONTEXT ( ( #250 ) ) GLOBAL_UNIT_ASSIGNED_CONTEXT ( ( #253, #252, #251 ) ) REPRESENTATION_CONTEXT ( 'NONE', 'WORKASPACE' ) );
#250 = UNCERTAINTY_MEASURE_WITH_UNIT (LENGTH_MEASURE( 1.000000000000000100E-005 ), #253, 'distance_accuracy_value', 'NONE');
#251 =( NAMED_UNIT ( * ) SI_UNIT ( $, .STERADIAN. ) SOLID_ANGLE_UNIT ( ) );
#252 =( NAMED_UNIT ( * ) PLANE_ANGLE_UNIT ( ) SI_UNIT ( $, .RADIAN. ) );
#253 =( LENGTH_UNIT ( ) NAMED_UNIT ( * ) SI_UNIT ( .MILLI., .METRE. ) );
#254 = COORDINATED_UNIVERSAL_TIME_OFFSET ( 9, 0, .AHEAD. ) ;
#255 = APPROVAL_PERSON_ORGANIZATION ( #259, #257, #256 ) ;
#256 = APPROVAL_ROLE ( '' ) ;
#257 = APPROVAL ( #258, 'UNSPECIFIED' ) ;
#258 = APPROVAL_STATUS ( 'not_yet_approved' ) ;
#259 = PERSON_AND_ORGANIZATION ( #268, #267 ) ;
#260 = PRODUCT_DEFINITION ( 'UNKNOWN', '', #296, #261 ) ;
#261 = DESIGN_CONTEXT ( 'detailed design', #263, 'design' ) ;
#262 = APPLICATION_PROTOCOL_DEFINITION ( 'international standard', 'config_control_design', 1994, #263 ) ;
#263 = APPLICATION_CONTEXT ( 'configuration controlled 3d designs of mechanical parts and assemblies' ) ;
#264 = CC_DESIGN_PERSON_AND_ORGANIZATION_ASSIGNMENT ( #266, #265, ( #269 ) ) ;
#265 = PERSON_AND_ORGANIZATION_ROLE ( 'design_owner' ) ;
#266 = PERSON_AND_ORGANIZATION ( #268, #267 ) ;
#267 = ORGANIZATION ( 'UNSPECIFIED', 'UNSPECIFIED', '' ) ;
#268 = PERSON ( 'UNSPECIFIED', 'UNSPECIFIED', 'UNSPECIFIED', ('UNSPECIFIED'), ('UNSPECIFIED'), ('UNSPECIFIED') ) ;
#269 = PRODUCT ( 'C-30-RK-26', 'C-30-RK-26', '', ( #270 ) ) ;
#270 = MECHANICAL_CONTEXT ( 'NONE', #272, 'mechanical' ) ;
#271 = APPLICATION_PROTOCOL_DEFINITION ( 'international standard', 'config_control_design', 1994, #272 ) ;
#272 = APPLICATION_CONTEXT ( 'configuration controlled 3d designs of mechanical parts and assemblies' ) ;
#273 = CIRCLE ( 'NONE', #336, 9.180196097281438500 ) ;
#274 = DIRECTION ( 'NONE',  ( 0.0000000000000000000, 0.0000000000000000000, 1.000000000000000000 ) ) ;
#275 = DIRECTION ( 'NONE',  ( 0.0000000000000000000, 1.000000000000000000, 0.0000000000000000000 ) ) ;
#276 = CARTESIAN_POINT ( 'NONE',  ( -5.009326287108706300E-010, -0.9999999965004343600, 0.0000000000000000000 ) ) ;
#277 = AXIS2_PLACEMENT_3D ( 'NONE', #276, #275, #274 ) ;
#278 = TOROIDAL_SURFACE ( 'NONE', #277, 9.180196097281443800, 1.000000000000000000 ) ;
#279 = FACE_OUTER_BOUND ( 'NONE', #187, .T. ) ;
#280 = DIRECTION ( 'NONE',  ( 0.0000000000000000000, 0.0000000000000000000, 1.000000000000000000 ) ) ;
#281 = DIRECTION ( 'NONE',  ( 0.0000000000000000000, 1.000000000000000000, 0.0000000000000000000 ) ) ;
#282 = CARTESIAN_POINT ( 'NONE',  ( -5.009326287108706300E-010, -0.8038838613622563100, 0.0000000000000000000 ) ) ;
#283 = PERSON_AND_ORGANIZATION_ROLE ( 'creator' ) ;
#284 = PERSON_AND_ORGANIZATION ( #268, #267 ) ;
#285 = CC_DESIGN_APPROVAL ( #293, ( #296 ) ) ;
#286 = APPROVAL_DATE_TIME ( #287, #293 ) ;
#287 = DATE_AND_TIME ( #288, #289 ) ;
#288 = CALENDAR_DATE ( 2009, 26, 6 ) ;
#289 = LOCAL_TIME ( 13, 53, 31.00000000000000000, #290 ) ;
#290 = COORDINATED_UNIVERSAL_TIME_OFFSET ( 9, 0, .AHEAD. ) ;
#291 = APPROVAL_PERSON_ORGANIZATION ( #295, #293, #292 ) ;
#292 = APPROVAL_ROLE ( '' ) ;
#293 = APPROVAL ( #294, 'UNSPECIFIED' ) ;
#294 = APPROVAL_STATUS ( 'not_yet_approved' ) ;
#295 = PERSON_AND_ORGANIZATION ( #268, #267 ) ;
#296 = PRODUCT_DEFINITION_FORMATION_WITH_SPECIFIED_SOURCE ( 'ANY', '', #269, .NOT_KNOWN. ) ;
#297 = CC_DESIGN_DATE_AND_TIME_ASSIGNMENT ( #299, #298, ( #260 ) ) ;
#298 = DATE_TIME_ROLE ( 'creation_date' ) ;
#299 = DATE_AND_TIME ( #300, #301 ) ;
#300 = CALENDAR_DATE ( 2009, 26, 6 ) ;
#301 = LOCAL_TIME ( 13, 53, 31.00000000000000000, #302 ) ;
#302 = COORDINATED_UNIVERSAL_TIME_OFFSET ( 9, 0, .AHEAD. ) ;
#303 = CC_DESIGN_PERSON_AND_ORGANIZATION_ASSIGNMENT ( #305, #304, ( #260 ) ) ;
#304 = PERSON_AND_ORGANIZATION_ROLE ( 'creator' ) ;
#305 = PERSON_AND_ORGANIZATION ( #268, #267 ) ;
#306 = CC_DESIGN_APPROVAL ( #257, ( #260 ) ) ;
#307 = APPROVAL_DATE_TIME ( #308, #257 ) ;
#308 = DATE_AND_TIME ( #309, #310 ) ;
#309 = CALENDAR_DATE ( 2009, 26, 6 ) ;
#310 = LOCAL_TIME ( 13, 53, 31.00000000000000000, #254 ) ;
#311 = DIRECTION ( 'NONE',  ( 1.000000000000000000, 0.0000000000000000000, 0.0000000000000000000 ) ) ;
#312 = AXIS2_PLACEMENT_3D ( 'NONE', #246, #319, #311 ) ;
#313 = CIRCLE ( 'NONE', #333, 0.9999999999999991100 ) ;
#314 = CARTESIAN_POINT ( 'NONE',  ( -5.009314444569573500E-010, 3.499565654624392500E-009, -9.180196097281438500 ) ) ;
#315 = DIRECTION ( 'NONE',  ( 0.0000000000000000000, 0.0000000000000000000, 1.000000000000000000 ) ) ;
#316 = DIRECTION ( 'NONE',  ( 0.0000000000000000000, 1.000000000000000000, 0.0000000000000000000 ) ) ;
#317 = AXIS2_PLACEMENT_3D ( 'NONE', #339, #316, #315 ) ;
#318 = CIRCLE ( 'NONE', #317, 4.999999999999999100 ) ;
#319 = DIRECTION ( 'NONE',  ( 0.0000000000000000000, 0.0000000000000000000, 1.000000000000000000 ) ) ;
#320 = CARTESIAN_POINT ( 'NONE',  ( -5.009326287108706300E-010, -9.999999996500434900, 5.000000000000000900 ) ) ;
#321 = CARTESIAN_POINT ( 'NONE',  ( -5.009320164076937200E-010, 3.499565654624392500E-009, -4.999999999999999100 ) ) ;
#322 = DIRECTION ( 'NONE',  ( 0.0000000000000000000, 1.000000000000000000, 0.0000000000000000000 ) ) ;
#323 = VECTOR ( 'NONE', #322, 1000.000000000000000 ) ;
#324 = CARTESIAN_POINT ( 'NONE',  ( -5.009320164076937200E-010, 2.412507003500041800, -5.000000000000000000 ) ) ;
#325 = CIRCLE ( 'NONE', #245, 10.16077677297236500 ) ;
#326 = DIRECTION ( 'NONE',  ( 0.0000000000000000000, 0.0000000000000000000, 1.000000000000000000 ) ) ;
#327 = CARTESIAN_POINT ( 'NONE',  ( -5.009326287108706300E-010, 3.499565654624392500E-009, 0.0000000000000000000 ) ) ;
#328 = AXIS2_PLACEMENT_3D ( 'NONE', #327, #342, #341 ) ;
#329 = CIRCLE ( 'NONE', #328, 9.180196097281438500 ) ;
#330 = DIRECTION ( 'NONE',  ( 0.0000000000000000000, 0.0000000000000000000, 1.000000000000000000 ) ) ;
#331 = DIRECTION ( 'NONE',  ( -1.000000000000000000, 0.0000000000000000000, 0.0000000000000000000 ) ) ;
#332 = CARTESIAN_POINT ( 'NONE',  ( -5.009326287108706300E-010, -0.9999999965004343600, 9.180196097281443800 ) ) ;
#333 = AXIS2_PLACEMENT_3D ( 'NONE', #332, #331, #330 ) ;
#334 = DIRECTION ( 'NONE',  ( 0.0000000000000000000, 1.000000000000000000, 0.0000000000000000000 ) ) ;
#335 = CARTESIAN_POINT ( 'NONE',  ( -5.009326287108706300E-010, 3.499565654624392500E-009, 0.0000000000000000000 ) ) ;
#336 = AXIS2_PLACEMENT_3D ( 'NONE', #335, #334, #326 ) ;
#337 = CIRCLE ( 'NONE', #240, 0.9999999999999991100 ) ;
#338 = FACE_OUTER_BOUND ( 'NONE', #197, .T. ) ;
#339 = CARTESIAN_POINT ( 'NONE',  ( -5.009326287108706300E-010, 3.499565654624392500E-009, 0.0000000000000000000 ) ) ;
#340 = CARTESIAN_POINT ( 'NONE',  ( -5.009326287108706300E-010, 3.499565654624392500E-009, 9.180196097281438500 ) ) ;
#341 = DIRECTION ( 'NONE',  ( 0.0000000000000000000, 0.0000000000000000000, 1.000000000000000000 ) ) ;
#342 = DIRECTION ( 'NONE',  ( 0.0000000000000000000, 1.000000000000000000, 0.0000000000000000000 ) ) ;
#343 = LINE ( 'NONE', #324, #323 ) ;
#344 = CARTESIAN_POINT ( 'NONE',  ( -5.009326287108706300E-010, 3.499565654624392500E-009, 4.999999999999999100 ) ) ;
#345 = DIRECTION ( 'NONE',  ( 0.0000000000000000000, 0.0000000000000000000, 1.000000000000000000 ) ) ;
#346 = DIRECTION ( 'NONE',  ( 0.0000000000000000000, 1.000000000000000000, 0.0000000000000000000 ) ) ;
#347 = AXIS2_PLACEMENT_3D ( 'NONE', #378, #346, #345 ) ;
#348 = TOROIDAL_SURFACE ( 'NONE', #347, 9.180196097281443800, 1.000000000000000000 ) ;
#349 = PRODUCT_DEFINITION_SHAPE ( 'NONE', 'NONE',  #260 ) ;
#350 = PRODUCT_RELATED_PRODUCT_CATEGORY ( 'detail', '', ( #269 ) ) ;
#351 = CC_DESIGN_SECURITY_CLASSIFICATION ( #372, ( #296 ) ) ;
#352 = CC_DESIGN_APPROVAL ( #360, ( #372 ) ) ;
#353 = APPROVAL_DATE_TIME ( #354, #360 ) ;
#354 = DATE_AND_TIME ( #355, #356 ) ;
#355 = CALENDAR_DATE ( 2009, 26, 6 ) ;
#356 = LOCAL_TIME ( 13, 53, 31.00000000000000000, #357 ) ;
#357 = COORDINATED_UNIVERSAL_TIME_OFFSET ( 9, 0, .AHEAD. ) ;
#358 = APPROVAL_PERSON_ORGANIZATION ( #362, #360, #359 ) ;
#359 = APPROVAL_ROLE ( '' ) ;
#360 = APPROVAL ( #361, 'UNSPECIFIED' ) ;
#361 = APPROVAL_STATUS ( 'not_yet_approved' ) ;
#362 = PERSON_AND_ORGANIZATION ( #268, #267 ) ;
#363 = CC_DESIGN_DATE_AND_TIME_ASSIGNMENT ( #365, #364, ( #372 ) ) ;
#364 = DATE_TIME_ROLE ( 'classification_date' ) ;
#365 = DATE_AND_TIME ( #366, #367 ) ;
#366 = CALENDAR_DATE ( 2009, 26, 6 ) ;
#367 = LOCAL_TIME ( 13, 53, 31.00000000000000000, #368 ) ;
#368 = COORDINATED_UNIVERSAL_TIME_OFFSET ( 9, 0, .AHEAD. ) ;
#369 = CC_DESIGN_PERSON_AND_ORGANIZATION_ASSIGNMENT ( #371, #370, ( #372 ) ) ;
#370 = PERSON_AND_ORGANIZATION_ROLE ( 'classification_officer' ) ;
#371 = PERSON_AND_ORGANIZATION ( #268, #267 ) ;
#372 = SECURITY_CLASSIFICATION ( '', '', #373 ) ;
#373 = SECURITY_CLASSIFICATION_LEVEL ( 'unclassified' ) ;
#374 = CC_DESIGN_PERSON_AND_ORGANIZATION_ASSIGNMENT ( #376, #375, ( #296 ) ) ;
#375 = PERSON_AND_ORGANIZATION_ROLE ( 'design_supplier' ) ;
#376 = PERSON_AND_ORGANIZATION ( #268, #267 ) ;
#377 = CC_DESIGN_PERSON_AND_ORGANIZATION_ASSIGNMENT ( #284, #283, ( #296 ) ) ;
#378 = CARTESIAN_POINT ( 'NONE',  ( -5.009326287108706300E-010, -0.9999999965004343600, 0.0000000000000000000 ) ) ;
#379 = DIRECTION ( 'NONE',  ( 1.224606353612351900E-016, 0.0000000000000000000, -1.000000000000000000 ) ) ;
#380 = DIRECTION ( 'NONE',  ( 1.000000000000000000, 0.0000000000000000000, 1.224606353822377300E-016 ) ) ;
#381 = CARTESIAN_POINT ( 'NONE',  ( -5.009315044982236900E-010, -0.9999999965004343600, -9.180196097281443800 ) ) ;
ENDSEC;
END-ISO-10303-21;
