ISO-10303-21;
HEADER;
FILE_DESCRIPTION (( 'STEP AP203' ),
    '1' );
FILE_NAME ('C-30-RK-24.STEP',
    '2009-06-29T00:35:54',
    ( '11sw' ),
    ( '^LQ»¢®ïÐ' ),
    'SwSTEP 2.0',
    'SolidWorks 2007',
    '' );
FILE_SCHEMA (( 'CONFIG_CONTROL_DESIGN' ));
ENDSEC;

DATA;
#1 = ORIENTED_EDGE ( 'NONE', *, *, #2, .T. ) ;
#2 = EDGE_CURVE ( 'NONE', #6, #89, #286, .T. ) ;
#3 = VERTEX_POINT ( 'NONE', #288 ) ;
#4 = EDGE_CURVE ( 'NONE', #6, #3, #282, .T. ) ;
#5 = ORIENTED_EDGE ( 'NONE', *, *, #4, .F. ) ;
#6 = VERTEX_POINT ( 'NONE', #277 ) ;
#7 = EDGE_LOOP ( 'NONE', ( #5, #1, #137, #304 ) ) ;
#8 = ADVANCED_FACE ( 'NONE', ( #276 ), #275, .T. ) ;
#9 = ORIENTED_EDGE ( 'NONE', *, *, #16, .T. ) ;
#10 = MANIFOLD_SOLID_BREP ( 'NONE', #95 ) ;
#11 = EDGE_LOOP ( 'NONE', ( #97, #98 ) ) ;
#12 = ORIENTED_EDGE ( 'NONE', *, *, #16, .F. ) ;
#13 = ORIENTED_EDGE ( 'NONE', *, *, #81, .T. ) ;
#14 = ADVANCED_FACE ( 'NONE', ( #136, #135 ), #130, .F. ) ;
#15 = EDGE_CURVE ( 'NONE', #78, #77, #124, .T. ) ;
#16 = EDGE_CURVE ( 'NONE', #84, #79, #120, .T. ) ;
#17 = ORIENTED_EDGE ( 'NONE', *, *, #80, .F. ) ;
#18 = EDGE_LOOP ( 'NONE', ( #19, #20 ) ) ;
#19 = ORIENTED_EDGE ( 'NONE', *, *, #31, .T. ) ;
#20 = ORIENTED_EDGE ( 'NONE', *, *, #65, .T. ) ;
#21 = ORIENTED_EDGE ( 'NONE', *, *, #15, .F. ) ;
#22 = EDGE_LOOP ( 'NONE', ( #23, #21, #13, #9 ) ) ;
#23 = ORIENTED_EDGE ( 'NONE', *, *, #76, .F. ) ;
#24 = ADVANCED_FACE ( 'NONE', ( #115 ), #114, .F. ) ;
#25 = ORIENTED_EDGE ( 'NONE', *, *, #4, .T. ) ;
#26 = ORIENTED_EDGE ( 'NONE', *, *, #27, .T. ) ;
#27 = EDGE_CURVE ( 'NONE', #3, #28, #108, .T. ) ;
#28 = VERTEX_POINT ( 'NONE', #104 ) ;
#29 = ORIENTED_EDGE ( 'NONE', *, *, #49, .F. ) ;
#30 = ORIENTED_EDGE ( 'NONE', *, *, #31, .F. ) ;
#31 = EDGE_CURVE ( 'NONE', #73, #66, #177, .T. ) ;
#32 = ORIENTED_EDGE ( 'NONE', *, *, #64, .T. ) ;
#33 = ORIENTED_EDGE ( 'NONE', *, *, #41, .T. ) ;
#34 = ADVANCED_FACE ( 'NONE', ( #178 ), #170, .F. ) ;
#35 = EDGE_LOOP ( 'NONE', ( #36, #30, #32, #33 ) ) ;
#36 = ORIENTED_EDGE ( 'NONE', *, *, #59, .F. ) ;
#37 = EDGE_LOOP ( 'NONE', ( #38, #39, #43, #44 ) ) ;
#38 = ORIENTED_EDGE ( 'NONE', *, *, #27, .F. ) ;
#39 = ORIENTED_EDGE ( 'NONE', *, *, #40, .T. ) ;
#40 = EDGE_CURVE ( 'NONE', #3, #6, #166, .T. ) ;
#41 = EDGE_CURVE ( 'NONE', #61, #60, #162, .T. ) ;
#42 = ORIENTED_EDGE ( 'NONE', *, *, #62, .F. ) ;
#43 = ORIENTED_EDGE ( 'NONE', *, *, #52, .T. ) ;
#44 = ORIENTED_EDGE ( 'NONE', *, *, #45, .F. ) ;
#45 = EDGE_CURVE ( 'NONE', #28, #50, #157, .T. ) ;
#46 = ADVANCED_FACE ( 'NONE', ( #152, #151 ), #150, .F. ) ;
#47 = EDGE_LOOP ( 'NONE', ( #48, #42 ) ) ;
#48 = ORIENTED_EDGE ( 'NONE', *, *, #41, .F. ) ;
#49 = EDGE_CURVE ( 'NONE', #50, #28, #208, .T. ) ;
#50 = VERTEX_POINT ( 'NONE', #203 ) ;
#51 = ORIENTED_EDGE ( 'NONE', *, *, #52, .F. ) ;
#52 = EDGE_CURVE ( 'NONE', #6, #50, #201, .T. ) ;
#53 = ADVANCED_FACE ( 'NONE', ( #202 ), #195, .T. ) ;
#54 = EDGE_LOOP ( 'NONE', ( #12, #17 ) ) ;
#55 = EDGE_LOOP ( 'NONE', ( #56, #57 ) ) ;
#56 = ORIENTED_EDGE ( 'NONE', *, *, #49, .T. ) ;
#57 = ORIENTED_EDGE ( 'NONE', *, *, #45, .T. ) ;
#58 = ADVANCED_FACE ( 'NONE', ( #191, #190 ), #189, .F. ) ;
#59 = EDGE_CURVE ( 'NONE', #66, #60, #184, .T. ) ;
#60 = VERTEX_POINT ( 'NONE', #180 ) ;
#61 = VERTEX_POINT ( 'NONE', #179 ) ;
#62 = EDGE_CURVE ( 'NONE', #60, #61, #243, .T. ) ;
#63 = ORIENTED_EDGE ( 'NONE', *, *, #62, .T. ) ;
#64 = EDGE_CURVE ( 'NONE', #73, #61, #238, .T. ) ;
#65 = EDGE_CURVE ( 'NONE', #66, #73, #234, .T. ) ;
#66 = VERTEX_POINT ( 'NONE', #229 ) ;
#67 = ADVANCED_FACE ( 'NONE', ( #228 ), #227, .T. ) ;
#68 = EDGE_LOOP ( 'NONE', ( #69, #74, #63, #71 ) ) ;
#69 = ORIENTED_EDGE ( 'NONE', *, *, #65, .F. ) ;
#70 = ADVANCED_FACE ( 'NONE', ( #222 ), #221, .F. ) ;
#71 = ORIENTED_EDGE ( 'NONE', *, *, #64, .F. ) ;
#72 = EDGE_LOOP ( 'NONE', ( #25, #26, #29, #51 ) ) ;
#73 = VERTEX_POINT ( 'NONE', #216 ) ;
#74 = ORIENTED_EDGE ( 'NONE', *, *, #59, .T. ) ;
#75 = ORIENTED_EDGE ( 'NONE', *, *, #76, .T. ) ;
#76 = EDGE_CURVE ( 'NONE', #77, #79, #215, .T. ) ;
#77 = VERTEX_POINT ( 'NONE', #211 ) ;
#78 = VERTEX_POINT ( 'NONE', #210 ) ;
#79 = VERTEX_POINT ( 'NONE', #209 ) ;
#80 = EDGE_CURVE ( 'NONE', #79, #84, #274, .T. ) ;
#81 = EDGE_CURVE ( 'NONE', #78, #84, #269, .T. ) ;
#82 = ORIENTED_EDGE ( 'NONE', *, *, #81, .F. ) ;
#83 = ORIENTED_EDGE ( 'NONE', *, *, #80, .T. ) ;
#84 = VERTEX_POINT ( 'NONE', #265 ) ;
#85 = EDGE_CURVE ( 'NONE', #77, #78, #264, .T. ) ;
#86 = EDGE_LOOP ( 'NONE', ( #87, #75, #83, #82 ) ) ;
#87 = ORIENTED_EDGE ( 'NONE', *, *, #85, .F. ) ;
#88 = EDGE_LOOP ( 'NONE', ( #101, #96 ) ) ;
#89 = VERTEX_POINT ( 'NONE', #259 ) ;
#90 = VERTEX_POINT ( 'NONE', #258 ) ;
#91 = ORIENTED_EDGE ( 'NONE', *, *, #102, .T. ) ;
#92 = ORIENTED_EDGE ( 'NONE', *, *, #40, .F. ) ;
#93 = ORIENTED_EDGE ( 'NONE', *, *, #2, .F. ) ;
#94 = ORIENTED_EDGE ( 'NONE', *, *, #283, .T. ) ;
#95 = CLOSED_SHELL ( 'NONE', ( #8, #103, #70, #67, #53, #46, #34, #58, #24, #14, #99 ) ) ;
#96 = ORIENTED_EDGE ( 'NONE', *, *, #85, .T. ) ;
#97 = ORIENTED_EDGE ( 'NONE', *, *, #102, .F. ) ;
#98 = ORIENTED_EDGE ( 'NONE', *, *, #284, .F. ) ;
#99 = ADVANCED_FACE ( 'NONE', ( #257 ), #254, .T. ) ;
#100 = EDGE_LOOP ( 'NONE', ( #93, #92, #94, #91 ) ) ;
#101 = ORIENTED_EDGE ( 'NONE', *, *, #15, .T. ) ;
#102 = EDGE_CURVE ( 'NONE', #90, #89, #255, .T. ) ;
#103 = ADVANCED_FACE ( 'NONE', ( #246 ), #244, .F. ) ;
#104 = CARTESIAN_POINT ( 'NONE',  ( -5.009315015470758100E-010, 3.499565220943523500E-009, -8.719223593595584600 ) ) ;
#105 = DIRECTION ( 'NONE',  ( 1.224606353612351900E-016, 0.0000000000000000000, -1.000000000000000000 ) ) ;
#106 = DIRECTION ( 'NONE',  ( 1.000000000000000000, 0.0000000000000000000, 1.224606353822377300E-016 ) ) ;
#107 = AXIS2_PLACEMENT_3D ( 'NONE', #113, #106, #105 ) ;
#108 = CIRCLE ( 'NONE', #107, 0.9999999999999991100 ) ;
#109 = DIRECTION ( 'NONE',  ( 0.0000000000000000000, 0.0000000000000000000, 1.000000000000000000 ) ) ;
#110 = DIRECTION ( 'NONE',  ( 0.0000000000000000000, 1.000000000000000000, 0.0000000000000000000 ) ) ;
#111 = CARTESIAN_POINT ( 'NONE',  ( -5.009326287108706300E-010, 2.412507003500041800, 0.0000000000000000000 ) ) ;
#112 = AXIS2_PLACEMENT_3D ( 'NONE', #111, #110, #109 ) ;
#113 = CARTESIAN_POINT ( 'NONE',  ( -5.009315609492092600E-010, -0.9999999965004348100, -8.719223593595584600 ) ) ;
#114 = CYLINDRICAL_SURFACE ( 'NONE', #112, 2.000000000000000000 ) ;
#115 = FACE_OUTER_BOUND ( 'NONE', #22, .T. ) ;
#116 = DIRECTION ( 'NONE',  ( 0.0000000000000000000, 0.0000000000000000000, 1.000000000000000000 ) ) ;
#117 = DIRECTION ( 'NONE',  ( 0.0000000000000000000, 1.000000000000000000, 0.0000000000000000000 ) ) ;
#118 = CARTESIAN_POINT ( 'NONE',  ( -5.009326287108706300E-010, -4.999999996500434000, 0.0000000000000000000 ) ) ;
#119 = AXIS2_PLACEMENT_3D ( 'NONE', #118, #117, #116 ) ;
#120 = CIRCLE ( 'NONE', #119, 1.999999999999999600 ) ;
#121 = DIRECTION ( 'NONE',  ( 0.0000000000000000000, 0.0000000000000000000, 1.000000000000000000 ) ) ;
#122 = DIRECTION ( 'NONE',  ( 0.0000000000000000000, 1.000000000000000000, 0.0000000000000000000 ) ) ;
#123 = AXIS2_PLACEMENT_3D ( 'NONE', #129, #122, #121 ) ;
#124 = CIRCLE ( 'NONE', #123, 2.000000000000000400 ) ;
#125 = DIRECTION ( 'NONE',  ( 0.0000000000000000000, 0.0000000000000000000, 1.000000000000000000 ) ) ;
#126 = DIRECTION ( 'NONE',  ( 0.0000000000000000000, 1.000000000000000000, 0.0000000000000000000 ) ) ;
#127 = CARTESIAN_POINT ( 'NONE',  ( 1.999999999499067800, -9.999999996500434900, 0.0000000000000000000 ) ) ;
#128 = AXIS2_PLACEMENT_3D ( 'NONE', #127, #126, #125 ) ;
#129 = CARTESIAN_POINT ( 'NONE',  ( -5.009326287108706300E-010, -9.999999996500434900, 0.0000000000000000000 ) ) ;
#130 = PLANE ( 'NONE',  #128 ) ;
#131 = DIRECTION ( 'NONE',  ( 0.0000000000000000000, 0.0000000000000000000, -1.000000000000000000 ) ) ;
#132 = DIRECTION ( 'NONE',  ( 0.0000000000000000000, -1.000000000000000000, 0.0000000000000000000 ) ) ;
#133 = CARTESIAN_POINT ( 'NONE',  ( -5.009326287108706300E-010, -9.999999996500434900, 0.0000000000000000000 ) ) ;
#134 = AXIS2_PLACEMENT_3D ( 'NONE', #133, #132, #131 ) ;
#135 = FACE_BOUND ( 'NONE', #88, .T. ) ;
#136 = FACE_OUTER_BOUND ( 'NONE', #11, .T. ) ;
#137 = ORIENTED_EDGE ( 'NONE', *, *, #284, .T. ) ;
#138 = DIRECTION ( 'NONE',  ( 1.000000000000000000, 0.0000000000000000000, 0.0000000000000000000 ) ) ;
#139 = CARTESIAN_POINT ( 'NONE',  ( 0.0000000000000000000, 0.0000000000000000000, 0.0000000000000000000 ) ) ;
#140 = AXIS2_PLACEMENT_3D ( 'NONE', #139, #291, #138 ) ;
#141 = ADVANCED_BREP_SHAPE_REPRESENTATION ( 'C-30-RK-24', ( #10, #140 ), #142 ) ;
#142 =( GEOMETRIC_REPRESENTATION_CONTEXT ( 3 ) GLOBAL_UNCERTAINTY_ASSIGNED_CONTEXT ( ( #143 ) ) GLOBAL_UNIT_ASSIGNED_CONTEXT ( ( #287, #145, #144 ) ) REPRESENTATION_CONTEXT ( 'NONE', 'WORKASPACE' ) );
#143 = UNCERTAINTY_MEASURE_WITH_UNIT (LENGTH_MEASURE( 1.000000000000000100E-005 ), #287, 'distance_accuracy_value', 'NONE');
#144 =( NAMED_UNIT ( * ) SI_UNIT ( $, .STERADIAN. ) SOLID_ANGLE_UNIT ( ) );
#145 =( NAMED_UNIT ( * ) PLANE_ANGLE_UNIT ( ) SI_UNIT ( $, .RADIAN. ) );
#146 = DIRECTION ( 'NONE',  ( 0.0000000000000000000, 0.0000000000000000000, -1.000000000000000000 ) ) ;
#147 = DIRECTION ( 'NONE',  ( 0.0000000000000000000, -1.000000000000000000, 0.0000000000000000000 ) ) ;
#148 = CARTESIAN_POINT ( 'NONE',  ( 8.719223593094652000, 3.499565220943523500E-009, 0.0000000000000000000 ) ) ;
#149 = AXIS2_PLACEMENT_3D ( 'NONE', #148, #147, #146 ) ;
#150 = PLANE ( 'NONE',  #149 ) ;
#151 = FACE_OUTER_BOUND ( 'NONE', #55, .T. ) ;
#152 = FACE_BOUND ( 'NONE', #47, .T. ) ;
#153 = DIRECTION ( 'NONE',  ( 0.0000000000000000000, 0.0000000000000000000, 1.000000000000000000 ) ) ;
#154 = DIRECTION ( 'NONE',  ( 0.0000000000000000000, 1.000000000000000000, 0.0000000000000000000 ) ) ;
#155 = CARTESIAN_POINT ( 'NONE',  ( -5.009326287108706300E-010, 3.499565220943523500E-009, 0.0000000000000000000 ) ) ;
#156 = AXIS2_PLACEMENT_3D ( 'NONE', #155, #154, #153 ) ;
#157 = CIRCLE ( 'NONE', #156, 8.719223593595584600 ) ;
#158 = DIRECTION ( 'NONE',  ( 0.0000000000000000000, 0.0000000000000000000, 1.000000000000000000 ) ) ;
#159 = DIRECTION ( 'NONE',  ( 0.0000000000000000000, 1.000000000000000000, 0.0000000000000000000 ) ) ;
#160 = CARTESIAN_POINT ( 'NONE',  ( -5.009326287108706300E-010, 3.499565220943523500E-009, 0.0000000000000000000 ) ) ;
#161 = AXIS2_PLACEMENT_3D ( 'NONE', #160, #159, #158 ) ;
#162 = CIRCLE ( 'NONE', #161, 4.500000000000000900 ) ;
#163 = DIRECTION ( 'NONE',  ( 0.0000000000000000000, 0.0000000000000000000, 1.000000000000000000 ) ) ;
#164 = DIRECTION ( 'NONE',  ( 0.0000000000000000000, 1.000000000000000000, 0.0000000000000000000 ) ) ;
#165 = AXIS2_PLACEMENT_3D ( 'NONE', #171, #164, #163 ) ;
#166 = CIRCLE ( 'NONE', #165, 9.689366093740913400 ) ;
#167 = DIRECTION ( 'NONE',  ( 0.0000000000000000000, 0.0000000000000000000, 1.000000000000000000 ) ) ;
#168 = DIRECTION ( 'NONE',  ( 0.0000000000000000000, 1.000000000000000000, 0.0000000000000000000 ) ) ;
#169 = AXIS2_PLACEMENT_3D ( 'NONE', #172, #168, #167 ) ;
#170 = CYLINDRICAL_SURFACE ( 'NONE', #169, 4.500000000000000900 ) ;
#171 = CARTESIAN_POINT ( 'NONE',  ( -5.009326287108706300E-010, -0.7574643714641022800, 0.0000000000000000000 ) ) ;
#172 = CARTESIAN_POINT ( 'NONE',  ( -5.009326287108706300E-010, 2.412507003500041800, 0.0000000000000000000 ) ) ;
#173 = DIRECTION ( 'NONE',  ( 0.0000000000000000000, 0.0000000000000000000, 1.000000000000000000 ) ) ;
#174 = DIRECTION ( 'NONE',  ( 0.0000000000000000000, 1.000000000000000000, 0.0000000000000000000 ) ) ;
#175 = CARTESIAN_POINT ( 'NONE',  ( -5.009326287108706300E-010, -4.999999996500434900, 0.0000000000000000000 ) ) ;
#176 = AXIS2_PLACEMENT_3D ( 'NONE', #175, #174, #173 ) ;
#177 = CIRCLE ( 'NONE', #176, 4.500000000000000900 ) ;
#178 = FACE_OUTER_BOUND ( 'NONE', #35, .T. ) ;
#179 = CARTESIAN_POINT ( 'NONE',  ( -5.009326287108706300E-010, 3.499565220943523500E-009, 4.500000000000000900 ) ) ;
#180 = CARTESIAN_POINT ( 'NONE',  ( -5.009320776380114100E-010, 3.499565220943523500E-009, -4.500000000000000900 ) ) ;
#181 = DIRECTION ( 'NONE',  ( 0.0000000000000000000, 1.000000000000000000, 0.0000000000000000000 ) ) ;
#182 = VECTOR ( 'NONE', #181, 1000.000000000000000 ) ;
#183 = CARTESIAN_POINT ( 'NONE',  ( -5.009320776380114100E-010, 2.412507003500041800, -4.500000000000000900 ) ) ;
#184 = LINE ( 'NONE', #183, #182 ) ;
#185 = DIRECTION ( 'NONE',  ( 0.0000000000000000000, 0.0000000000000000000, -1.000000000000000000 ) ) ;
#186 = DIRECTION ( 'NONE',  ( 0.0000000000000000000, -1.000000000000000000, 0.0000000000000000000 ) ) ;
#187 = CARTESIAN_POINT ( 'NONE',  ( 4.499999999499068300, -4.999999996500434000, 0.0000000000000000000 ) ) ;
#188 = AXIS2_PLACEMENT_3D ( 'NONE', #187, #186, #185 ) ;
#189 = PLANE ( 'NONE',  #188 ) ;
#190 = FACE_OUTER_BOUND ( 'NONE', #18, .T. ) ;
#191 = FACE_BOUND ( 'NONE', #54, .T. ) ;
#192 = DIRECTION ( 'NONE',  ( 0.0000000000000000000, 0.0000000000000000000, 1.000000000000000000 ) ) ;
#193 = DIRECTION ( 'NONE',  ( 0.0000000000000000000, 1.000000000000000000, 0.0000000000000000000 ) ) ;
#194 = AXIS2_PLACEMENT_3D ( 'NONE', #196, #193, #192 ) ;
#195 = TOROIDAL_SURFACE ( 'NONE', #194, 8.719223593595584600, 0.9999999999999991100 ) ;
#196 = CARTESIAN_POINT ( 'NONE',  ( -5.009326287108706300E-010, -0.9999999965004348100, 0.0000000000000000000 ) ) ;
#197 = DIRECTION ( 'NONE',  ( 0.0000000000000000000, 0.0000000000000000000, 1.000000000000000000 ) ) ;
#198 = DIRECTION ( 'NONE',  ( -1.000000000000000000, 0.0000000000000000000, 0.0000000000000000000 ) ) ;
#199 = CARTESIAN_POINT ( 'NONE',  ( -5.009326287108706300E-010, -0.9999999965004348100, 8.719223593595584600 ) ) ;
#200 = AXIS2_PLACEMENT_3D ( 'NONE', #199, #198, #197 ) ;
#201 = CIRCLE ( 'NONE', #200, 0.9999999999999991100 ) ;
#202 = FACE_OUTER_BOUND ( 'NONE', #37, .T. ) ;
#203 = CARTESIAN_POINT ( 'NONE',  ( -5.009326287108706300E-010, 3.499565220943523500E-009, 8.719223593595584600 ) ) ;
#204 = DIRECTION ( 'NONE',  ( 0.0000000000000000000, 0.0000000000000000000, 1.000000000000000000 ) ) ;
#205 = DIRECTION ( 'NONE',  ( 0.0000000000000000000, 1.000000000000000000, 0.0000000000000000000 ) ) ;
#206 = CARTESIAN_POINT ( 'NONE',  ( -5.009326287108706300E-010, 3.499565220943523500E-009, 0.0000000000000000000 ) ) ;
#207 = AXIS2_PLACEMENT_3D ( 'NONE', #206, #205, #204 ) ;
#208 = CIRCLE ( 'NONE', #207, 8.719223593595584600 ) ;
#209 = CARTESIAN_POINT ( 'NONE',  ( -5.009323837895998700E-010, -4.999999996500434000, -1.999999999999999600 ) ) ;
#210 = CARTESIAN_POINT ( 'NONE',  ( -5.009326287108706300E-010, -9.999999996500434900, 2.000000000000000400 ) ) ;
#211 = CARTESIAN_POINT ( 'NONE',  ( -5.009323837895998700E-010, -9.999999996500434900, -2.000000000000000400 ) ) ;
#212 = DIRECTION ( 'NONE',  ( 0.0000000000000000000, 1.000000000000000000, 0.0000000000000000000 ) ) ;
#213 = VECTOR ( 'NONE', #212, 1000.000000000000000 ) ;
#214 = CARTESIAN_POINT ( 'NONE',  ( -5.009323837895998700E-010, 2.412507003500041800, -2.000000000000000000 ) ) ;
#215 = LINE ( 'NONE', #214, #213 ) ;
#216 = CARTESIAN_POINT ( 'NONE',  ( -5.009326287108706300E-010, -4.999999996500434900, 4.500000000000000900 ) ) ;
#217 = DIRECTION ( 'NONE',  ( 0.0000000000000000000, 0.0000000000000000000, 1.000000000000000000 ) ) ;
#218 = DIRECTION ( 'NONE',  ( 0.0000000000000000000, 1.000000000000000000, 0.0000000000000000000 ) ) ;
#219 = CARTESIAN_POINT ( 'NONE',  ( -5.009326287108706300E-010, 2.412507003500041800, 0.0000000000000000000 ) ) ;
#220 = AXIS2_PLACEMENT_3D ( 'NONE', #219, #218, #217 ) ;
#221 = CYLINDRICAL_SURFACE ( 'NONE', #220, 4.500000000000000900 ) ;
#222 = FACE_OUTER_BOUND ( 'NONE', #68, .T. ) ;
#223 = DIRECTION ( 'NONE',  ( 0.0000000000000000000, 0.0000000000000000000, 1.000000000000000000 ) ) ;
#224 = DIRECTION ( 'NONE',  ( 0.0000000000000000000, 1.000000000000000000, 0.0000000000000000000 ) ) ;
#225 = CARTESIAN_POINT ( 'NONE',  ( -5.009326287108706300E-010, -0.9999999965004348100, 0.0000000000000000000 ) ) ;
#226 = AXIS2_PLACEMENT_3D ( 'NONE', #225, #224, #223 ) ;
#227 = TOROIDAL_SURFACE ( 'NONE', #226, 8.719223593595584600, 0.9999999999999991100 ) ;
#228 = FACE_OUTER_BOUND ( 'NONE', #72, .T. ) ;
#229 = CARTESIAN_POINT ( 'NONE',  ( -5.009320776380114100E-010, -4.999999996500434900, -4.500000000000000900 ) ) ;
#230 = DIRECTION ( 'NONE',  ( 0.0000000000000000000, 0.0000000000000000000, 1.000000000000000000 ) ) ;
#231 = DIRECTION ( 'NONE',  ( 0.0000000000000000000, 1.000000000000000000, 0.0000000000000000000 ) ) ;
#232 = CARTESIAN_POINT ( 'NONE',  ( -5.009326287108706300E-010, -4.999999996500434900, 0.0000000000000000000 ) ) ;
#233 = AXIS2_PLACEMENT_3D ( 'NONE', #232, #231, #230 ) ;
#234 = CIRCLE ( 'NONE', #233, 4.500000000000000900 ) ;
#235 = DIRECTION ( 'NONE',  ( 0.0000000000000000000, 1.000000000000000000, 0.0000000000000000000 ) ) ;
#236 = VECTOR ( 'NONE', #235, 1000.000000000000000 ) ;
#237 = CARTESIAN_POINT ( 'NONE',  ( -5.009326287108706300E-010, 2.412507003500041800, 4.500000000000000900 ) ) ;
#238 = LINE ( 'NONE', #237, #236 ) ;
#239 = DIRECTION ( 'NONE',  ( 0.0000000000000000000, 0.0000000000000000000, 1.000000000000000000 ) ) ;
#240 = DIRECTION ( 'NONE',  ( 0.0000000000000000000, 1.000000000000000000, 0.0000000000000000000 ) ) ;
#241 = CARTESIAN_POINT ( 'NONE',  ( -5.009326287108706300E-010, 3.499565220943523500E-009, 0.0000000000000000000 ) ) ;
#242 = AXIS2_PLACEMENT_3D ( 'NONE', #241, #240, #239 ) ;
#243 = CIRCLE ( 'NONE', #242, 4.500000000000000900 ) ;
#244 = CYLINDRICAL_SURFACE ( 'NONE', #245, 2.000000000000000000 ) ;
#245 = AXIS2_PLACEMENT_3D ( 'NONE', #303, #302, #301 ) ;
#246 = FACE_OUTER_BOUND ( 'NONE', #86, .T. ) ;
#247 = DIRECTION ( 'NONE',  ( 0.0000000000000000000, 0.0000000000000000000, 1.000000000000000000 ) ) ;
#248 = DIRECTION ( 'NONE',  ( 0.0000000000000000000, 1.000000000000000000, 0.0000000000000000000 ) ) ;
#249 = CARTESIAN_POINT ( 'NONE',  ( -5.009326287108706300E-010, -9.999999996500434900, 0.0000000000000000000 ) ) ;
#250 = AXIS2_PLACEMENT_3D ( 'NONE', #249, #248, #247 ) ;
#251 = DIRECTION ( 'NONE',  ( 0.0000000000000000000, 0.0000000000000000000, -1.000000000000000000 ) ) ;
#252 = DIRECTION ( 'NONE',  ( 0.0000000000000000000, -1.000000000000000000, 0.0000000000000000000 ) ) ;
#253 = AXIS2_PLACEMENT_3D ( 'NONE', #256, #252, #251 ) ;
#254 = CONICAL_SURFACE ( 'NONE', #253, 12.00000000000000000, 0.2449786631268644800 ) ;
#255 = CIRCLE ( 'NONE', #250, 12.00000000000000000 ) ;
#256 = CARTESIAN_POINT ( 'NONE',  ( -5.009326287108706300E-010, -9.999999996500434900, 0.0000000000000000000 ) ) ;
#257 = FACE_OUTER_BOUND ( 'NONE', #100, .T. ) ;
#258 = CARTESIAN_POINT ( 'NONE',  ( -5.009326287108706300E-010, -9.999999996500434900, -12.00000000000000000 ) ) ;
#259 = CARTESIAN_POINT ( 'NONE',  ( -5.009311591832460400E-010, -9.999999996500434900, 12.00000000000000000 ) ) ;
#260 = DIRECTION ( 'NONE',  ( 0.0000000000000000000, 0.0000000000000000000, 1.000000000000000000 ) ) ;
#261 = DIRECTION ( 'NONE',  ( 0.0000000000000000000, 1.000000000000000000, 0.0000000000000000000 ) ) ;
#262 = CARTESIAN_POINT ( 'NONE',  ( -5.009326287108706300E-010, -9.999999996500434900, 0.0000000000000000000 ) ) ;
#263 = AXIS2_PLACEMENT_3D ( 'NONE', #262, #261, #260 ) ;
#264 = CIRCLE ( 'NONE', #263, 2.000000000000000400 ) ;
#265 = CARTESIAN_POINT ( 'NONE',  ( -5.009326287108706300E-010, -4.999999996500434000, 1.999999999999999600 ) ) ;
#266 = DIRECTION ( 'NONE',  ( 0.0000000000000000000, 1.000000000000000000, 0.0000000000000000000 ) ) ;
#267 = VECTOR ( 'NONE', #266, 1000.000000000000000 ) ;
#268 = CARTESIAN_POINT ( 'NONE',  ( -5.009326287108706300E-010, 2.412507003500041800, 2.000000000000000000 ) ) ;
#269 = LINE ( 'NONE', #268, #267 ) ;
#270 = DIRECTION ( 'NONE',  ( 0.0000000000000000000, 0.0000000000000000000, 1.000000000000000000 ) ) ;
#271 = DIRECTION ( 'NONE',  ( 0.0000000000000000000, 1.000000000000000000, 0.0000000000000000000 ) ) ;
#272 = CARTESIAN_POINT ( 'NONE',  ( -5.009326287108706300E-010, -4.999999996500434000, 0.0000000000000000000 ) ) ;
#273 = AXIS2_PLACEMENT_3D ( 'NONE', #272, #271, #270 ) ;
#274 = CIRCLE ( 'NONE', #273, 1.999999999999999600 ) ;
#275 = CONICAL_SURFACE ( 'NONE', #134, 12.00000000000000000, 0.2449786631268644800 ) ;
#276 = FACE_OUTER_BOUND ( 'NONE', #7, .T. ) ;
#277 = CARTESIAN_POINT ( 'NONE',  ( -5.009326287108706300E-010, -0.7574643714641022800, 9.689366093740915200 ) ) ;
#278 = DIRECTION ( 'NONE',  ( 0.0000000000000000000, 0.0000000000000000000, 1.000000000000000000 ) ) ;
#279 = DIRECTION ( 'NONE',  ( 0.0000000000000000000, 1.000000000000000000, 0.0000000000000000000 ) ) ;
#280 = CARTESIAN_POINT ( 'NONE',  ( -5.009326287108706300E-010, -0.7574643714641022800, 0.0000000000000000000 ) ) ;
#281 = AXIS2_PLACEMENT_3D ( 'NONE', #280, #279, #278 ) ;
#282 = CIRCLE ( 'NONE', #281, 9.689366093740913400 ) ;
#283 = EDGE_CURVE ( 'NONE', #3, #90, #300, .T. ) ;
#284 = EDGE_CURVE ( 'NONE', #89, #90, #296, .T. ) ;
#285 = CARTESIAN_POINT ( 'NONE',  ( -5.009311591832460400E-010, -9.999999996500434900, 12.00000000000000000 ) ) ;
#286 = LINE ( 'NONE', #285, #290 ) ;
#287 =( LENGTH_UNIT ( ) NAMED_UNIT ( * ) SI_UNIT ( .MILLI., .METRE. ) );
#288 = CARTESIAN_POINT ( 'NONE',  ( -5.009314421449423500E-010, -0.7574643714641022800, -9.689366093740915200 ) ) ;
#289 = DIRECTION ( 'NONE',  ( 2.970106674477753500E-017, -0.9701425001453318800, 0.2425356250363333000 ) ) ;
#290 = VECTOR ( 'NONE', #289, 999.9999999999998900 ) ;
#291 = DIRECTION ( 'NONE',  ( 0.0000000000000000000, 0.0000000000000000000, 1.000000000000000000 ) ) ;
#292 = DIRECTION ( 'NONE',  ( 0.0000000000000000000, 0.0000000000000000000, 1.000000000000000000 ) ) ;
#293 = DIRECTION ( 'NONE',  ( 0.0000000000000000000, 1.000000000000000000, 0.0000000000000000000 ) ) ;
#294 = CARTESIAN_POINT ( 'NONE',  ( -5.009326287108706300E-010, -9.999999996500434900, 0.0000000000000000000 ) ) ;
#295 = AXIS2_PLACEMENT_3D ( 'NONE', #294, #293, #292 ) ;
#296 = CIRCLE ( 'NONE', #295, 12.00000000000000000 ) ;
#297 = DIRECTION ( 'NONE',  ( 0.0000000000000000000, -0.9701425001453318800, -0.2425356250363333000 ) ) ;
#298 = VECTOR ( 'NONE', #297, 999.9999999999998900 ) ;
#299 = CARTESIAN_POINT ( 'NONE',  ( -5.009326287108706300E-010, -9.999999996500434900, -12.00000000000000000 ) ) ;
#300 = LINE ( 'NONE', #299, #298 ) ;
#301 = DIRECTION ( 'NONE',  ( 0.0000000000000000000, 0.0000000000000000000, 1.000000000000000000 ) ) ;
#302 = DIRECTION ( 'NONE',  ( 0.0000000000000000000, 1.000000000000000000, 0.0000000000000000000 ) ) ;
#303 = CARTESIAN_POINT ( 'NONE',  ( -5.009326287108706300E-010, 2.412507003500041800, 0.0000000000000000000 ) ) ;
#304 = ORIENTED_EDGE ( 'NONE', *, *, #283, .F. ) ;
#305 = SHAPE_DEFINITION_REPRESENTATION ( #306, #141 ) ;
#306 = PRODUCT_DEFINITION_SHAPE ( 'NONE', 'NONE',  #369 ) ;
#307 = PRODUCT_RELATED_PRODUCT_CATEGORY ( 'detail', '', ( #378 ) ) ;
#308 = CC_DESIGN_SECURITY_CLASSIFICATION ( #329, ( #348 ) ) ;
#309 = CC_DESIGN_APPROVAL ( #317, ( #329 ) ) ;
#310 = APPROVAL_DATE_TIME ( #311, #317 ) ;
#311 = DATE_AND_TIME ( #312, #313 ) ;
#312 = CALENDAR_DATE ( 2009, 29, 6 ) ;
#313 = LOCAL_TIME ( 9, 35, 54.00000000000000000, #314 ) ;
#314 = COORDINATED_UNIVERSAL_TIME_OFFSET ( 9, 0, .AHEAD. ) ;
#315 = APPROVAL_PERSON_ORGANIZATION ( #319, #317, #316 ) ;
#316 = APPROVAL_ROLE ( '' ) ;
#317 = APPROVAL ( #318, 'UNSPECIFIED' ) ;
#318 = APPROVAL_STATUS ( 'not_yet_approved' ) ;
#319 = PERSON_AND_ORGANIZATION ( #377, #376 ) ;
#320 = CC_DESIGN_DATE_AND_TIME_ASSIGNMENT ( #322, #321, ( #329 ) ) ;
#321 = DATE_TIME_ROLE ( 'classification_date' ) ;
#322 = DATE_AND_TIME ( #323, #324 ) ;
#323 = CALENDAR_DATE ( 2009, 29, 6 ) ;
#324 = LOCAL_TIME ( 9, 35, 54.00000000000000000, #325 ) ;
#325 = COORDINATED_UNIVERSAL_TIME_OFFSET ( 9, 0, .AHEAD. ) ;
#326 = CC_DESIGN_PERSON_AND_ORGANIZATION_ASSIGNMENT ( #328, #327, ( #329 ) ) ;
#327 = PERSON_AND_ORGANIZATION_ROLE ( 'classification_officer' ) ;
#328 = PERSON_AND_ORGANIZATION ( #377, #376 ) ;
#329 = SECURITY_CLASSIFICATION ( '', '', #330 ) ;
#330 = SECURITY_CLASSIFICATION_LEVEL ( 'unclassified' ) ;
#331 = CC_DESIGN_PERSON_AND_ORGANIZATION_ASSIGNMENT ( #333, #332, ( #348 ) ) ;
#332 = PERSON_AND_ORGANIZATION_ROLE ( 'design_supplier' ) ;
#333 = PERSON_AND_ORGANIZATION ( #377, #376 ) ;
#334 = CC_DESIGN_PERSON_AND_ORGANIZATION_ASSIGNMENT ( #336, #335, ( #348 ) ) ;
#335 = PERSON_AND_ORGANIZATION_ROLE ( 'creator' ) ;
#336 = PERSON_AND_ORGANIZATION ( #377, #376 ) ;
#337 = CC_DESIGN_APPROVAL ( #345, ( #348 ) ) ;
#338 = APPROVAL_DATE_TIME ( #339, #345 ) ;
#339 = DATE_AND_TIME ( #340, #341 ) ;
#340 = CALENDAR_DATE ( 2009, 29, 6 ) ;
#341 = LOCAL_TIME ( 9, 35, 54.00000000000000000, #342 ) ;
#342 = COORDINATED_UNIVERSAL_TIME_OFFSET ( 9, 0, .AHEAD. ) ;
#343 = APPROVAL_PERSON_ORGANIZATION ( #347, #345, #344 ) ;
#344 = APPROVAL_ROLE ( '' ) ;
#345 = APPROVAL ( #346, 'UNSPECIFIED' ) ;
#346 = APPROVAL_STATUS ( 'not_yet_approved' ) ;
#347 = PERSON_AND_ORGANIZATION ( #377, #376 ) ;
#348 = PRODUCT_DEFINITION_FORMATION_WITH_SPECIFIED_SOURCE ( 'ANY', '', #378, .NOT_KNOWN. ) ;
#349 = CC_DESIGN_DATE_AND_TIME_ASSIGNMENT ( #351, #350, ( #369 ) ) ;
#350 = DATE_TIME_ROLE ( 'creation_date' ) ;
#351 = DATE_AND_TIME ( #352, #353 ) ;
#352 = CALENDAR_DATE ( 2009, 29, 6 ) ;
#353 = LOCAL_TIME ( 9, 35, 54.00000000000000000, #354 ) ;
#354 = COORDINATED_UNIVERSAL_TIME_OFFSET ( 9, 0, .AHEAD. ) ;
#355 = CC_DESIGN_PERSON_AND_ORGANIZATION_ASSIGNMENT ( #357, #356, ( #369 ) ) ;
#356 = PERSON_AND_ORGANIZATION_ROLE ( 'creator' ) ;
#357 = PERSON_AND_ORGANIZATION ( #377, #376 ) ;
#358 = CC_DESIGN_APPROVAL ( #366, ( #369 ) ) ;
#359 = APPROVAL_DATE_TIME ( #360, #366 ) ;
#360 = DATE_AND_TIME ( #361, #362 ) ;
#361 = CALENDAR_DATE ( 2009, 29, 6 ) ;
#362 = LOCAL_TIME ( 9, 35, 54.00000000000000000, #363 ) ;
#363 = COORDINATED_UNIVERSAL_TIME_OFFSET ( 9, 0, .AHEAD. ) ;
#364 = APPROVAL_PERSON_ORGANIZATION ( #368, #366, #365 ) ;
#365 = APPROVAL_ROLE ( '' ) ;
#366 = APPROVAL ( #367, 'UNSPECIFIED' ) ;
#367 = APPROVAL_STATUS ( 'not_yet_approved' ) ;
#368 = PERSON_AND_ORGANIZATION ( #377, #376 ) ;
#369 = PRODUCT_DEFINITION ( 'UNKNOWN', '', #348, #370 ) ;
#370 = DESIGN_CONTEXT ( 'detailed design', #372, 'design' ) ;
#371 = APPLICATION_PROTOCOL_DEFINITION ( 'international standard', 'config_control_design', 1994, #372 ) ;
#372 = APPLICATION_CONTEXT ( 'configuration controlled 3d designs of mechanical parts and assemblies' ) ;
#373 = CC_DESIGN_PERSON_AND_ORGANIZATION_ASSIGNMENT ( #375, #374, ( #378 ) ) ;
#374 = PERSON_AND_ORGANIZATION_ROLE ( 'design_owner' ) ;
#375 = PERSON_AND_ORGANIZATION ( #377, #376 ) ;
#376 = ORGANIZATION ( 'UNSPECIFIED', 'UNSPECIFIED', '' ) ;
#377 = PERSON ( 'UNSPECIFIED', 'UNSPECIFIED', 'UNSPECIFIED', ('UNSPECIFIED'), ('UNSPECIFIED'), ('UNSPECIFIED') ) ;
#378 = PRODUCT ( 'C-30-RK-24', 'C-30-RK-24', '', ( #379 ) ) ;
#379 = MECHANICAL_CONTEXT ( 'NONE', #381, 'mechanical' ) ;
#380 = APPLICATION_PROTOCOL_DEFINITION ( 'international standard', 'config_control_design', 1994, #381 ) ;
#381 = APPLICATION_CONTEXT ( 'configuration controlled 3d designs of mechanical parts and assemblies' ) ;
ENDSEC;
END-ISO-10303-21;
