ISO-10303-21;
HEADER;
FILE_DESCRIPTION (( 'STEP AP203' ),
    '1' );
FILE_NAME ('C-30-RK-2320-ÃÞÌ«ÙÄ.STEP',
    '2009-06-29T02:45:39',
    ( '11sw' ),
    ( '^LQ»¢®ïÐ' ),
    'SwSTEP 2.0',
    'SolidWorks 2007',
    '' );
FILE_SCHEMA (( 'CONFIG_CONTROL_DESIGN' ));
ENDSEC;

DATA;
#1 = DIRECTION ( 'NONE',  ( 0.0000000000000000000, 0.0000000000000000000, 1.000000000000000000 ) ) ;
#2 = DIRECTION ( 'NONE',  ( 0.0000000000000000000, 1.000000000000000000, 0.0000000000000000000 ) ) ;
#3 = CARTESIAN_POINT ( 'NONE',  ( 1.999999999499068700, -19.99999999650043500, 0.0000000000000000000 ) ) ;
#4 = AXIS2_PLACEMENT_3D ( 'NONE', #3, #2, #1 ) ;
#5 = PLANE ( 'NONE',  #4 ) ;
#6 = FACE_BOUND ( 'NONE', #139, .T. ) ;
#7 = FACE_OUTER_BOUND ( 'NONE', #135, .T. ) ;
#8 = DIRECTION ( 'NONE',  ( 0.0000000000000000000, 0.0000000000000000000, 1.000000000000000000 ) ) ;
#9 = DIRECTION ( 'NONE',  ( 0.0000000000000000000, 1.000000000000000000, 0.0000000000000000000 ) ) ;
#10 = AXIS2_PLACEMENT_3D ( 'NONE', #15, #9, #8 ) ;
#11 = CIRCLE ( 'NONE', #10, 2.000000000000001300 ) ;
#12 = DIRECTION ( 'NONE',  ( 0.0000000000000000000, 0.0000000000000000000, 1.000000000000000000 ) ) ;
#13 = DIRECTION ( 'NONE',  ( 0.0000000000000000000, 1.000000000000000000, 0.0000000000000000000 ) ) ;
#14 = AXIS2_PLACEMENT_3D ( 'NONE', #22, #13, #12 ) ;
#15 = CARTESIAN_POINT ( 'NONE',  ( -5.009326287108706300E-010, -19.99999999650043500, 0.0000000000000000000 ) ) ;
#16 = CYLINDRICAL_SURFACE ( 'NONE', #14, 2.000000000000000900 ) ;
#17 = FACE_OUTER_BOUND ( 'NONE', #140, .T. ) ;
#18 = DIRECTION ( 'NONE',  ( 0.0000000000000000000, 0.0000000000000000000, -1.000000000000000000 ) ) ;
#19 = DIRECTION ( 'NONE',  ( 0.0000000000000000000, -1.000000000000000000, 0.0000000000000000000 ) ) ;
#20 = CARTESIAN_POINT ( 'NONE',  ( -5.009326287108706300E-010, -19.99999999650043500, 0.0000000000000000000 ) ) ;
#21 = AXIS2_PLACEMENT_3D ( 'NONE', #20, #19, #18 ) ;
#22 = CARTESIAN_POINT ( 'NONE',  ( -5.009326287108706300E-010, 2.412507003500041800, 0.0000000000000000000 ) ) ;
#23 = CONICAL_SURFACE ( 'NONE', #21, 11.50000000000000000, 0.07485984771076685500 ) ;
#24 = FACE_OUTER_BOUND ( 'NONE', #126, .T. ) ;
#25 = DIRECTION ( 'NONE',  ( 0.0000000000000000000, -0.9971993098884565100, -0.07478994824163423500 ) ) ;
#26 = VECTOR ( 'NONE', #25, 999.9999999999998900 ) ;
#27 = CARTESIAN_POINT ( 'NONE',  ( -5.009326287108706300E-010, -19.99999999650043500, -11.50000000000000000 ) ) ;
#28 = LINE ( 'NONE', #27, #26 ) ;
#29 = CARTESIAN_POINT ( 'NONE',  ( -5.009326287108706300E-010, -19.99999999650043500, -11.50000000000000000 ) ) ;
#30 = DIRECTION ( 'NONE',  ( 0.0000000000000000000, 0.0000000000000000000, 1.000000000000000000 ) ) ;
#31 = DIRECTION ( 'NONE',  ( 0.0000000000000000000, 1.000000000000000000, 0.0000000000000000000 ) ) ;
#32 = CARTESIAN_POINT ( 'NONE',  ( -5.009326287108706300E-010, -19.99999999650043500, 0.0000000000000000000 ) ) ;
#33 = AXIS2_PLACEMENT_3D ( 'NONE', #32, #31, #30 ) ;
#34 = CIRCLE ( 'NONE', #33, 11.50000000000000000 ) ;
#35 = CARTESIAN_POINT ( 'NONE',  ( -5.009312204135637400E-010, -19.99999999650043500, 11.50000000000000000 ) ) ;
#36 = DIRECTION ( 'NONE',  ( 9.158824581875202100E-018, -0.9971993098884565100, 0.07478994824163423500 ) ) ;
#37 = VECTOR ( 'NONE', #36, 999.9999999999998900 ) ;
#38 = CARTESIAN_POINT ( 'NONE',  ( -5.009312204135637400E-010, -19.99999999650043500, 11.50000000000000000 ) ) ;
#39 = LINE ( 'NONE', #38, #37 ) ;
#40 = CARTESIAN_POINT ( 'NONE',  ( -5.009313871092451200E-010, -1.850420100017180500, -10.13878150776375400 ) ) ;
#41 = CARTESIAN_POINT ( 'NONE',  ( -5.009326287108706300E-010, -1.850420100017180500, 10.13878150776375400 ) ) ;
#42 = DIRECTION ( 'NONE',  ( 0.0000000000000000000, 0.0000000000000000000, 1.000000000000000000 ) ) ;
#43 = DIRECTION ( 'NONE',  ( 0.0000000000000000000, 1.000000000000000000, 0.0000000000000000000 ) ) ;
#44 = CARTESIAN_POINT ( 'NONE',  ( -5.009326287108706300E-010, -1.850420100017180500, 0.0000000000000000000 ) ) ;
#45 = AXIS2_PLACEMENT_3D ( 'NONE', #44, #43, #42 ) ;
#46 = DIRECTION ( 'NONE',  ( 0.0000000000000000000, 0.0000000000000000000, -1.000000000000000000 ) ) ;
#47 = DIRECTION ( 'NONE',  ( 0.0000000000000000000, -1.000000000000000000, 0.0000000000000000000 ) ) ;
#48 = CARTESIAN_POINT ( 'NONE',  ( -5.009326287108706300E-010, -19.99999999650043500, 0.0000000000000000000 ) ) ;
#49 = AXIS2_PLACEMENT_3D ( 'NONE', #48, #47, #46 ) ;
#50 = CIRCLE ( 'NONE', #45, 10.13878150776375600 ) ;
#51 = CONICAL_SURFACE ( 'NONE', #49, 11.50000000000000000, 0.07485984771076685500 ) ;
#52 = DIRECTION ( 'NONE',  ( 0.0000000000000000000, 0.0000000000000000000, 1.000000000000000000 ) ) ;
#53 = DIRECTION ( 'NONE',  ( 0.0000000000000000000, 1.000000000000000000, 0.0000000000000000000 ) ) ;
#54 = CARTESIAN_POINT ( 'NONE',  ( -5.009326287108706300E-010, 2.412507003500041800, 0.0000000000000000000 ) ) ;
#55 = AXIS2_PLACEMENT_3D ( 'NONE', #54, #53, #52 ) ;
#56 = FACE_OUTER_BOUND ( 'NONE', #102, .T. ) ;
#57 = CYLINDRICAL_SURFACE ( 'NONE', #55, 4.000000000000000000 ) ;
#58 = FACE_OUTER_BOUND ( 'NONE', #101, .T. ) ;
#59 = DIRECTION ( 'NONE',  ( 0.0000000000000000000, 1.000000000000000000, 0.0000000000000000000 ) ) ;
#60 = VECTOR ( 'NONE', #59, 1000.000000000000000 ) ;
#61 = CARTESIAN_POINT ( 'NONE',  ( -5.009326287108706300E-010, 2.412507003500041800, 2.000000000000000900 ) ) ;
#62 = LINE ( 'NONE', #61, #60 ) ;
#63 = DIRECTION ( 'NONE',  ( 0.0000000000000000000, 0.0000000000000000000, 1.000000000000000000 ) ) ;
#64 = DIRECTION ( 'NONE',  ( 0.0000000000000000000, 1.000000000000000000, 0.0000000000000000000 ) ) ;
#65 = CARTESIAN_POINT ( 'NONE',  ( -5.009326287108706300E-010, -9.999999996500434900, 0.0000000000000000000 ) ) ;
#66 = AXIS2_PLACEMENT_3D ( 'NONE', #65, #64, #63 ) ;
#67 = CIRCLE ( 'NONE', #66, 2.000000000000000000 ) ;
#68 = CARTESIAN_POINT ( 'NONE',  ( -5.009326287108706300E-010, -9.999999996500434900, 2.000000000000000000 ) ) ;
#69 = CARTESIAN_POINT ( 'NONE',  ( -5.009323837895998700E-010, -9.999999996500434900, -2.000000000000000000 ) ) ;
#70 = DIRECTION ( 'NONE',  ( 0.0000000000000000000, 1.000000000000000000, 0.0000000000000000000 ) ) ;
#71 = VECTOR ( 'NONE', #70, 1000.000000000000000 ) ;
#72 = CARTESIAN_POINT ( 'NONE',  ( -5.009323837895998700E-010, 2.412507003500041800, -2.000000000000000900 ) ) ;
#73 = LINE ( 'NONE', #72, #71 ) ;
#74 = CARTESIAN_POINT ( 'NONE',  ( -5.009326287108706300E-010, -19.99999999650043500, 2.000000000000001300 ) ) ;
#75 = CARTESIAN_POINT ( 'NONE',  ( -5.009323837895998700E-010, -19.99999999650043500, -2.000000000000001300 ) ) ;
#76 = DIRECTION ( 'NONE',  ( 0.0000000000000000000, 0.0000000000000000000, 1.000000000000000000 ) ) ;
#77 = DIRECTION ( 'NONE',  ( 0.0000000000000000000, 1.000000000000000000, 0.0000000000000000000 ) ) ;
#78 = CARTESIAN_POINT ( 'NONE',  ( -5.009326287108706300E-010, -19.99999999650043500, 0.0000000000000000000 ) ) ;
#79 = AXIS2_PLACEMENT_3D ( 'NONE', #78, #77, #76 ) ;
#80 = DIRECTION ( 'NONE',  ( 0.0000000000000000000, 0.0000000000000000000, 1.000000000000000000 ) ) ;
#81 = DIRECTION ( 'NONE',  ( 0.0000000000000000000, 1.000000000000000000, 0.0000000000000000000 ) ) ;
#82 = AXIS2_PLACEMENT_3D ( 'NONE', #85, #81, #80 ) ;
#83 = CYLINDRICAL_SURFACE ( 'NONE', #82, 2.000000000000000900 ) ;
#84 = CIRCLE ( 'NONE', #79, 2.000000000000001300 ) ;
#85 = CARTESIAN_POINT ( 'NONE',  ( -5.009326287108706300E-010, 2.412507003500041800, 0.0000000000000000000 ) ) ;
#86 = FACE_OUTER_BOUND ( 'NONE', #117, .T. ) ;
#87 = ADVANCED_FACE ( 'NONE', ( #86 ), #83, .F. ) ;
#88 = ORIENTED_EDGE ( 'NONE', *, *, #89, .F. ) ;
#89 = EDGE_CURVE ( 'NONE', #90, #91, #84, .T. ) ;
#90 = VERTEX_POINT ( 'NONE', #75 ) ;
#91 = VERTEX_POINT ( 'NONE', #74 ) ;
#92 = ORIENTED_EDGE ( 'NONE', *, *, #93, .T. ) ;
#93 = EDGE_CURVE ( 'NONE', #90, #94, #73, .T. ) ;
#94 = VERTEX_POINT ( 'NONE', #69 ) ;
#95 = ORIENTED_EDGE ( 'NONE', *, *, #96, .T. ) ;
#96 = EDGE_CURVE ( 'NONE', #94, #97, #67, .T. ) ;
#97 = VERTEX_POINT ( 'NONE', #68 ) ;
#98 = ORIENTED_EDGE ( 'NONE', *, *, #99, .F. ) ;
#99 = EDGE_CURVE ( 'NONE', #91, #97, #62, .T. ) ;
#100 = ADVANCED_FACE ( 'NONE', ( #58 ), #57, .F. ) ;
#101 = EDGE_LOOP ( 'NONE', ( #165, #157, #160, #166 ) ) ;
#102 = EDGE_LOOP ( 'NONE', ( #105, #109, #112, #115 ) ) ;
#103 = MANIFOLD_SOLID_BREP ( 'NONE', #121 ) ;
#104 = ADVANCED_FACE ( 'NONE', ( #56 ), #51, .T. ) ;
#105 = ORIENTED_EDGE ( 'NONE', *, *, #106, .F. ) ;
#106 = EDGE_CURVE ( 'NONE', #107, #108, #50, .T. ) ;
#107 = VERTEX_POINT ( 'NONE', #41 ) ;
#108 = VERTEX_POINT ( 'NONE', #40 ) ;
#109 = ORIENTED_EDGE ( 'NONE', *, *, #110, .T. ) ;
#110 = EDGE_CURVE ( 'NONE', #107, #111, #39, .T. ) ;
#111 = VERTEX_POINT ( 'NONE', #35 ) ;
#112 = ORIENTED_EDGE ( 'NONE', *, *, #113, .T. ) ;
#113 = EDGE_CURVE ( 'NONE', #111, #114, #34, .T. ) ;
#114 = VERTEX_POINT ( 'NONE', #29 ) ;
#115 = ORIENTED_EDGE ( 'NONE', *, *, #116, .F. ) ;
#116 = EDGE_CURVE ( 'NONE', #108, #114, #28, .T. ) ;
#117 = EDGE_LOOP ( 'NONE', ( #88, #92, #95, #98 ) ) ;
#118 = ORIENTED_EDGE ( 'NONE', *, *, #183, .F. ) ;
#119 = ORIENTED_EDGE ( 'NONE', *, *, #116, .T. ) ;
#120 = ORIENTED_EDGE ( 'NONE', *, *, #137, .T. ) ;
#121 = CLOSED_SHELL ( 'NONE', ( #104, #87, #100, #168, #179, #187, #145, #152, #128, #134, #125 ) ) ;
#122 = ORIENTED_EDGE ( 'NONE', *, *, #164, .T. ) ;
#123 = ORIENTED_EDGE ( 'NONE', *, *, #131, .T. ) ;
#124 = ORIENTED_EDGE ( 'NONE', *, *, #89, .T. ) ;
#125 = ADVANCED_FACE ( 'NONE', ( #24 ), #23, .T. ) ;
#126 = EDGE_LOOP ( 'NONE', ( #127, #118, #119, #120 ) ) ;
#127 = ORIENTED_EDGE ( 'NONE', *, *, #110, .F. ) ;
#128 = ADVANCED_FACE ( 'NONE', ( #17 ), #16, .F. ) ;
#129 = ORIENTED_EDGE ( 'NONE', *, *, #93, .F. ) ;
#130 = ORIENTED_EDGE ( 'NONE', *, *, #131, .F. ) ;
#131 = EDGE_CURVE ( 'NONE', #91, #90, #11, .T. ) ;
#132 = ORIENTED_EDGE ( 'NONE', *, *, #99, .T. ) ;
#133 = ORIENTED_EDGE ( 'NONE', *, *, #155, .T. ) ;
#134 = ADVANCED_FACE ( 'NONE', ( #7, #6 ), #5, .F. ) ;
#135 = EDGE_LOOP ( 'NONE', ( #136, #138 ) ) ;
#136 = ORIENTED_EDGE ( 'NONE', *, *, #137, .F. ) ;
#137 = EDGE_CURVE ( 'NONE', #114, #111, #197, .T. ) ;
#138 = ORIENTED_EDGE ( 'NONE', *, *, #113, .F. ) ;
#139 = EDGE_LOOP ( 'NONE', ( #123, #124 ) ) ;
#140 = EDGE_LOOP ( 'NONE', ( #129, #130, #132, #133 ) ) ;
#141 = EDGE_LOOP ( 'NONE', ( #142, #122 ) ) ;
#142 = ORIENTED_EDGE ( 'NONE', *, *, #149, .T. ) ;
#143 = ORIENTED_EDGE ( 'NONE', *, *, #96, .F. ) ;
#144 = ORIENTED_EDGE ( 'NONE', *, *, #186, .T. ) ;
#145 = ADVANCED_FACE ( 'NONE', ( #212 ), #195, .F. ) ;
#146 = EDGE_LOOP ( 'NONE', ( #147, #148, #150, #151 ) ) ;
#147 = ORIENTED_EDGE ( 'NONE', *, *, #158, .F. ) ;
#148 = ORIENTED_EDGE ( 'NONE', *, *, #149, .F. ) ;
#149 = EDGE_CURVE ( 'NONE', #156, #163, #210, .T. ) ;
#150 = ORIENTED_EDGE ( 'NONE', *, *, #167, .T. ) ;
#151 = ORIENTED_EDGE ( 'NONE', *, *, #190, .T. ) ;
#152 = ADVANCED_FACE ( 'NONE', ( #211, #205 ), #204, .F. ) ;
#153 = EDGE_LOOP ( 'NONE', ( #154, #143 ) ) ;
#154 = ORIENTED_EDGE ( 'NONE', *, *, #155, .F. ) ;
#155 = EDGE_CURVE ( 'NONE', #97, #94, #226, .T. ) ;
#156 = VERTEX_POINT ( 'NONE', #222 ) ;
#157 = ORIENTED_EDGE ( 'NONE', *, *, #158, .T. ) ;
#158 = EDGE_CURVE ( 'NONE', #163, #159, #221, .T. ) ;
#159 = VERTEX_POINT ( 'NONE', #264 ) ;
#160 = ORIENTED_EDGE ( 'NONE', *, *, #161, .T. ) ;
#161 = EDGE_CURVE ( 'NONE', #159, #162, #240, .T. ) ;
#162 = VERTEX_POINT ( 'NONE', #239 ) ;
#163 = VERTEX_POINT ( 'NONE', #246 ) ;
#164 = EDGE_CURVE ( 'NONE', #163, #156, #245, .T. ) ;
#165 = ORIENTED_EDGE ( 'NONE', *, *, #164, .F. ) ;
#166 = ORIENTED_EDGE ( 'NONE', *, *, #167, .F. ) ;
#167 = EDGE_CURVE ( 'NONE', #156, #162, #248, .T. ) ;
#168 = ADVANCED_FACE ( 'NONE', ( #263 ), #262, .T. ) ;
#169 = EDGE_LOOP ( 'NONE', ( #170, #171, #174, #177 ) ) ;
#170 = ORIENTED_EDGE ( 'NONE', *, *, #106, .T. ) ;
#171 = ORIENTED_EDGE ( 'NONE', *, *, #172, .T. ) ;
#172 = EDGE_CURVE ( 'NONE', #108, #173, #261, .T. ) ;
#173 = VERTEX_POINT ( 'NONE', #251 ) ;
#174 = ORIENTED_EDGE ( 'NONE', *, *, #175, .F. ) ;
#175 = EDGE_CURVE ( 'NONE', #176, #173, #233, .T. ) ;
#176 = VERTEX_POINT ( 'NONE', #270 ) ;
#177 = ORIENTED_EDGE ( 'NONE', *, *, #178, .F. ) ;
#178 = EDGE_CURVE ( 'NONE', #107, #176, #271, .T. ) ;
#179 = ADVANCED_FACE ( 'NONE', ( #266 ), #267, .T. ) ;
#180 = EDGE_LOOP ( 'NONE', ( #181, #182, #184, #185 ) ) ;
#181 = ORIENTED_EDGE ( 'NONE', *, *, #172, .F. ) ;
#182 = ORIENTED_EDGE ( 'NONE', *, *, #183, .T. ) ;
#183 = EDGE_CURVE ( 'NONE', #108, #107, #276, .T. ) ;
#184 = ORIENTED_EDGE ( 'NONE', *, *, #178, .T. ) ;
#185 = ORIENTED_EDGE ( 'NONE', *, *, #186, .F. ) ;
#186 = EDGE_CURVE ( 'NONE', #173, #176, #341, .T. ) ;
#187 = ADVANCED_FACE ( 'NONE', ( #337, #323 ), #329, .F. ) ;
#188 = EDGE_LOOP ( 'NONE', ( #189, #191 ) ) ;
#189 = ORIENTED_EDGE ( 'NONE', *, *, #190, .F. ) ;
#190 = EDGE_CURVE ( 'NONE', #162, #159, #308, .T. ) ;
#191 = ORIENTED_EDGE ( 'NONE', *, *, #161, .F. ) ;
#192 = EDGE_LOOP ( 'NONE', ( #193, #144 ) ) ;
#193 = ORIENTED_EDGE ( 'NONE', *, *, #175, .T. ) ;
#194 = DIRECTION ( 'NONE',  ( 0.0000000000000000000, 1.000000000000000000, 0.0000000000000000000 ) ) ;
#195 = CYLINDRICAL_SURFACE ( 'NONE', #217, 4.000000000000000000 ) ;
#196 = DIRECTION ( 'NONE',  ( 0.0000000000000000000, 0.0000000000000000000, 1.000000000000000000 ) ) ;
#197 = CIRCLE ( 'NONE', #213, 11.50000000000000000 ) ;
#198 = CARTESIAN_POINT ( 'NONE',  ( -5.009326287108706300E-010, -19.99999999650043500, 0.0000000000000000000 ) ) ;
#199 = DIRECTION ( 'NONE',  ( 0.0000000000000000000, 0.0000000000000000000, -1.000000000000000000 ) ) ;
#200 = DIRECTION ( 'NONE',  ( 0.0000000000000000000, -1.000000000000000000, 0.0000000000000000000 ) ) ;
#201 = CARTESIAN_POINT ( 'NONE',  ( 3.999999999499067400, -9.999999996500434900, 0.0000000000000000000 ) ) ;
#202 = AXIS2_PLACEMENT_3D ( 'NONE', #201, #200, #199 ) ;
#203 = CARTESIAN_POINT ( 'NONE',  ( -5.009326287108706300E-010, -9.999999996500434900, 0.0000000000000000000 ) ) ;
#204 = PLANE ( 'NONE',  #202 ) ;
#205 = FACE_OUTER_BOUND ( 'NONE', #141, .T. ) ;
#206 = DIRECTION ( 'NONE',  ( 0.0000000000000000000, 0.0000000000000000000, 1.000000000000000000 ) ) ;
#207 = DIRECTION ( 'NONE',  ( 0.0000000000000000000, 1.000000000000000000, 0.0000000000000000000 ) ) ;
#208 = CARTESIAN_POINT ( 'NONE',  ( -5.009326287108706300E-010, -9.999999996500434900, 0.0000000000000000000 ) ) ;
#209 = AXIS2_PLACEMENT_3D ( 'NONE', #208, #207, #206 ) ;
#210 = CIRCLE ( 'NONE', #209, 4.000000000000000000 ) ;
#211 = FACE_BOUND ( 'NONE', #153, .T. ) ;
#212 = FACE_OUTER_BOUND ( 'NONE', #146, .T. ) ;
#213 = AXIS2_PLACEMENT_3D ( 'NONE', #198, #194, #196 ) ;
#214 = DIRECTION ( 'NONE',  ( 0.0000000000000000000, 0.0000000000000000000, 1.000000000000000000 ) ) ;
#215 = DIRECTION ( 'NONE',  ( 0.0000000000000000000, 1.000000000000000000, 0.0000000000000000000 ) ) ;
#216 = CARTESIAN_POINT ( 'NONE',  ( -5.009326287108706300E-010, 2.412507003500041800, 0.0000000000000000000 ) ) ;
#217 = AXIS2_PLACEMENT_3D ( 'NONE', #216, #215, #214 ) ;
#218 = DIRECTION ( 'NONE',  ( 0.0000000000000000000, 1.000000000000000000, 0.0000000000000000000 ) ) ;
#219 = VECTOR ( 'NONE', #218, 1000.000000000000000 ) ;
#220 = CARTESIAN_POINT ( 'NONE',  ( -5.009321388683291000E-010, 2.412507003500041800, -4.000000000000000000 ) ) ;
#221 = LINE ( 'NONE', #220, #219 ) ;
#222 = CARTESIAN_POINT ( 'NONE',  ( -5.009326287108706300E-010, -9.999999996500434900, 4.000000000000000000 ) ) ;
#223 = DIRECTION ( 'NONE',  ( 0.0000000000000000000, 0.0000000000000000000, 1.000000000000000000 ) ) ;
#224 = DIRECTION ( 'NONE',  ( 0.0000000000000000000, 1.000000000000000000, 0.0000000000000000000 ) ) ;
#225 = AXIS2_PLACEMENT_3D ( 'NONE', #203, #224, #223 ) ;
#226 = CIRCLE ( 'NONE', #225, 2.000000000000000000 ) ;
#227 = AXIS2_PLACEMENT_3D ( 'NONE', #228, #230, #229 ) ;
#228 = CARTESIAN_POINT ( 'NONE',  ( -5.009326287108706300E-010, 3.499565220943523500E-009, 0.0000000000000000000 ) ) ;
#229 = DIRECTION ( 'NONE',  ( 0.0000000000000000000, 0.0000000000000000000, 1.000000000000000000 ) ) ;
#230 = DIRECTION ( 'NONE',  ( 0.0000000000000000000, 1.000000000000000000, 0.0000000000000000000 ) ) ;
#231 = PERSON_AND_ORGANIZATION_ROLE ( 'design_supplier' ) ;
#232 = PERSON_AND_ORGANIZATION ( #324, #351 ) ;
#233 = CIRCLE ( 'NONE', #227, 8.144382887986829200 ) ;
#234 = SECURITY_CLASSIFICATION_LEVEL ( 'unclassified' ) ;
#235 = CC_DESIGN_PERSON_AND_ORGANIZATION_ASSIGNMENT ( #232, #231, ( #346 ) ) ;
#236 = DIRECTION ( 'NONE',  ( 0.0000000000000000000, 1.000000000000000000, 0.0000000000000000000 ) ) ;
#237 = CARTESIAN_POINT ( 'NONE',  ( -5.009326287108706300E-010, 3.499565220943523500E-009, 0.0000000000000000000 ) ) ;
#238 = AXIS2_PLACEMENT_3D ( 'NONE', #237, #236, #247 ) ;
#239 = CARTESIAN_POINT ( 'NONE',  ( -5.009326287108706300E-010, 3.499565220943523500E-009, 4.000000000000000000 ) ) ;
#240 = CIRCLE ( 'NONE', #238, 4.000000000000000000 ) ;
#241 = DIRECTION ( 'NONE',  ( 0.0000000000000000000, 0.0000000000000000000, 1.000000000000000000 ) ) ;
#242 = DIRECTION ( 'NONE',  ( 0.0000000000000000000, 1.000000000000000000, 0.0000000000000000000 ) ) ;
#243 = CARTESIAN_POINT ( 'NONE',  ( -5.009326287108706300E-010, -1.999999996500435400, 0.0000000000000000000 ) ) ;
#244 = AXIS2_PLACEMENT_3D ( 'NONE', #243, #242, #241 ) ;
#245 = CIRCLE ( 'NONE', #257, 4.000000000000000000 ) ;
#246 = CARTESIAN_POINT ( 'NONE',  ( -5.009321388683291000E-010, -9.999999996500434900, -4.000000000000000000 ) ) ;
#247 = DIRECTION ( 'NONE',  ( 0.0000000000000000000, 0.0000000000000000000, 1.000000000000000000 ) ) ;
#248 = LINE ( 'NONE', #254, #253 ) ;
#249 = DIRECTION ( 'NONE',  ( 0.0000000000000000000, 0.0000000000000000000, 1.000000000000000000 ) ) ;
#250 = SECURITY_CLASSIFICATION ( '', '', #234 ) ;
#251 = CARTESIAN_POINT ( 'NONE',  ( -5.009315092269063000E-010, 3.499565220943523500E-009, -8.144382887986829200 ) ) ;
#252 = DIRECTION ( 'NONE',  ( 0.0000000000000000000, 1.000000000000000000, 0.0000000000000000000 ) ) ;
#253 = VECTOR ( 'NONE', #252, 1000.000000000000000 ) ;
#254 = CARTESIAN_POINT ( 'NONE',  ( -5.009326287108706300E-010, 2.412507003500041800, 4.000000000000000000 ) ) ;
#255 = DIRECTION ( 'NONE',  ( 0.0000000000000000000, 1.000000000000000000, 0.0000000000000000000 ) ) ;
#256 = CARTESIAN_POINT ( 'NONE',  ( -5.009326287108706300E-010, -9.999999996500434900, 0.0000000000000000000 ) ) ;
#257 = AXIS2_PLACEMENT_3D ( 'NONE', #256, #255, #249 ) ;
#258 = DIRECTION ( 'NONE',  ( 1.224606353612350900E-016, 0.0000000000000000000, -1.000000000000000000 ) ) ;
#259 = DIRECTION ( 'NONE',  ( 1.000000000000000000, 0.0000000000000000000, 1.224606353822377300E-016 ) ) ;
#260 = AXIS2_PLACEMENT_3D ( 'NONE', #265, #259, #258 ) ;
#261 = CIRCLE ( 'NONE', #260, 2.000000000000000000 ) ;
#262 = TOROIDAL_SURFACE ( 'NONE', #244, 8.144382887986841600, 2.000000000000000000 ) ;
#263 = FACE_OUTER_BOUND ( 'NONE', #169, .T. ) ;
#264 = CARTESIAN_POINT ( 'NONE',  ( -5.009321388683291000E-010, 3.499565220943523500E-009, -4.000000000000000000 ) ) ;
#265 = CARTESIAN_POINT ( 'NONE',  ( -5.009316313445673700E-010, -1.999999996500435400, -8.144382887986841600 ) ) ;
#266 = FACE_OUTER_BOUND ( 'NONE', #180, .T. ) ;
#267 = TOROIDAL_SURFACE ( 'NONE', #281, 8.144382887986841600, 2.000000000000000000 ) ;
#268 = CARTESIAN_POINT ( 'NONE',  ( -5.009326287108706300E-010, -1.999999996500435400, 0.0000000000000000000 ) ) ;
#269 = DIRECTION ( 'NONE',  ( 0.0000000000000000000, 0.0000000000000000000, 1.000000000000000000 ) ) ;
#270 = CARTESIAN_POINT ( 'NONE',  ( -5.009326287108706300E-010, 3.499565220943523500E-009, 8.144382887986829200 ) ) ;
#271 = CIRCLE ( 'NONE', #284, 2.000000000000000000 ) ;
#272 = DIRECTION ( 'NONE',  ( 0.0000000000000000000, 0.0000000000000000000, 1.000000000000000000 ) ) ;
#273 = DIRECTION ( 'NONE',  ( 0.0000000000000000000, 1.000000000000000000, 0.0000000000000000000 ) ) ;
#274 = CARTESIAN_POINT ( 'NONE',  ( -5.009326287108706300E-010, -1.850420100017180500, 0.0000000000000000000 ) ) ;
#275 = AXIS2_PLACEMENT_3D ( 'NONE', #274, #273, #272 ) ;
#276 = CIRCLE ( 'NONE', #275, 10.13878150776375600 ) ;
#277 = PERSON_AND_ORGANIZATION_ROLE ( 'classification_officer' ) ;
#278 = PERSON_AND_ORGANIZATION ( #324, #351 ) ;
#279 = DIRECTION ( 'NONE',  ( 0.0000000000000000000, 0.0000000000000000000, 1.000000000000000000 ) ) ;
#280 = DIRECTION ( 'NONE',  ( 0.0000000000000000000, 1.000000000000000000, 0.0000000000000000000 ) ) ;
#281 = AXIS2_PLACEMENT_3D ( 'NONE', #268, #280, #279 ) ;
#282 = DIRECTION ( 'NONE',  ( -1.000000000000000000, 0.0000000000000000000, 0.0000000000000000000 ) ) ;
#283 = CARTESIAN_POINT ( 'NONE',  ( -5.009326287108706300E-010, -1.999999996500435400, 8.144382887986841600 ) ) ;
#284 = AXIS2_PLACEMENT_3D ( 'NONE', #283, #282, #269 ) ;
#285 = CC_DESIGN_PERSON_AND_ORGANIZATION_ASSIGNMENT ( #278, #277, ( #250 ) ) ;
#286 = DIRECTION ( 'NONE',  ( 0.0000000000000000000, 0.0000000000000000000, 1.000000000000000000 ) ) ;
#287 = AXIS2_PLACEMENT_3D ( 'NONE', #314, #286, #332 ) ;
#288 = ADVANCED_BREP_SHAPE_REPRESENTATION ( 'C-30-RK-2320-ÃÞÌ«ÙÄ', ( #103, #287 ), #289 ) ;
#289 =( GEOMETRIC_REPRESENTATION_CONTEXT ( 3 ) GLOBAL_UNCERTAINTY_ASSIGNED_CONTEXT ( ( #344 ) ) GLOBAL_UNIT_ASSIGNED_CONTEXT ( ( #315, #309, #345 ) ) REPRESENTATION_CONTEXT ( 'NONE', 'WORKASPACE' ) );
#290 = APPROVAL_DATE_TIME ( #291, #297 ) ;
#291 = DATE_AND_TIME ( #292, #293 ) ;
#292 = CALENDAR_DATE ( 2009, 29, 6 ) ;
#293 = LOCAL_TIME ( 11, 45, 39.00000000000000000, #294 ) ;
#294 = COORDINATED_UNIVERSAL_TIME_OFFSET ( 9, 0, .AHEAD. ) ;
#295 = APPROVAL_PERSON_ORGANIZATION ( #299, #297, #296 ) ;
#296 = APPROVAL_ROLE ( '' ) ;
#297 = APPROVAL ( #298, 'UNSPECIFIED' ) ;
#298 = APPROVAL_STATUS ( 'not_yet_approved' ) ;
#299 = PERSON_AND_ORGANIZATION ( #324, #351 ) ;
#300 = LOCAL_TIME ( 11, 45, 39.00000000000000000, #301 ) ;
#301 = COORDINATED_UNIVERSAL_TIME_OFFSET ( 9, 0, .AHEAD. ) ;
#302 = CC_DESIGN_PERSON_AND_ORGANIZATION_ASSIGNMENT ( #352, #303, ( #320 ) ) ;
#303 = PERSON_AND_ORGANIZATION_ROLE ( 'creator' ) ;
#304 = DIRECTION ( 'NONE',  ( 0.0000000000000000000, 0.0000000000000000000, -1.000000000000000000 ) ) ;
#305 = DIRECTION ( 'NONE',  ( 0.0000000000000000000, 0.0000000000000000000, 1.000000000000000000 ) ) ;
#306 = APPLICATION_PROTOCOL_DEFINITION ( 'international standard', 'config_control_design', 1994, #307 ) ;
#307 = APPLICATION_CONTEXT ( 'configuration controlled 3d designs of mechanical parts and assemblies' ) ;
#308 = CIRCLE ( 'NONE', #313, 4.000000000000000000 ) ;
#309 =( NAMED_UNIT ( * ) PLANE_ANGLE_UNIT ( ) SI_UNIT ( $, .RADIAN. ) );
#310 = DIRECTION ( 'NONE',  ( 0.0000000000000000000, 0.0000000000000000000, 1.000000000000000000 ) ) ;
#311 = DIRECTION ( 'NONE',  ( 0.0000000000000000000, 1.000000000000000000, 0.0000000000000000000 ) ) ;
#312 = CARTESIAN_POINT ( 'NONE',  ( -5.009326287108706300E-010, 3.499565220943523500E-009, 0.0000000000000000000 ) ) ;
#313 = AXIS2_PLACEMENT_3D ( 'NONE', #312, #311, #310 ) ;
#314 = CARTESIAN_POINT ( 'NONE',  ( 0.0000000000000000000, 0.0000000000000000000, 0.0000000000000000000 ) ) ;
#315 =( LENGTH_UNIT ( ) NAMED_UNIT ( * ) SI_UNIT ( .MILLI., .METRE. ) );
#316 = DIRECTION ( 'NONE',  ( 0.0000000000000000000, -1.000000000000000000, 0.0000000000000000000 ) ) ;
#317 = APPROVAL ( #318, 'UNSPECIFIED' ) ;
#318 = APPROVAL_STATUS ( 'not_yet_approved' ) ;
#319 = PERSON_AND_ORGANIZATION ( #324, #351 ) ;
#320 = PRODUCT_DEFINITION ( 'UNKNOWN', '', #346, #321 ) ;
#321 = DESIGN_CONTEXT ( 'detailed design', #333, 'design' ) ;
#322 = APPLICATION_PROTOCOL_DEFINITION ( 'international standard', 'config_control_design', 1994, #333 ) ;
#323 = FACE_OUTER_BOUND ( 'NONE', #192, .T. ) ;
#324 = PERSON ( 'UNSPECIFIED', 'UNSPECIFIED', 'UNSPECIFIED', ('UNSPECIFIED'), ('UNSPECIFIED'), ('UNSPECIFIED') ) ;
#325 = CC_DESIGN_PERSON_AND_ORGANIZATION_ASSIGNMENT ( #327, #326, ( #346 ) ) ;
#326 = PERSON_AND_ORGANIZATION_ROLE ( 'creator' ) ;
#327 = PERSON_AND_ORGANIZATION ( #324, #351 ) ;
#328 = CC_DESIGN_APPROVAL ( #297, ( #346 ) ) ;
#329 = PLANE ( 'NONE',  #338 ) ;
#330 = CARTESIAN_POINT ( 'NONE',  ( 8.144382887485896600, 3.499565220943523500E-009, 0.0000000000000000000 ) ) ;
#331 = AXIS2_PLACEMENT_3D ( 'NONE', #340, #339, #305 ) ;
#332 = DIRECTION ( 'NONE',  ( 1.000000000000000000, 0.0000000000000000000, 0.0000000000000000000 ) ) ;
#333 = APPLICATION_CONTEXT ( 'configuration controlled 3d designs of mechanical parts and assemblies' ) ;
#334 = CC_DESIGN_PERSON_AND_ORGANIZATION_ASSIGNMENT ( #336, #335, ( #342 ) ) ;
#335 = PERSON_AND_ORGANIZATION_ROLE ( 'design_owner' ) ;
#336 = PERSON_AND_ORGANIZATION ( #324, #351 ) ;
#337 = FACE_BOUND ( 'NONE', #188, .T. ) ;
#338 = AXIS2_PLACEMENT_3D ( 'NONE', #330, #316, #304 ) ;
#339 = DIRECTION ( 'NONE',  ( 0.0000000000000000000, 1.000000000000000000, 0.0000000000000000000 ) ) ;
#340 = CARTESIAN_POINT ( 'NONE',  ( -5.009326287108706300E-010, 3.499565220943523500E-009, 0.0000000000000000000 ) ) ;
#341 = CIRCLE ( 'NONE', #331, 8.144382887986829200 ) ;
#342 = PRODUCT ( 'C-30-RK-2320-ÃÞÌ«ÙÄ', 'C-30-RK-2320-ÃÞÌ«ÙÄ', '', ( #343 ) ) ;
#343 = MECHANICAL_CONTEXT ( 'NONE', #307, 'mechanical' ) ;
#344 = UNCERTAINTY_MEASURE_WITH_UNIT (LENGTH_MEASURE( 1.000000000000000100E-005 ), #315, 'distance_accuracy_value', 'NONE');
#345 =( NAMED_UNIT ( * ) SI_UNIT ( $, .STERADIAN. ) SOLID_ANGLE_UNIT ( ) );
#346 = PRODUCT_DEFINITION_FORMATION_WITH_SPECIFIED_SOURCE ( 'ANY', '', #342, .NOT_KNOWN. ) ;
#347 = CC_DESIGN_DATE_AND_TIME_ASSIGNMENT ( #349, #348, ( #320 ) ) ;
#348 = DATE_TIME_ROLE ( 'creation_date' ) ;
#349 = DATE_AND_TIME ( #350, #300 ) ;
#350 = CALENDAR_DATE ( 2009, 29, 6 ) ;
#351 = ORGANIZATION ( 'UNSPECIFIED', 'UNSPECIFIED', '' ) ;
#352 = PERSON_AND_ORGANIZATION ( #324, #351 ) ;
#353 = CC_DESIGN_APPROVAL ( #317, ( #320 ) ) ;
#354 = APPROVAL_DATE_TIME ( #355, #317 ) ;
#355 = DATE_AND_TIME ( #356, #357 ) ;
#356 = CALENDAR_DATE ( 2009, 29, 6 ) ;
#357 = LOCAL_TIME ( 11, 45, 39.00000000000000000, #358 ) ;
#358 = COORDINATED_UNIVERSAL_TIME_OFFSET ( 9, 0, .AHEAD. ) ;
#359 = APPROVAL_PERSON_ORGANIZATION ( #319, #317, #360 ) ;
#360 = APPROVAL_ROLE ( '' ) ;
#361 = COORDINATED_UNIVERSAL_TIME_OFFSET ( 9, 0, .AHEAD. ) ;
#362 = CALENDAR_DATE ( 2009, 29, 6 ) ;
#363 = CC_DESIGN_APPROVAL ( #371, ( #250 ) ) ;
#364 = APPROVAL_DATE_TIME ( #365, #371 ) ;
#365 = DATE_AND_TIME ( #366, #367 ) ;
#366 = CALENDAR_DATE ( 2009, 29, 6 ) ;
#367 = LOCAL_TIME ( 11, 45, 39.00000000000000000, #368 ) ;
#368 = COORDINATED_UNIVERSAL_TIME_OFFSET ( 9, 0, .AHEAD. ) ;
#369 = APPROVAL_PERSON_ORGANIZATION ( #373, #371, #370 ) ;
#370 = APPROVAL_ROLE ( '' ) ;
#371 = APPROVAL ( #372, 'UNSPECIFIED' ) ;
#372 = APPROVAL_STATUS ( 'not_yet_approved' ) ;
#373 = PERSON_AND_ORGANIZATION ( #324, #351 ) ;
#374 = LOCAL_TIME ( 11, 45, 39.00000000000000000, #361 ) ;
#375 = CC_DESIGN_DATE_AND_TIME_ASSIGNMENT ( #377, #376, ( #250 ) ) ;
#376 = DATE_TIME_ROLE ( 'classification_date' ) ;
#377 = DATE_AND_TIME ( #362, #374 ) ;
#378 = CC_DESIGN_SECURITY_CLASSIFICATION ( #250, ( #346 ) ) ;
#379 = SHAPE_DEFINITION_REPRESENTATION ( #381, #288 ) ;
#380 = PRODUCT_RELATED_PRODUCT_CATEGORY ( 'detail', '', ( #342 ) ) ;
#381 = PRODUCT_DEFINITION_SHAPE ( 'NONE', 'NONE',  #320 ) ;
ENDSEC;
END-ISO-10303-21;
