ISO-10303-21;
HEADER;
FILE_DESCRIPTION (( 'STEP AP203' ),
    '1' );
FILE_NAME ('C-30-RK-2320-gray.STEP',
    '2009-06-29T02:44:39',
    ( '11sw' ),
    ( '^LQ»¢®ïÐ' ),
    'SwSTEP 2.0',
    'SolidWorks 2007',
    '' );
FILE_SCHEMA (( 'CONFIG_CONTROL_DESIGN' ));
ENDSEC;

DATA;
#1 = ORIENTED_EDGE ( 'NONE', *, *, #98, .T. ) ;
#2 = ORIENTED_EDGE ( 'NONE', *, *, #120, .F. ) ;
#3 = ORIENTED_EDGE ( 'NONE', *, *, #18, .F. ) ;
#4 = EDGE_LOOP ( 'NONE', ( #15, #5 ) ) ;
#5 = ORIENTED_EDGE ( 'NONE', *, *, #78, .T. ) ;
#6 = EDGE_CURVE ( 'NONE', #61, #44, #113, .T. ) ;
#7 = ORIENTED_EDGE ( 'NONE', *, *, #23, .F. ) ;
#8 = ADVANCED_FACE ( 'NONE', ( #114 ), #106, .T. ) ;
#9 = EDGE_LOOP ( 'NONE', ( #74, #73, #46, #62 ) ) ;
#10 = ADVANCED_FACE ( 'NONE', ( #122 ), #128, .T. ) ;
#11 = ADVANCED_FACE ( 'NONE', ( #129, #109 ), #108, .F. ) ;
#12 = ORIENTED_EDGE ( 'NONE', *, *, #99, .F. ) ;
#13 = ADVANCED_FACE ( 'NONE', ( #134 ), #167, .T. ) ;
#14 = EDGE_LOOP ( 'NONE', ( #3, #2, #28, #29 ) ) ;
#15 = ORIENTED_EDGE ( 'NONE', *, *, #6, .T. ) ;
#16 = ORIENTED_EDGE ( 'NONE', *, *, #45, .F. ) ;
#17 = VERTEX_POINT ( 'NONE', #146 ) ;
#18 = EDGE_CURVE ( 'NONE', #76, #17, #133, .T. ) ;
#19 = VERTEX_POINT ( 'NONE', #164 ) ;
#20 = ORIENTED_EDGE ( 'NONE', *, *, #25, .T. ) ;
#21 = EDGE_LOOP ( 'NONE', ( #60, #20, #42, #7 ) ) ;
#22 = EDGE_LOOP ( 'NONE', ( #70, #71, #55, #57 ) ) ;
#23 = EDGE_CURVE ( 'NONE', #61, #41, #163, .T. ) ;
#24 = EDGE_CURVE ( 'NONE', #26, #41, #137, .T. ) ;
#25 = EDGE_CURVE ( 'NONE', #44, #26, #138, .T. ) ;
#26 = VERTEX_POINT ( 'NONE', #172 ) ;
#27 = CLOSED_SHELL ( 'NONE', ( #8, #59, #40, #64, #10, #91, #88, #95, #65, #11, #13 ) ) ;
#28 = ORIENTED_EDGE ( 'NONE', *, *, #43, .T. ) ;
#29 = ORIENTED_EDGE ( 'NONE', *, *, #99, .T. ) ;
#30 = ORIENTED_EDGE ( 'NONE', *, *, #25, .F. ) ;
#31 = EDGE_LOOP ( 'NONE', ( #30, #66, #87, #1 ) ) ;
#32 = ORIENTED_EDGE ( 'NONE', *, *, #47, .T. ) ;
#33 = EDGE_LOOP ( 'NONE', ( #72, #63, #48, #58 ) ) ;
#34 = EDGE_LOOP ( 'NONE', ( #35, #105, #100, #92 ) ) ;
#35 = ORIENTED_EDGE ( 'NONE', *, *, #39, .F. ) ;
#36 = EDGE_CURVE ( 'NONE', #76, #37, #171, .T. ) ;
#37 = VERTEX_POINT ( 'NONE', #158 ) ;
#38 = EDGE_CURVE ( 'NONE', #37, #56, #156, .T. ) ;
#39 = EDGE_CURVE ( 'NONE', #77, #56, #151, .T. ) ;
#40 = ADVANCED_FACE ( 'NONE', ( #330 ), #307, .F. ) ;
#41 = VERTEX_POINT ( 'NONE', #361 ) ;
#42 = ORIENTED_EDGE ( 'NONE', *, *, #24, .T. ) ;
#43 = EDGE_CURVE ( 'NONE', #77, #19, #360, .T. ) ;
#44 = VERTEX_POINT ( 'NONE', #179 ) ;
#45 = EDGE_CURVE ( 'NONE', #17, #19, #178, .T. ) ;
#46 = ORIENTED_EDGE ( 'NONE', *, *, #45, .T. ) ;
#47 = EDGE_CURVE ( 'NONE', #51, #52, #214, .T. ) ;
#48 = ORIENTED_EDGE ( 'NONE', *, *, #53, .T. ) ;
#49 = VERTEX_POINT ( 'NONE', #209 ) ;
#50 = EDGE_CURVE ( 'NONE', #51, #49, #208, .T. ) ;
#51 = VERTEX_POINT ( 'NONE', #204 ) ;
#52 = VERTEX_POINT ( 'NONE', #203 ) ;
#53 = EDGE_CURVE ( 'NONE', #49, #54, #249, .T. ) ;
#54 = VERTEX_POINT ( 'NONE', #245 ) ;
#55 = ORIENTED_EDGE ( 'NONE', *, *, #38, .F. ) ;
#56 = VERTEX_POINT ( 'NONE', #244 ) ;
#57 = ORIENTED_EDGE ( 'NONE', *, *, #36, .F. ) ;
#58 = ORIENTED_EDGE ( 'NONE', *, *, #69, .F. ) ;
#59 = ADVANCED_FACE ( 'NONE', ( #243 ), #241, .F. ) ;
#60 = ORIENTED_EDGE ( 'NONE', *, *, #78, .F. ) ;
#61 = VERTEX_POINT ( 'NONE', #237 ) ;
#62 = ORIENTED_EDGE ( 'NONE', *, *, #43, .F. ) ;
#63 = ORIENTED_EDGE ( 'NONE', *, *, #50, .T. ) ;
#64 = ADVANCED_FACE ( 'NONE', ( #236 ), #233, .T. ) ;
#65 = ADVANCED_FACE ( 'NONE', ( #229 ), #228, .F. ) ;
#66 = ORIENTED_EDGE ( 'NONE', *, *, #6, .F. ) ;
#67 = ORIENTED_EDGE ( 'NONE', *, *, #121, .T. ) ;
#68 = MANIFOLD_SOLID_BREP ( 'NONE', #27 ) ;
#69 = EDGE_CURVE ( 'NONE', #52, #54, #227, .T. ) ;
#70 = ORIENTED_EDGE ( 'NONE', *, *, #75, .T. ) ;
#71 = ORIENTED_EDGE ( 'NONE', *, *, #39, .T. ) ;
#72 = ORIENTED_EDGE ( 'NONE', *, *, #47, .F. ) ;
#73 = ORIENTED_EDGE ( 'NONE', *, *, #18, .T. ) ;
#74 = ORIENTED_EDGE ( 'NONE', *, *, #75, .F. ) ;
#75 = EDGE_CURVE ( 'NONE', #76, #77, #220, .T. ) ;
#76 = VERTEX_POINT ( 'NONE', #356 ) ;
#77 = VERTEX_POINT ( 'NONE', #355 ) ;
#78 = EDGE_CURVE ( 'NONE', #44, #61, #354, .T. ) ;
#79 = EDGE_LOOP ( 'NONE', ( #12, #16 ) ) ;
#80 = ORIENTED_EDGE ( 'NONE', *, *, #24, .F. ) ;
#81 = EDGE_LOOP ( 'NONE', ( #67, #32 ) ) ;
#82 = ORIENTED_EDGE ( 'NONE', *, *, #38, .T. ) ;
#83 = ORIENTED_EDGE ( 'NONE', *, *, #93, .T. ) ;
#84 = ORIENTED_EDGE ( 'NONE', *, *, #85, .F. ) ;
#85 = EDGE_CURVE ( 'NONE', #54, #49, #349, .T. ) ;
#86 = ORIENTED_EDGE ( 'NONE', *, *, #53, .F. ) ;
#87 = ORIENTED_EDGE ( 'NONE', *, *, #23, .T. ) ;
#88 = ADVANCED_FACE ( 'NONE', ( #344 ), #343, .F. ) ;
#89 = EDGE_LOOP ( 'NONE', ( #90, #115, #107, #104 ) ) ;
#90 = ORIENTED_EDGE ( 'NONE', *, *, #50, .F. ) ;
#91 = ADVANCED_FACE ( 'NONE', ( #337, #336 ), #342, .F. ) ;
#92 = ORIENTED_EDGE ( 'NONE', *, *, #93, .F. ) ;
#93 = EDGE_CURVE ( 'NONE', #56, #37, #335, .T. ) ;
#94 = EDGE_LOOP ( 'NONE', ( #84, #86 ) ) ;
#95 = ADVANCED_FACE ( 'NONE', ( #197, #196 ), #195, .F. ) ;
#96 = EDGE_LOOP ( 'NONE', ( #97, #80 ) ) ;
#97 = ORIENTED_EDGE ( 'NONE', *, *, #98, .F. ) ;
#98 = EDGE_CURVE ( 'NONE', #41, #26, #190, .T. ) ;
#99 = EDGE_CURVE ( 'NONE', #19, #17, #185, .T. ) ;
#100 = ORIENTED_EDGE ( 'NONE', *, *, #36, .T. ) ;
#101 = EDGE_LOOP ( 'NONE', ( #82, #83 ) ) ;
#102 = CARTESIAN_POINT ( 'NONE',  ( 1.999999999499068700, -19.99999999650043500, 0.0000000000000000000 ) ) ;
#103 = AXIS2_PLACEMENT_3D ( 'NONE', #102, #147, #173 ) ;
#104 = ORIENTED_EDGE ( 'NONE', *, *, #85, .T. ) ;
#105 = ORIENTED_EDGE ( 'NONE', *, *, #120, .T. ) ;
#106 = CONICAL_SURFACE ( 'NONE', #126, 11.50000000000000000, 0.07485984771076685500 ) ;
#107 = ORIENTED_EDGE ( 'NONE', *, *, #69, .T. ) ;
#108 = PLANE ( 'NONE',  #103 ) ;
#109 = FACE_BOUND ( 'NONE', #4, .T. ) ;
#110 = DIRECTION ( 'NONE',  ( 0.0000000000000000000, 0.0000000000000000000, 1.000000000000000000 ) ) ;
#111 = DIRECTION ( 'NONE',  ( 0.0000000000000000000, 1.000000000000000000, 0.0000000000000000000 ) ) ;
#112 = CARTESIAN_POINT ( 'NONE',  ( -5.009326287108706300E-010, -1.999999996500435400, 0.0000000000000000000 ) ) ;
#113 = CIRCLE ( 'NONE', #118, 2.000000000000001300 ) ;
#114 = FACE_OUTER_BOUND ( 'NONE', #9, .T. ) ;
#115 = ORIENTED_EDGE ( 'NONE', *, *, #121, .F. ) ;
#116 = CARTESIAN_POINT ( 'NONE',  ( -5.009326287108706300E-010, -19.99999999650043500, 0.0000000000000000000 ) ) ;
#117 = DIRECTION ( 'NONE',  ( 0.0000000000000000000, 0.0000000000000000000, 1.000000000000000000 ) ) ;
#118 = AXIS2_PLACEMENT_3D ( 'NONE', #116, #119, #117 ) ;
#119 = DIRECTION ( 'NONE',  ( 0.0000000000000000000, 1.000000000000000000, 0.0000000000000000000 ) ) ;
#120 = EDGE_CURVE ( 'NONE', #77, #76, #376, .T. ) ;
#121 = EDGE_CURVE ( 'NONE', #52, #51, #372, .T. ) ;
#122 = FACE_OUTER_BOUND ( 'NONE', #34, .T. ) ;
#123 = DIRECTION ( 'NONE',  ( 0.0000000000000000000, 0.0000000000000000000, -1.000000000000000000 ) ) ;
#124 = DIRECTION ( 'NONE',  ( 0.0000000000000000000, -1.000000000000000000, 0.0000000000000000000 ) ) ;
#125 = CARTESIAN_POINT ( 'NONE',  ( -5.009326287108706300E-010, -19.99999999650043500, 0.0000000000000000000 ) ) ;
#126 = AXIS2_PLACEMENT_3D ( 'NONE', #125, #124, #123 ) ;
#127 = AXIS2_PLACEMENT_3D ( 'NONE', #112, #111, #110 ) ;
#128 = TOROIDAL_SURFACE ( 'NONE', #127, 8.144382887986841600, 2.000000000000000000 ) ;
#129 = FACE_OUTER_BOUND ( 'NONE', #79, .T. ) ;
#130 = DIRECTION ( 'NONE',  ( 0.0000000000000000000, 0.0000000000000000000, -1.000000000000000000 ) ) ;
#131 = VECTOR ( 'NONE', #165, 999.9999999999998900 ) ;
#132 = CARTESIAN_POINT ( 'NONE',  ( -5.009312204135637400E-010, -19.99999999650043500, 11.50000000000000000 ) ) ;
#133 = LINE ( 'NONE', #132, #131 ) ;
#134 = FACE_OUTER_BOUND ( 'NONE', #14, .T. ) ;
#135 = CARTESIAN_POINT ( 'NONE',  ( -5.009326287108706300E-010, -9.999999996500434900, 0.0000000000000000000 ) ) ;
#136 = AXIS2_PLACEMENT_3D ( 'NONE', #135, #144, #143 ) ;
#137 = CIRCLE ( 'NONE', #136, 2.000000000000000000 ) ;
#138 = LINE ( 'NONE', #142, #141 ) ;
#139 = VECTOR ( 'NONE', #161, 1000.000000000000000 ) ;
#140 = DIRECTION ( 'NONE',  ( 0.0000000000000000000, 1.000000000000000000, 0.0000000000000000000 ) ) ;
#141 = VECTOR ( 'NONE', #140, 1000.000000000000000 ) ;
#142 = CARTESIAN_POINT ( 'NONE',  ( -5.009323837895998700E-010, 2.412507003500041800, -2.000000000000000900 ) ) ;
#143 = DIRECTION ( 'NONE',  ( 0.0000000000000000000, 0.0000000000000000000, 1.000000000000000000 ) ) ;
#144 = DIRECTION ( 'NONE',  ( 0.0000000000000000000, 1.000000000000000000, 0.0000000000000000000 ) ) ;
#145 = CARTESIAN_POINT ( 'NONE',  ( -5.009326287108706300E-010, -19.99999999650043500, 0.0000000000000000000 ) ) ;
#146 = CARTESIAN_POINT ( 'NONE',  ( -5.009312204135637400E-010, -19.99999999650043500, 11.50000000000000000 ) ) ;
#147 = DIRECTION ( 'NONE',  ( 0.0000000000000000000, 1.000000000000000000, 0.0000000000000000000 ) ) ;
#148 = DIRECTION ( 'NONE',  ( 1.224606353612350900E-016, 0.0000000000000000000, -1.000000000000000000 ) ) ;
#149 = DIRECTION ( 'NONE',  ( 1.000000000000000000, 0.0000000000000000000, 1.224606353822377300E-016 ) ) ;
#150 = AXIS2_PLACEMENT_3D ( 'NONE', #157, #149, #148 ) ;
#151 = CIRCLE ( 'NONE', #150, 2.000000000000000000 ) ;
#152 = DIRECTION ( 'NONE',  ( 0.0000000000000000000, 0.0000000000000000000, 1.000000000000000000 ) ) ;
#153 = DIRECTION ( 'NONE',  ( 0.0000000000000000000, 1.000000000000000000, 0.0000000000000000000 ) ) ;
#154 = CARTESIAN_POINT ( 'NONE',  ( -5.009326287108706300E-010, 3.499565220943523500E-009, 0.0000000000000000000 ) ) ;
#155 = AXIS2_PLACEMENT_3D ( 'NONE', #154, #153, #152 ) ;
#156 = CIRCLE ( 'NONE', #155, 8.144382887986829200 ) ;
#157 = CARTESIAN_POINT ( 'NONE',  ( -5.009316313445673700E-010, -1.999999996500435400, -8.144382887986841600 ) ) ;
#158 = CARTESIAN_POINT ( 'NONE',  ( -5.009326287108706300E-010, 3.499565220943523500E-009, 8.144382887986829200 ) ) ;
#159 = DIRECTION ( 'NONE',  ( 0.0000000000000000000, 0.0000000000000000000, 1.000000000000000000 ) ) ;
#160 = AXIS2_PLACEMENT_3D ( 'NONE', #145, #166, #130 ) ;
#161 = DIRECTION ( 'NONE',  ( 0.0000000000000000000, 1.000000000000000000, 0.0000000000000000000 ) ) ;
#162 = CARTESIAN_POINT ( 'NONE',  ( -5.009326287108706300E-010, 2.412507003500041800, 2.000000000000000900 ) ) ;
#163 = LINE ( 'NONE', #162, #139 ) ;
#164 = CARTESIAN_POINT ( 'NONE',  ( -5.009326287108706300E-010, -19.99999999650043500, -11.50000000000000000 ) ) ;
#165 = DIRECTION ( 'NONE',  ( 9.158824581875202100E-018, -0.9971993098884565100, 0.07478994824163423500 ) ) ;
#166 = DIRECTION ( 'NONE',  ( 0.0000000000000000000, -1.000000000000000000, 0.0000000000000000000 ) ) ;
#167 = CONICAL_SURFACE ( 'NONE', #160, 11.50000000000000000, 0.07485984771076685500 ) ;
#168 = DIRECTION ( 'NONE',  ( -1.000000000000000000, 0.0000000000000000000, 0.0000000000000000000 ) ) ;
#169 = CARTESIAN_POINT ( 'NONE',  ( -5.009326287108706300E-010, -1.999999996500435400, 8.144382887986841600 ) ) ;
#170 = AXIS2_PLACEMENT_3D ( 'NONE', #169, #168, #159 ) ;
#171 = CIRCLE ( 'NONE', #170, 2.000000000000000000 ) ;
#172 = CARTESIAN_POINT ( 'NONE',  ( -5.009323837895998700E-010, -9.999999996500434900, -2.000000000000000000 ) ) ;
#173 = DIRECTION ( 'NONE',  ( 0.0000000000000000000, 0.0000000000000000000, 1.000000000000000000 ) ) ;
#174 = DIRECTION ( 'NONE',  ( 0.0000000000000000000, 0.0000000000000000000, 1.000000000000000000 ) ) ;
#175 = DIRECTION ( 'NONE',  ( 0.0000000000000000000, 1.000000000000000000, 0.0000000000000000000 ) ) ;
#176 = CARTESIAN_POINT ( 'NONE',  ( -5.009326287108706300E-010, -19.99999999650043500, 0.0000000000000000000 ) ) ;
#177 = AXIS2_PLACEMENT_3D ( 'NONE', #176, #175, #174 ) ;
#178 = CIRCLE ( 'NONE', #177, 11.50000000000000000 ) ;
#179 = CARTESIAN_POINT ( 'NONE',  ( -5.009323837895998700E-010, -19.99999999650043500, -2.000000000000001300 ) ) ;
#180 = CARTESIAN_POINT ( 'NONE',  ( -5.009326287108706300E-010, -1.850420100017180500, 0.0000000000000000000 ) ) ;
#181 = DIRECTION ( 'NONE',  ( 0.0000000000000000000, 0.0000000000000000000, 1.000000000000000000 ) ) ;
#182 = DIRECTION ( 'NONE',  ( 0.0000000000000000000, 1.000000000000000000, 0.0000000000000000000 ) ) ;
#183 = CARTESIAN_POINT ( 'NONE',  ( -5.009326287108706300E-010, -19.99999999650043500, 0.0000000000000000000 ) ) ;
#184 = AXIS2_PLACEMENT_3D ( 'NONE', #183, #182, #181 ) ;
#185 = CIRCLE ( 'NONE', #184, 11.50000000000000000 ) ;
#186 = DIRECTION ( 'NONE',  ( 0.0000000000000000000, 0.0000000000000000000, 1.000000000000000000 ) ) ;
#187 = DIRECTION ( 'NONE',  ( 0.0000000000000000000, 1.000000000000000000, 0.0000000000000000000 ) ) ;
#188 = CARTESIAN_POINT ( 'NONE',  ( -5.009326287108706300E-010, -9.999999996500434900, 0.0000000000000000000 ) ) ;
#189 = AXIS2_PLACEMENT_3D ( 'NONE', #188, #187, #186 ) ;
#190 = CIRCLE ( 'NONE', #189, 2.000000000000000000 ) ;
#191 = DIRECTION ( 'NONE',  ( 0.0000000000000000000, 0.0000000000000000000, -1.000000000000000000 ) ) ;
#192 = DIRECTION ( 'NONE',  ( 0.0000000000000000000, -1.000000000000000000, 0.0000000000000000000 ) ) ;
#193 = CARTESIAN_POINT ( 'NONE',  ( 3.999999999499067400, -9.999999996500434900, 0.0000000000000000000 ) ) ;
#194 = AXIS2_PLACEMENT_3D ( 'NONE', #193, #192, #191 ) ;
#195 = PLANE ( 'NONE',  #194 ) ;
#196 = FACE_OUTER_BOUND ( 'NONE', #81, .T. ) ;
#197 = FACE_BOUND ( 'NONE', #96, .T. ) ;
#198 = DIRECTION ( 'NONE',  ( 0.0000000000000000000, 0.0000000000000000000, 1.000000000000000000 ) ) ;
#199 = DIRECTION ( 'NONE',  ( 0.0000000000000000000, 1.000000000000000000, 0.0000000000000000000 ) ) ;
#200 = CARTESIAN_POINT ( 'NONE',  ( -5.009326287108706300E-010, 3.499565220943523500E-009, 0.0000000000000000000 ) ) ;
#201 = AXIS2_PLACEMENT_3D ( 'NONE', #200, #199, #198 ) ;
#202 = CARTESIAN_POINT ( 'NONE',  ( -5.009326287108706300E-010, 3.499565220943523500E-009, 0.0000000000000000000 ) ) ;
#203 = CARTESIAN_POINT ( 'NONE',  ( -5.009326287108706300E-010, -9.999999996500434900, 4.000000000000000000 ) ) ;
#204 = CARTESIAN_POINT ( 'NONE',  ( -5.009321388683291000E-010, -9.999999996500434900, -4.000000000000000000 ) ) ;
#205 = DIRECTION ( 'NONE',  ( 0.0000000000000000000, 1.000000000000000000, 0.0000000000000000000 ) ) ;
#206 = VECTOR ( 'NONE', #205, 1000.000000000000000 ) ;
#207 = CARTESIAN_POINT ( 'NONE',  ( -5.009321388683291000E-010, 2.412507003500041800, -4.000000000000000000 ) ) ;
#208 = LINE ( 'NONE', #207, #206 ) ;
#209 = CARTESIAN_POINT ( 'NONE',  ( -5.009321388683291000E-010, 3.499565220943523500E-009, -4.000000000000000000 ) ) ;
#210 = DIRECTION ( 'NONE',  ( 0.0000000000000000000, 0.0000000000000000000, 1.000000000000000000 ) ) ;
#211 = DIRECTION ( 'NONE',  ( 0.0000000000000000000, 1.000000000000000000, 0.0000000000000000000 ) ) ;
#212 = CARTESIAN_POINT ( 'NONE',  ( -5.009326287108706300E-010, -9.999999996500434900, 0.0000000000000000000 ) ) ;
#213 = AXIS2_PLACEMENT_3D ( 'NONE', #212, #211, #210 ) ;
#214 = CIRCLE ( 'NONE', #213, 4.000000000000000000 ) ;
#215 = DIRECTION ( 'NONE',  ( 1.000000000000000000, 0.0000000000000000000, 0.0000000000000000000 ) ) ;
#216 = DIRECTION ( 'NONE',  ( 0.0000000000000000000, 0.0000000000000000000, 1.000000000000000000 ) ) ;
#217 = DIRECTION ( 'NONE',  ( 0.0000000000000000000, 1.000000000000000000, 0.0000000000000000000 ) ) ;
#218 = CARTESIAN_POINT ( 'NONE',  ( -5.009326287108706300E-010, -1.850420100017180500, 0.0000000000000000000 ) ) ;
#219 = AXIS2_PLACEMENT_3D ( 'NONE', #218, #217, #216 ) ;
#220 = CIRCLE ( 'NONE', #219, 10.13878150776375600 ) ;
#221 = DIRECTION ( 'NONE',  ( 0.0000000000000000000, 1.000000000000000000, 0.0000000000000000000 ) ) ;
#222 = VECTOR ( 'NONE', #221, 1000.000000000000000 ) ;
#223 = CARTESIAN_POINT ( 'NONE',  ( -5.009326287108706300E-010, 2.412507003500041800, 4.000000000000000000 ) ) ;
#224 = DIRECTION ( 'NONE',  ( 0.0000000000000000000, 0.0000000000000000000, 1.000000000000000000 ) ) ;
#225 = DIRECTION ( 'NONE',  ( 0.0000000000000000000, 1.000000000000000000, 0.0000000000000000000 ) ) ;
#226 = AXIS2_PLACEMENT_3D ( 'NONE', #234, #225, #224 ) ;
#227 = LINE ( 'NONE', #223, #222 ) ;
#228 = CYLINDRICAL_SURFACE ( 'NONE', #226, 2.000000000000000900 ) ;
#229 = FACE_OUTER_BOUND ( 'NONE', #31, .T. ) ;
#230 = DIRECTION ( 'NONE',  ( 0.0000000000000000000, 0.0000000000000000000, 1.000000000000000000 ) ) ;
#231 = DIRECTION ( 'NONE',  ( 0.0000000000000000000, 1.000000000000000000, 0.0000000000000000000 ) ) ;
#232 = AXIS2_PLACEMENT_3D ( 'NONE', #235, #231, #230 ) ;
#233 = TOROIDAL_SURFACE ( 'NONE', #232, 8.144382887986841600, 2.000000000000000000 ) ;
#234 = CARTESIAN_POINT ( 'NONE',  ( -5.009326287108706300E-010, 2.412507003500041800, 0.0000000000000000000 ) ) ;
#235 = CARTESIAN_POINT ( 'NONE',  ( -5.009326287108706300E-010, -1.999999996500435400, 0.0000000000000000000 ) ) ;
#236 = FACE_OUTER_BOUND ( 'NONE', #22, .T. ) ;
#237 = CARTESIAN_POINT ( 'NONE',  ( -5.009326287108706300E-010, -19.99999999650043500, 2.000000000000001300 ) ) ;
#238 = DIRECTION ( 'NONE',  ( 0.0000000000000000000, 0.0000000000000000000, 1.000000000000000000 ) ) ;
#239 = DIRECTION ( 'NONE',  ( 0.0000000000000000000, 1.000000000000000000, 0.0000000000000000000 ) ) ;
#240 = AXIS2_PLACEMENT_3D ( 'NONE', #242, #239, #238 ) ;
#241 = CYLINDRICAL_SURFACE ( 'NONE', #240, 2.000000000000000900 ) ;
#242 = CARTESIAN_POINT ( 'NONE',  ( -5.009326287108706300E-010, 2.412507003500041800, 0.0000000000000000000 ) ) ;
#243 = FACE_OUTER_BOUND ( 'NONE', #21, .T. ) ;
#244 = CARTESIAN_POINT ( 'NONE',  ( -5.009315092269063000E-010, 3.499565220943523500E-009, -8.144382887986829200 ) ) ;
#245 = CARTESIAN_POINT ( 'NONE',  ( -5.009326287108706300E-010, 3.499565220943523500E-009, 4.000000000000000000 ) ) ;
#246 = DIRECTION ( 'NONE',  ( 0.0000000000000000000, 0.0000000000000000000, 1.000000000000000000 ) ) ;
#247 = DIRECTION ( 'NONE',  ( 0.0000000000000000000, 1.000000000000000000, 0.0000000000000000000 ) ) ;
#248 = AXIS2_PLACEMENT_3D ( 'NONE', #202, #247, #246 ) ;
#249 = CIRCLE ( 'NONE', #248, 4.000000000000000000 ) ;
#250 = PERSON_AND_ORGANIZATION ( #325, #324 ) ;
#251 = CC_DESIGN_DATE_AND_TIME_ASSIGNMENT ( #253, #252, ( #260 ) ) ;
#252 = DATE_TIME_ROLE ( 'classification_date' ) ;
#253 = DATE_AND_TIME ( #254, #255 ) ;
#254 = CALENDAR_DATE ( 2009, 29, 6 ) ;
#255 = LOCAL_TIME ( 11, 44, 39.00000000000000000, #256 ) ;
#256 = COORDINATED_UNIVERSAL_TIME_OFFSET ( 9, 0, .AHEAD. ) ;
#257 = CC_DESIGN_PERSON_AND_ORGANIZATION_ASSIGNMENT ( #259, #258, ( #260 ) ) ;
#258 = PERSON_AND_ORGANIZATION_ROLE ( 'classification_officer' ) ;
#259 = PERSON_AND_ORGANIZATION ( #325, #324 ) ;
#260 = SECURITY_CLASSIFICATION ( '', '', #261 ) ;
#261 = SECURITY_CLASSIFICATION_LEVEL ( 'unclassified' ) ;
#262 = CC_DESIGN_PERSON_AND_ORGANIZATION_ASSIGNMENT ( #264, #263, ( #279 ) ) ;
#263 = PERSON_AND_ORGANIZATION_ROLE ( 'design_supplier' ) ;
#264 = PERSON_AND_ORGANIZATION ( #325, #324 ) ;
#265 = CC_DESIGN_PERSON_AND_ORGANIZATION_ASSIGNMENT ( #267, #266, ( #279 ) ) ;
#266 = PERSON_AND_ORGANIZATION_ROLE ( 'creator' ) ;
#267 = PERSON_AND_ORGANIZATION ( #325, #324 ) ;
#268 = CC_DESIGN_APPROVAL ( #276, ( #279 ) ) ;
#269 = APPROVAL_DATE_TIME ( #270, #276 ) ;
#270 = DATE_AND_TIME ( #271, #272 ) ;
#271 = CALENDAR_DATE ( 2009, 29, 6 ) ;
#272 = LOCAL_TIME ( 11, 44, 39.00000000000000000, #273 ) ;
#273 = COORDINATED_UNIVERSAL_TIME_OFFSET ( 9, 0, .AHEAD. ) ;
#274 = APPROVAL_PERSON_ORGANIZATION ( #278, #276, #275 ) ;
#275 = APPROVAL_ROLE ( '' ) ;
#276 = APPROVAL ( #277, 'UNSPECIFIED' ) ;
#277 = APPROVAL_STATUS ( 'not_yet_approved' ) ;
#278 = PERSON_AND_ORGANIZATION ( #325, #324 ) ;
#279 = PRODUCT_DEFINITION_FORMATION_WITH_SPECIFIED_SOURCE ( 'ANY', '', #326, .NOT_KNOWN. ) ;
#280 = CC_DESIGN_DATE_AND_TIME_ASSIGNMENT ( #282, #281, ( #317 ) ) ;
#281 = DATE_TIME_ROLE ( 'creation_date' ) ;
#282 = DATE_AND_TIME ( #283, #284 ) ;
#283 = CALENDAR_DATE ( 2009, 29, 6 ) ;
#284 = LOCAL_TIME ( 11, 44, 39.00000000000000000, #285 ) ;
#285 = COORDINATED_UNIVERSAL_TIME_OFFSET ( 9, 0, .AHEAD. ) ;
#286 = CC_DESIGN_PERSON_AND_ORGANIZATION_ASSIGNMENT ( #288, #287, ( #317 ) ) ;
#287 = PERSON_AND_ORGANIZATION_ROLE ( 'creator' ) ;
#288 = PERSON_AND_ORGANIZATION ( #325, #324 ) ;
#289 = CC_DESIGN_APPROVAL ( #314, ( #317 ) ) ;
#290 = APPROVAL_DATE_TIME ( #291, #314 ) ;
#291 = DATE_AND_TIME ( #309, #310 ) ;
#292 = PRODUCT_DEFINITION_SHAPE ( 'NONE', 'NONE',  #317 ) ;
#293 = PRODUCT_RELATED_PRODUCT_CATEGORY ( 'detail', '', ( #326 ) ) ;
#294 = CC_DESIGN_SECURITY_CLASSIFICATION ( #260, ( #279 ) ) ;
#295 = CC_DESIGN_APPROVAL ( #303, ( #260 ) ) ;
#296 = APPROVAL_DATE_TIME ( #297, #303 ) ;
#297 = DATE_AND_TIME ( #298, #299 ) ;
#298 = CALENDAR_DATE ( 2009, 29, 6 ) ;
#299 = LOCAL_TIME ( 11, 44, 39.00000000000000000, #300 ) ;
#300 = COORDINATED_UNIVERSAL_TIME_OFFSET ( 9, 0, .AHEAD. ) ;
#301 = APPROVAL_PERSON_ORGANIZATION ( #250, #303, #302 ) ;
#302 = APPROVAL_ROLE ( '' ) ;
#303 = APPROVAL ( #304, 'UNSPECIFIED' ) ;
#304 = APPROVAL_STATUS ( 'not_yet_approved' ) ;
#305 = DIRECTION ( 'NONE',  ( 0.0000000000000000000, 1.000000000000000000, 0.0000000000000000000 ) ) ;
#306 = AXIS2_PLACEMENT_3D ( 'NONE', #308, #305, #362 ) ;
#307 = CYLINDRICAL_SURFACE ( 'NONE', #306, 4.000000000000000000 ) ;
#308 = CARTESIAN_POINT ( 'NONE',  ( -5.009326287108706300E-010, 2.412507003500041800, 0.0000000000000000000 ) ) ;
#309 = CALENDAR_DATE ( 2009, 29, 6 ) ;
#310 = LOCAL_TIME ( 11, 44, 39.00000000000000000, #311 ) ;
#311 = COORDINATED_UNIVERSAL_TIME_OFFSET ( 9, 0, .AHEAD. ) ;
#312 = APPROVAL_PERSON_ORGANIZATION ( #316, #314, #313 ) ;
#313 = APPROVAL_ROLE ( '' ) ;
#314 = APPROVAL ( #315, 'UNSPECIFIED' ) ;
#315 = APPROVAL_STATUS ( 'not_yet_approved' ) ;
#316 = PERSON_AND_ORGANIZATION ( #325, #324 ) ;
#317 = PRODUCT_DEFINITION ( 'UNKNOWN', '', #279, #318 ) ;
#318 = DESIGN_CONTEXT ( 'detailed design', #320, 'design' ) ;
#319 = APPLICATION_PROTOCOL_DEFINITION ( 'international standard', 'config_control_design', 1994, #320 ) ;
#320 = APPLICATION_CONTEXT ( 'configuration controlled 3d designs of mechanical parts and assemblies' ) ;
#321 = CC_DESIGN_PERSON_AND_ORGANIZATION_ASSIGNMENT ( #323, #322, ( #326 ) ) ;
#322 = PERSON_AND_ORGANIZATION_ROLE ( 'design_owner' ) ;
#323 = PERSON_AND_ORGANIZATION ( #325, #324 ) ;
#324 = ORGANIZATION ( 'UNSPECIFIED', 'UNSPECIFIED', '' ) ;
#325 = PERSON ( 'UNSPECIFIED', 'UNSPECIFIED', 'UNSPECIFIED', ('UNSPECIFIED'), ('UNSPECIFIED'), ('UNSPECIFIED') ) ;
#326 = PRODUCT ( 'C-30-RK-2320-gray', 'C-30-RK-2320-gray', '', ( #327 ) ) ;
#327 = MECHANICAL_CONTEXT ( 'NONE', #329, 'mechanical' ) ;
#328 = APPLICATION_PROTOCOL_DEFINITION ( 'international standard', 'config_control_design', 1994, #329 ) ;
#329 = APPLICATION_CONTEXT ( 'configuration controlled 3d designs of mechanical parts and assemblies' ) ;
#330 = FACE_OUTER_BOUND ( 'NONE', #33, .T. ) ;
#331 = DIRECTION ( 'NONE',  ( 0.0000000000000000000, 0.0000000000000000000, -1.000000000000000000 ) ) ;
#332 = DIRECTION ( 'NONE',  ( 0.0000000000000000000, -1.000000000000000000, 0.0000000000000000000 ) ) ;
#333 = CARTESIAN_POINT ( 'NONE',  ( 8.144382887485896600, 3.499565220943523500E-009, 0.0000000000000000000 ) ) ;
#334 = AXIS2_PLACEMENT_3D ( 'NONE', #333, #332, #331 ) ;
#335 = CIRCLE ( 'NONE', #201, 8.144382887986829200 ) ;
#336 = FACE_OUTER_BOUND ( 'NONE', #101, .T. ) ;
#337 = FACE_BOUND ( 'NONE', #94, .T. ) ;
#338 = DIRECTION ( 'NONE',  ( 0.0000000000000000000, 0.0000000000000000000, 1.000000000000000000 ) ) ;
#339 = DIRECTION ( 'NONE',  ( 0.0000000000000000000, 1.000000000000000000, 0.0000000000000000000 ) ) ;
#340 = CARTESIAN_POINT ( 'NONE',  ( -5.009326287108706300E-010, 2.412507003500041800, 0.0000000000000000000 ) ) ;
#341 = AXIS2_PLACEMENT_3D ( 'NONE', #340, #339, #338 ) ;
#342 = PLANE ( 'NONE',  #334 ) ;
#343 = CYLINDRICAL_SURFACE ( 'NONE', #341, 4.000000000000000000 ) ;
#344 = FACE_OUTER_BOUND ( 'NONE', #89, .T. ) ;
#345 = DIRECTION ( 'NONE',  ( 0.0000000000000000000, 0.0000000000000000000, 1.000000000000000000 ) ) ;
#346 = DIRECTION ( 'NONE',  ( 0.0000000000000000000, 1.000000000000000000, 0.0000000000000000000 ) ) ;
#347 = CARTESIAN_POINT ( 'NONE',  ( -5.009326287108706300E-010, 3.499565220943523500E-009, 0.0000000000000000000 ) ) ;
#348 = AXIS2_PLACEMENT_3D ( 'NONE', #347, #346, #345 ) ;
#349 = CIRCLE ( 'NONE', #348, 4.000000000000000000 ) ;
#350 = DIRECTION ( 'NONE',  ( 0.0000000000000000000, 0.0000000000000000000, 1.000000000000000000 ) ) ;
#351 = DIRECTION ( 'NONE',  ( 0.0000000000000000000, 1.000000000000000000, 0.0000000000000000000 ) ) ;
#352 = CARTESIAN_POINT ( 'NONE',  ( -5.009326287108706300E-010, -19.99999999650043500, 0.0000000000000000000 ) ) ;
#353 = AXIS2_PLACEMENT_3D ( 'NONE', #352, #351, #350 ) ;
#354 = CIRCLE ( 'NONE', #353, 2.000000000000001300 ) ;
#355 = CARTESIAN_POINT ( 'NONE',  ( -5.009313871092451200E-010, -1.850420100017180500, -10.13878150776375400 ) ) ;
#356 = CARTESIAN_POINT ( 'NONE',  ( -5.009326287108706300E-010, -1.850420100017180500, 10.13878150776375400 ) ) ;
#357 = DIRECTION ( 'NONE',  ( 0.0000000000000000000, -0.9971993098884565100, -0.07478994824163423500 ) ) ;
#358 = VECTOR ( 'NONE', #357, 999.9999999999998900 ) ;
#359 = CARTESIAN_POINT ( 'NONE',  ( -5.009326287108706300E-010, -19.99999999650043500, -11.50000000000000000 ) ) ;
#360 = LINE ( 'NONE', #359, #358 ) ;
#361 = CARTESIAN_POINT ( 'NONE',  ( -5.009326287108706300E-010, -9.999999996500434900, 2.000000000000000000 ) ) ;
#362 = DIRECTION ( 'NONE',  ( 0.0000000000000000000, 0.0000000000000000000, 1.000000000000000000 ) ) ;
#363 = UNCERTAINTY_MEASURE_WITH_UNIT (LENGTH_MEASURE( 1.000000000000000100E-005 ), #366, 'distance_accuracy_value', 'NONE');
#364 =( NAMED_UNIT ( * ) SI_UNIT ( $, .STERADIAN. ) SOLID_ANGLE_UNIT ( ) );
#365 =( NAMED_UNIT ( * ) PLANE_ANGLE_UNIT ( ) SI_UNIT ( $, .RADIAN. ) );
#366 =( LENGTH_UNIT ( ) NAMED_UNIT ( * ) SI_UNIT ( .MILLI., .METRE. ) );
#367 = CARTESIAN_POINT ( 'NONE',  ( 0.0000000000000000000, 0.0000000000000000000, 0.0000000000000000000 ) ) ;
#368 = DIRECTION ( 'NONE',  ( 0.0000000000000000000, 0.0000000000000000000, 1.000000000000000000 ) ) ;
#369 = DIRECTION ( 'NONE',  ( 0.0000000000000000000, 1.000000000000000000, 0.0000000000000000000 ) ) ;
#370 = CARTESIAN_POINT ( 'NONE',  ( -5.009326287108706300E-010, -9.999999996500434900, 0.0000000000000000000 ) ) ;
#371 = AXIS2_PLACEMENT_3D ( 'NONE', #370, #369, #368 ) ;
#372 = CIRCLE ( 'NONE', #371, 4.000000000000000000 ) ;
#373 = DIRECTION ( 'NONE',  ( 0.0000000000000000000, 0.0000000000000000000, 1.000000000000000000 ) ) ;
#374 = DIRECTION ( 'NONE',  ( 0.0000000000000000000, 1.000000000000000000, 0.0000000000000000000 ) ) ;
#375 = AXIS2_PLACEMENT_3D ( 'NONE', #180, #374, #373 ) ;
#376 = CIRCLE ( 'NONE', #375, 10.13878150776375600 ) ;
#377 = DIRECTION ( 'NONE',  ( 0.0000000000000000000, 0.0000000000000000000, 1.000000000000000000 ) ) ;
#378 = AXIS2_PLACEMENT_3D ( 'NONE', #367, #377, #215 ) ;
#379 = SHAPE_DEFINITION_REPRESENTATION ( #292, #380 ) ;
#380 = ADVANCED_BREP_SHAPE_REPRESENTATION ( 'C-30-RK-2320-gray', ( #68, #378 ), #381 ) ;
#381 =( GEOMETRIC_REPRESENTATION_CONTEXT ( 3 ) GLOBAL_UNCERTAINTY_ASSIGNED_CONTEXT ( ( #363 ) ) GLOBAL_UNIT_ASSIGNED_CONTEXT ( ( #366, #365, #364 ) ) REPRESENTATION_CONTEXT ( 'NONE', 'WORKASPACE' ) );
ENDSEC;
END-ISO-10303-21;
