ISO-10303-21;
HEADER;
FILE_DESCRIPTION (( 'STEP AP203' ),
    '1' );
FILE_NAME ('C-30-RK-2320.STEP',
    '2009-06-26T07:51:32',
    ( '11sw' ),
    ( '^LQ»¢®ïÐ' ),
    'SwSTEP 2.0',
    'SolidWorks 2007',
    '' );
FILE_SCHEMA (( 'CONFIG_CONTROL_DESIGN' ));
ENDSEC;

DATA;
#1 = EDGE_LOOP ( 'NONE', ( #9, #10 ) ) ;
#2 = ORIENTED_EDGE ( 'NONE', *, *, #76, .F. ) ;
#3 = EDGE_CURVE ( 'NONE', #82, #80, #137, .T. ) ;
#4 = APPLICATION_PROTOCOL_DEFINITION ( 'international standard', 'config_control_design', 1994, #5 ) ;
#5 = APPLICATION_CONTEXT ( 'configuration controlled 3d designs of mechanical parts and assemblies' ) ;
#6 = PRODUCT ( 'C-30-RK-2320', 'C-30-RK-2320', '', ( #7 ) ) ;
#7 = MECHANICAL_CONTEXT ( 'NONE', #5, 'mechanical' ) ;
#8 = PERSON ( 'UNSPECIFIED', 'UNSPECIFIED', 'UNSPECIFIED', ('UNSPECIFIED'), ('UNSPECIFIED'), ('UNSPECIFIED') ) ;
#9 = ORIENTED_EDGE ( 'NONE', *, *, #48, .T. ) ;
#10 = ORIENTED_EDGE ( 'NONE', *, *, #59, .T. ) ;
#11 = ADVANCED_FACE ( 'NONE', ( #139 ), #141, .F. ) ;
#12 = EDGE_LOOP ( 'NONE', ( #13, #14, #16, #17 ) ) ;
#13 = ORIENTED_EDGE ( 'NONE', *, *, #79, .F. ) ;
#14 = ORIENTED_EDGE ( 'NONE', *, *, #15, .F. ) ;
#15 = EDGE_CURVE ( 'NONE', #85, #78, #132, .T. ) ;
#16 = ORIENTED_EDGE ( 'NONE', *, *, #60, .T. ) ;
#17 = ORIENTED_EDGE ( 'NONE', *, *, #3, .T. ) ;
#18 = ADVANCED_FACE ( 'NONE', ( #133, #127 ), #303, .F. ) ;
#19 = EDGE_LOOP ( 'NONE', ( #20, #22 ) ) ;
#20 = ORIENTED_EDGE ( 'NONE', *, *, #21, .F. ) ;
#21 = EDGE_CURVE ( 'NONE', #99, #94, #298, .T. ) ;
#22 = ORIENTED_EDGE ( 'NONE', *, *, #98, .F. ) ;
#23 = EDGE_LOOP ( 'NONE', ( #24, #25 ) ) ;
#24 = ORIENTED_EDGE ( 'NONE', *, *, #15, .T. ) ;
#25 = ORIENTED_EDGE ( 'NONE', *, *, #83, .T. ) ;
#26 = ADVANCED_FACE ( 'NONE', ( #293 ), #292, .F. ) ;
#27 = EDGE_LOOP ( 'NONE', ( #28, #29, #31, #32 ) ) ;
#28 = ORIENTED_EDGE ( 'NONE', *, *, #93, .F. ) ;
#29 = ORIENTED_EDGE ( 'NONE', *, *, #30, .F. ) ;
#30 = EDGE_CURVE ( 'NONE', #89, #88, #286, .T. ) ;
#31 = ORIENTED_EDGE ( 'NONE', *, *, #84, .T. ) ;
#32 = ORIENTED_EDGE ( 'NONE', *, *, #21, .T. ) ;
#33 = ADVANCED_FACE ( 'NONE', ( #282, #281 ), #280, .F. ) ;
#34 = EDGE_LOOP ( 'NONE', ( #35, #37 ) ) ;
#35 = ORIENTED_EDGE ( 'NONE', *, *, #36, .F. ) ;
#36 = EDGE_CURVE ( 'NONE', #104, #103, #274, .T. ) ;
#37 = ORIENTED_EDGE ( 'NONE', *, *, #101, .F. ) ;
#38 = EDGE_LOOP ( 'NONE', ( #39, #40 ) ) ;
#39 = ORIENTED_EDGE ( 'NONE', *, *, #30, .T. ) ;
#40 = ORIENTED_EDGE ( 'NONE', *, *, #96, .T. ) ;
#41 = ADVANCED_FACE ( 'NONE', ( #269 ), #268, .T. ) ;
#42 = EDGE_LOOP ( 'NONE', ( #43, #44, #45, #46 ) ) ;
#43 = ORIENTED_EDGE ( 'NONE', *, *, #102, .F. ) ;
#44 = ORIENTED_EDGE ( 'NONE', *, *, #56, .F. ) ;
#45 = ORIENTED_EDGE ( 'NONE', *, *, #91, .T. ) ;
#46 = ORIENTED_EDGE ( 'NONE', *, *, #36, .T. ) ;
#47 = CLOSED_SHELL ( 'NONE', ( #111, #86, #74, #64, #52, #66, #11, #18, #26, #33, #41 ) ) ;
#48 = EDGE_CURVE ( 'NONE', #49, #62, #267, .T. ) ;
#49 = VERTEX_POINT ( 'NONE', #259 ) ;
#50 = ORIENTED_EDGE ( 'NONE', *, *, #51, .F. ) ;
#51 = EDGE_CURVE ( 'NONE', #108, #49, #257, .T. ) ;
#52 = ADVANCED_FACE ( 'NONE', ( #258 ), #251, .T. ) ;
#53 = EDGE_LOOP ( 'NONE', ( #54, #55, #57, #58 ) ) ;
#54 = ORIENTED_EDGE ( 'NONE', *, *, #70, .F. ) ;
#55 = ORIENTED_EDGE ( 'NONE', *, *, #56, .T. ) ;
#56 = EDGE_CURVE ( 'NONE', #109, #108, #247, .T. ) ;
#57 = ORIENTED_EDGE ( 'NONE', *, *, #51, .T. ) ;
#58 = ORIENTED_EDGE ( 'NONE', *, *, #59, .F. ) ;
#59 = EDGE_CURVE ( 'NONE', #62, #49, #241, .T. ) ;
#60 = EDGE_CURVE ( 'NONE', #85, #82, #242, .T. ) ;
#61 = EDGE_LOOP ( 'NONE', ( #65, #69, #63, #50 ) ) ;
#62 = VERTEX_POINT ( 'NONE', #233 ) ;
#63 = ORIENTED_EDGE ( 'NONE', *, *, #48, .F. ) ;
#64 = ADVANCED_FACE ( 'NONE', ( #232 ), #231, .T. ) ;
#65 = ORIENTED_EDGE ( 'NONE', *, *, #105, .T. ) ;
#66 = ADVANCED_FACE ( 'NONE', ( #225, #224 ), #230, .F. ) ;
#67 = EDGE_LOOP ( 'NONE', ( #68, #2 ) ) ;
#68 = ORIENTED_EDGE ( 'NONE', *, *, #3, .F. ) ;
#69 = ORIENTED_EDGE ( 'NONE', *, *, #70, .T. ) ;
#70 = EDGE_CURVE ( 'NONE', #109, #62, #219, .T. ) ;
#71 = EDGE_LOOP ( 'NONE', ( #72, #73, #81, #77 ) ) ;
#72 = ORIENTED_EDGE ( 'NONE', *, *, #83, .F. ) ;
#73 = ORIENTED_EDGE ( 'NONE', *, *, #79, .T. ) ;
#74 = ADVANCED_FACE ( 'NONE', ( #214 ), #213, .F. ) ;
#75 = ORIENTED_EDGE ( 'NONE', *, *, #84, .F. ) ;
#76 = EDGE_CURVE ( 'NONE', #80, #82, #207, .T. ) ;
#77 = ORIENTED_EDGE ( 'NONE', *, *, #60, .F. ) ;
#78 = VERTEX_POINT ( 'NONE', #203 ) ;
#79 = EDGE_CURVE ( 'NONE', #78, #80, #202, .T. ) ;
#80 = VERTEX_POINT ( 'NONE', #198 ) ;
#81 = ORIENTED_EDGE ( 'NONE', *, *, #76, .T. ) ;
#82 = VERTEX_POINT ( 'NONE', #197 ) ;
#83 = EDGE_CURVE ( 'NONE', #78, #85, #195, .T. ) ;
#84 = EDGE_CURVE ( 'NONE', #89, #99, #196, .T. ) ;
#85 = VERTEX_POINT ( 'NONE', #187 ) ;
#86 = ADVANCED_FACE ( 'NONE', ( #186 ), #185, .F. ) ;
#87 = ORIENTED_EDGE ( 'NONE', *, *, #96, .F. ) ;
#88 = VERTEX_POINT ( 'NONE', #180 ) ;
#89 = VERTEX_POINT ( 'NONE', #179 ) ;
#90 = ORIENTED_EDGE ( 'NONE', *, *, #91, .F. ) ;
#91 = EDGE_CURVE ( 'NONE', #109, #104, #178, .T. ) ;
#92 = ORIENTED_EDGE ( 'NONE', *, *, #93, .T. ) ;
#93 = EDGE_CURVE ( 'NONE', #88, #94, #174, .T. ) ;
#94 = VERTEX_POINT ( 'NONE', #170 ) ;
#95 = EDGE_LOOP ( 'NONE', ( #87, #92, #97, #75 ) ) ;
#96 = EDGE_CURVE ( 'NONE', #88, #89, #169, .T. ) ;
#97 = ORIENTED_EDGE ( 'NONE', *, *, #98, .T. ) ;
#98 = EDGE_CURVE ( 'NONE', #94, #99, #164, .T. ) ;
#99 = VERTEX_POINT ( 'NONE', #159 ) ;
#100 = ORIENTED_EDGE ( 'NONE', *, *, #101, .T. ) ;
#101 = EDGE_CURVE ( 'NONE', #103, #104, #157, .T. ) ;
#102 = EDGE_CURVE ( 'NONE', #108, #103, #158, .T. ) ;
#103 = VERTEX_POINT ( 'NONE', #149 ) ;
#104 = VERTEX_POINT ( 'NONE', #148 ) ;
#105 = EDGE_CURVE ( 'NONE', #108, #109, #147, .T. ) ;
#106 = ORIENTED_EDGE ( 'NONE', *, *, #102, .T. ) ;
#107 = ORIENTED_EDGE ( 'NONE', *, *, #105, .F. ) ;
#108 = VERTEX_POINT ( 'NONE', #123 ) ;
#109 = VERTEX_POINT ( 'NONE', #122 ) ;
#110 = MANIFOLD_SOLID_BREP ( 'NONE', #47 ) ;
#111 = ADVANCED_FACE ( 'NONE', ( #121 ), #118, .T. ) ;
#112 = EDGE_LOOP ( 'NONE', ( #107, #106, #100, #90 ) ) ;
#113 =( NAMED_UNIT ( * ) SI_UNIT ( $, .STERADIAN. ) SOLID_ANGLE_UNIT ( ) );
#114 =( NAMED_UNIT ( * ) PLANE_ANGLE_UNIT ( ) SI_UNIT ( $, .RADIAN. ) );
#115 = DIRECTION ( 'NONE',  ( 0.0000000000000000000, 0.0000000000000000000, -1.000000000000000000 ) ) ;
#116 = DIRECTION ( 'NONE',  ( 0.0000000000000000000, -1.000000000000000000, 0.0000000000000000000 ) ) ;
#117 = AXIS2_PLACEMENT_3D ( 'NONE', #120, #116, #115 ) ;
#118 = CONICAL_SURFACE ( 'NONE', #117, 11.50000000000000000, 0.07485984771076685500 ) ;
#119 = CARTESIAN_POINT ( 'NONE',  ( 0.0000000000000000000, 0.0000000000000000000, 0.0000000000000000000 ) ) ;
#120 = CARTESIAN_POINT ( 'NONE',  ( -5.009326287108706300E-010, -19.99999999650043500, 0.0000000000000000000 ) ) ;
#121 = FACE_OUTER_BOUND ( 'NONE', #112, .T. ) ;
#122 = CARTESIAN_POINT ( 'NONE',  ( -5.009313871092451200E-010, -1.850420100017180500, -10.13878150776375600 ) ) ;
#123 = CARTESIAN_POINT ( 'NONE',  ( -5.009326287108706300E-010, -1.850420100017180500, 10.13878150776375600 ) ) ;
#124 = DIRECTION ( 'NONE',  ( 0.0000000000000000000, 1.000000000000000000, 0.0000000000000000000 ) ) ;
#125 = DIRECTION ( 'NONE',  ( 0.0000000000000000000, 0.0000000000000000000, 1.000000000000000000 ) ) ;
#126 = CARTESIAN_POINT ( 'NONE',  ( -5.009326287108706300E-010, 2.412507003500041800, 0.0000000000000000000 ) ) ;
#127 = FACE_OUTER_BOUND ( 'NONE', #23, .T. ) ;
#128 = DIRECTION ( 'NONE',  ( 0.0000000000000000000, 0.0000000000000000000, 1.000000000000000000 ) ) ;
#129 = DIRECTION ( 'NONE',  ( 0.0000000000000000000, 1.000000000000000000, 0.0000000000000000000 ) ) ;
#130 = CARTESIAN_POINT ( 'NONE',  ( -5.009326287108706300E-010, -9.999999996500434900, 0.0000000000000000000 ) ) ;
#131 = AXIS2_PLACEMENT_3D ( 'NONE', #130, #129, #128 ) ;
#132 = CIRCLE ( 'NONE', #131, 4.000000000000000000 ) ;
#133 = FACE_BOUND ( 'NONE', #19, .T. ) ;
#134 = DIRECTION ( 'NONE',  ( 0.0000000000000000000, 0.0000000000000000000, 1.000000000000000000 ) ) ;
#135 = DIRECTION ( 'NONE',  ( 0.0000000000000000000, 1.000000000000000000, 0.0000000000000000000 ) ) ;
#136 = AXIS2_PLACEMENT_3D ( 'NONE', #126, #135, #134 ) ;
#137 = CIRCLE ( 'NONE', #138, 4.000000000000000000 ) ;
#138 = AXIS2_PLACEMENT_3D ( 'NONE', #142, #124, #125 ) ;
#139 = FACE_OUTER_BOUND ( 'NONE', #12, .T. ) ;
#140 =( LENGTH_UNIT ( ) NAMED_UNIT ( * ) SI_UNIT ( .MILLI., .METRE. ) );
#141 = CYLINDRICAL_SURFACE ( 'NONE', #136, 4.000000000000000000 ) ;
#142 = CARTESIAN_POINT ( 'NONE',  ( -5.009326287108706300E-010, 3.499565220943523500E-009, 0.0000000000000000000 ) ) ;
#143 = DIRECTION ( 'NONE',  ( 0.0000000000000000000, 0.0000000000000000000, 1.000000000000000000 ) ) ;
#144 = DIRECTION ( 'NONE',  ( 0.0000000000000000000, 1.000000000000000000, 0.0000000000000000000 ) ) ;
#145 = CARTESIAN_POINT ( 'NONE',  ( -5.009326287108706300E-010, -1.850420100017180500, 0.0000000000000000000 ) ) ;
#146 = AXIS2_PLACEMENT_3D ( 'NONE', #145, #144, #143 ) ;
#147 = CIRCLE ( 'NONE', #146, 10.13878150776375600 ) ;
#148 = CARTESIAN_POINT ( 'NONE',  ( -5.009326287108706300E-010, -19.99999999650043500, -11.50000000000000000 ) ) ;
#149 = CARTESIAN_POINT ( 'NONE',  ( -5.009312204135637400E-010, -19.99999999650043500, 11.50000000000000000 ) ) ;
#150 = DIRECTION ( 'NONE',  ( 9.158824581875202100E-018, -0.9971993098884565100, 0.07478994824163423500 ) ) ;
#151 = VECTOR ( 'NONE', #150, 999.9999999999998900 ) ;
#152 = CARTESIAN_POINT ( 'NONE',  ( -5.009312204135637400E-010, -19.99999999650043500, 11.50000000000000000 ) ) ;
#153 = DIRECTION ( 'NONE',  ( 0.0000000000000000000, 0.0000000000000000000, 1.000000000000000000 ) ) ;
#154 = DIRECTION ( 'NONE',  ( 0.0000000000000000000, 1.000000000000000000, 0.0000000000000000000 ) ) ;
#155 = CARTESIAN_POINT ( 'NONE',  ( -5.009326287108706300E-010, -19.99999999650043500, 0.0000000000000000000 ) ) ;
#156 = AXIS2_PLACEMENT_3D ( 'NONE', #155, #154, #153 ) ;
#157 = CIRCLE ( 'NONE', #156, 11.50000000000000000 ) ;
#158 = LINE ( 'NONE', #152, #151 ) ;
#159 = CARTESIAN_POINT ( 'NONE',  ( -5.009326287108706300E-010, -9.999999996500434900, 2.000000000000000000 ) ) ;
#160 = DIRECTION ( 'NONE',  ( 0.0000000000000000000, 0.0000000000000000000, 1.000000000000000000 ) ) ;
#161 = DIRECTION ( 'NONE',  ( 0.0000000000000000000, 1.000000000000000000, 0.0000000000000000000 ) ) ;
#162 = CARTESIAN_POINT ( 'NONE',  ( -5.009326287108706300E-010, -9.999999996500434900, 0.0000000000000000000 ) ) ;
#163 = AXIS2_PLACEMENT_3D ( 'NONE', #162, #161, #160 ) ;
#164 = CIRCLE ( 'NONE', #163, 2.000000000000000000 ) ;
#165 = DIRECTION ( 'NONE',  ( 0.0000000000000000000, 0.0000000000000000000, 1.000000000000000000 ) ) ;
#166 = DIRECTION ( 'NONE',  ( 0.0000000000000000000, 1.000000000000000000, 0.0000000000000000000 ) ) ;
#167 = CARTESIAN_POINT ( 'NONE',  ( -5.009326287108706300E-010, -19.99999999650043500, 0.0000000000000000000 ) ) ;
#168 = AXIS2_PLACEMENT_3D ( 'NONE', #167, #166, #165 ) ;
#169 = CIRCLE ( 'NONE', #168, 2.000000000000001300 ) ;
#170 = CARTESIAN_POINT ( 'NONE',  ( -5.009323837895998700E-010, -9.999999996500434900, -2.000000000000000000 ) ) ;
#171 = DIRECTION ( 'NONE',  ( 0.0000000000000000000, 1.000000000000000000, 0.0000000000000000000 ) ) ;
#172 = VECTOR ( 'NONE', #171, 1000.000000000000000 ) ;
#173 = CARTESIAN_POINT ( 'NONE',  ( -5.009323837895998700E-010, 2.412507003500041800, -2.000000000000000900 ) ) ;
#174 = LINE ( 'NONE', #173, #172 ) ;
#175 = DIRECTION ( 'NONE',  ( 0.0000000000000000000, -0.9971993098884565100, -0.07478994824163423500 ) ) ;
#176 = VECTOR ( 'NONE', #175, 999.9999999999998900 ) ;
#177 = CARTESIAN_POINT ( 'NONE',  ( -5.009326287108706300E-010, -19.99999999650043500, -11.50000000000000000 ) ) ;
#178 = LINE ( 'NONE', #177, #176 ) ;
#179 = CARTESIAN_POINT ( 'NONE',  ( -5.009326287108706300E-010, -19.99999999650043500, 2.000000000000001300 ) ) ;
#180 = CARTESIAN_POINT ( 'NONE',  ( -5.009323837895998700E-010, -19.99999999650043500, -2.000000000000001300 ) ) ;
#181 = DIRECTION ( 'NONE',  ( 0.0000000000000000000, 0.0000000000000000000, 1.000000000000000000 ) ) ;
#182 = DIRECTION ( 'NONE',  ( 0.0000000000000000000, 1.000000000000000000, 0.0000000000000000000 ) ) ;
#183 = CARTESIAN_POINT ( 'NONE',  ( -5.009326287108706300E-010, 2.412507003500041800, 0.0000000000000000000 ) ) ;
#184 = AXIS2_PLACEMENT_3D ( 'NONE', #183, #182, #181 ) ;
#185 = CYLINDRICAL_SURFACE ( 'NONE', #184, 2.000000000000000900 ) ;
#186 = FACE_OUTER_BOUND ( 'NONE', #95, .T. ) ;
#187 = CARTESIAN_POINT ( 'NONE',  ( -5.009326287108706300E-010, -9.999999996500434900, 4.000000000000000000 ) ) ;
#188 = DIRECTION ( 'NONE',  ( 0.0000000000000000000, 1.000000000000000000, 0.0000000000000000000 ) ) ;
#189 = VECTOR ( 'NONE', #188, 1000.000000000000000 ) ;
#190 = CARTESIAN_POINT ( 'NONE',  ( -5.009326287108706300E-010, 2.412507003500041800, 2.000000000000000900 ) ) ;
#191 = DIRECTION ( 'NONE',  ( 0.0000000000000000000, 0.0000000000000000000, 1.000000000000000000 ) ) ;
#192 = DIRECTION ( 'NONE',  ( 0.0000000000000000000, 1.000000000000000000, 0.0000000000000000000 ) ) ;
#193 = CARTESIAN_POINT ( 'NONE',  ( -5.009326287108706300E-010, -9.999999996500434900, 0.0000000000000000000 ) ) ;
#194 = AXIS2_PLACEMENT_3D ( 'NONE', #193, #192, #191 ) ;
#195 = CIRCLE ( 'NONE', #194, 4.000000000000000000 ) ;
#196 = LINE ( 'NONE', #190, #189 ) ;
#197 = CARTESIAN_POINT ( 'NONE',  ( -5.009326287108706300E-010, 3.499565220943523500E-009, 4.000000000000000000 ) ) ;
#198 = CARTESIAN_POINT ( 'NONE',  ( -5.009321388683291000E-010, 3.499565220943523500E-009, -4.000000000000000000 ) ) ;
#199 = DIRECTION ( 'NONE',  ( 0.0000000000000000000, 1.000000000000000000, 0.0000000000000000000 ) ) ;
#200 = VECTOR ( 'NONE', #199, 1000.000000000000000 ) ;
#201 = CARTESIAN_POINT ( 'NONE',  ( -5.009321388683291000E-010, 2.412507003500041800, -4.000000000000000000 ) ) ;
#202 = LINE ( 'NONE', #201, #200 ) ;
#203 = CARTESIAN_POINT ( 'NONE',  ( -5.009321388683291000E-010, -9.999999996500434900, -4.000000000000000000 ) ) ;
#204 = DIRECTION ( 'NONE',  ( 0.0000000000000000000, 0.0000000000000000000, 1.000000000000000000 ) ) ;
#205 = DIRECTION ( 'NONE',  ( 0.0000000000000000000, 1.000000000000000000, 0.0000000000000000000 ) ) ;
#206 = AXIS2_PLACEMENT_3D ( 'NONE', #212, #205, #204 ) ;
#207 = CIRCLE ( 'NONE', #206, 4.000000000000000000 ) ;
#208 = DIRECTION ( 'NONE',  ( 0.0000000000000000000, 0.0000000000000000000, 1.000000000000000000 ) ) ;
#209 = DIRECTION ( 'NONE',  ( 0.0000000000000000000, 1.000000000000000000, 0.0000000000000000000 ) ) ;
#210 = CARTESIAN_POINT ( 'NONE',  ( -5.009326287108706300E-010, 2.412507003500041800, 0.0000000000000000000 ) ) ;
#211 = AXIS2_PLACEMENT_3D ( 'NONE', #210, #209, #208 ) ;
#212 = CARTESIAN_POINT ( 'NONE',  ( -5.009326287108706300E-010, 3.499565220943523500E-009, 0.0000000000000000000 ) ) ;
#213 = CYLINDRICAL_SURFACE ( 'NONE', #211, 4.000000000000000000 ) ;
#214 = FACE_OUTER_BOUND ( 'NONE', #71, .T. ) ;
#215 = DIRECTION ( 'NONE',  ( 1.224606353612350900E-016, 0.0000000000000000000, -1.000000000000000000 ) ) ;
#216 = DIRECTION ( 'NONE',  ( 1.000000000000000000, 0.0000000000000000000, 1.224606353822377300E-016 ) ) ;
#217 = CARTESIAN_POINT ( 'NONE',  ( -5.009316313445673700E-010, -1.999999996500435400, -8.144382887986841600 ) ) ;
#218 = AXIS2_PLACEMENT_3D ( 'NONE', #217, #216, #215 ) ;
#219 = CIRCLE ( 'NONE', #218, 2.000000000000000000 ) ;
#220 = DIRECTION ( 'NONE',  ( 0.0000000000000000000, 0.0000000000000000000, -1.000000000000000000 ) ) ;
#221 = DIRECTION ( 'NONE',  ( 0.0000000000000000000, -1.000000000000000000, 0.0000000000000000000 ) ) ;
#222 = CARTESIAN_POINT ( 'NONE',  ( 8.144382887485896600, 3.499565220943523500E-009, 0.0000000000000000000 ) ) ;
#223 = AXIS2_PLACEMENT_3D ( 'NONE', #222, #221, #220 ) ;
#224 = FACE_OUTER_BOUND ( 'NONE', #1, .T. ) ;
#225 = FACE_BOUND ( 'NONE', #67, .T. ) ;
#226 = DIRECTION ( 'NONE',  ( 0.0000000000000000000, 0.0000000000000000000, 1.000000000000000000 ) ) ;
#227 = DIRECTION ( 'NONE',  ( 0.0000000000000000000, 1.000000000000000000, 0.0000000000000000000 ) ) ;
#228 = CARTESIAN_POINT ( 'NONE',  ( -5.009326287108706300E-010, -1.999999996500435400, 0.0000000000000000000 ) ) ;
#229 = AXIS2_PLACEMENT_3D ( 'NONE', #228, #227, #226 ) ;
#230 = PLANE ( 'NONE',  #223 ) ;
#231 = TOROIDAL_SURFACE ( 'NONE', #229, 8.144382887986841600, 2.000000000000000000 ) ;
#232 = FACE_OUTER_BOUND ( 'NONE', #61, .T. ) ;
#233 = CARTESIAN_POINT ( 'NONE',  ( -5.009315092269063000E-010, 3.499565220943523500E-009, -8.144382887986829200 ) ) ;
#234 = DIRECTION ( 'NONE',  ( 0.0000000000000000000, 1.000000000000000000, 0.0000000000000000000 ) ) ;
#235 = VECTOR ( 'NONE', #234, 1000.000000000000000 ) ;
#236 = CARTESIAN_POINT ( 'NONE',  ( -5.009326287108706300E-010, 2.412507003500041800, 4.000000000000000000 ) ) ;
#237 = DIRECTION ( 'NONE',  ( 0.0000000000000000000, 0.0000000000000000000, 1.000000000000000000 ) ) ;
#238 = DIRECTION ( 'NONE',  ( 0.0000000000000000000, 1.000000000000000000, 0.0000000000000000000 ) ) ;
#239 = CARTESIAN_POINT ( 'NONE',  ( -5.009326287108706300E-010, 3.499565220943523500E-009, 0.0000000000000000000 ) ) ;
#240 = AXIS2_PLACEMENT_3D ( 'NONE', #239, #238, #237 ) ;
#241 = CIRCLE ( 'NONE', #240, 8.144382887986829200 ) ;
#242 = LINE ( 'NONE', #236, #235 ) ;
#243 = DIRECTION ( 'NONE',  ( 0.0000000000000000000, 0.0000000000000000000, 1.000000000000000000 ) ) ;
#244 = DIRECTION ( 'NONE',  ( 0.0000000000000000000, 1.000000000000000000, 0.0000000000000000000 ) ) ;
#245 = CARTESIAN_POINT ( 'NONE',  ( -5.009326287108706300E-010, -1.850420100017180500, 0.0000000000000000000 ) ) ;
#246 = AXIS2_PLACEMENT_3D ( 'NONE', #245, #244, #243 ) ;
#247 = CIRCLE ( 'NONE', #246, 10.13878150776375600 ) ;
#248 = DIRECTION ( 'NONE',  ( 0.0000000000000000000, 0.0000000000000000000, 1.000000000000000000 ) ) ;
#249 = DIRECTION ( 'NONE',  ( 0.0000000000000000000, 1.000000000000000000, 0.0000000000000000000 ) ) ;
#250 = AXIS2_PLACEMENT_3D ( 'NONE', #252, #249, #248 ) ;
#251 = TOROIDAL_SURFACE ( 'NONE', #250, 8.144382887986841600, 2.000000000000000000 ) ;
#252 = CARTESIAN_POINT ( 'NONE',  ( -5.009326287108706300E-010, -1.999999996500435400, 0.0000000000000000000 ) ) ;
#253 = DIRECTION ( 'NONE',  ( 0.0000000000000000000, 0.0000000000000000000, 1.000000000000000000 ) ) ;
#254 = DIRECTION ( 'NONE',  ( -1.000000000000000000, 0.0000000000000000000, 0.0000000000000000000 ) ) ;
#255 = CARTESIAN_POINT ( 'NONE',  ( -5.009326287108706300E-010, -1.999999996500435400, 8.144382887986841600 ) ) ;
#256 = AXIS2_PLACEMENT_3D ( 'NONE', #255, #254, #253 ) ;
#257 = CIRCLE ( 'NONE', #256, 2.000000000000000000 ) ;
#258 = FACE_OUTER_BOUND ( 'NONE', #53, .T. ) ;
#259 = CARTESIAN_POINT ( 'NONE',  ( -5.009326287108706300E-010, 3.499565220943523500E-009, 8.144382887986829200 ) ) ;
#260 = DIRECTION ( 'NONE',  ( 0.0000000000000000000, 0.0000000000000000000, 1.000000000000000000 ) ) ;
#261 = DIRECTION ( 'NONE',  ( 0.0000000000000000000, 1.000000000000000000, 0.0000000000000000000 ) ) ;
#262 = CARTESIAN_POINT ( 'NONE',  ( -5.009326287108706300E-010, 3.499565220943523500E-009, 0.0000000000000000000 ) ) ;
#263 = AXIS2_PLACEMENT_3D ( 'NONE', #262, #261, #260 ) ;
#264 = DIRECTION ( 'NONE',  ( 0.0000000000000000000, 0.0000000000000000000, -1.000000000000000000 ) ) ;
#265 = DIRECTION ( 'NONE',  ( 0.0000000000000000000, -1.000000000000000000, 0.0000000000000000000 ) ) ;
#266 = AXIS2_PLACEMENT_3D ( 'NONE', #275, #265, #264 ) ;
#267 = CIRCLE ( 'NONE', #263, 8.144382887986829200 ) ;
#268 = CONICAL_SURFACE ( 'NONE', #266, 11.50000000000000000, 0.07485984771076685500 ) ;
#269 = FACE_OUTER_BOUND ( 'NONE', #42, .T. ) ;
#270 = DIRECTION ( 'NONE',  ( 0.0000000000000000000, 0.0000000000000000000, 1.000000000000000000 ) ) ;
#271 = DIRECTION ( 'NONE',  ( 0.0000000000000000000, 1.000000000000000000, 0.0000000000000000000 ) ) ;
#272 = CARTESIAN_POINT ( 'NONE',  ( -5.009326287108706300E-010, -19.99999999650043500, 0.0000000000000000000 ) ) ;
#273 = AXIS2_PLACEMENT_3D ( 'NONE', #272, #271, #270 ) ;
#274 = CIRCLE ( 'NONE', #273, 11.50000000000000000 ) ;
#275 = CARTESIAN_POINT ( 'NONE',  ( -5.009326287108706300E-010, -19.99999999650043500, 0.0000000000000000000 ) ) ;
#276 = DIRECTION ( 'NONE',  ( 0.0000000000000000000, 0.0000000000000000000, 1.000000000000000000 ) ) ;
#277 = DIRECTION ( 'NONE',  ( 0.0000000000000000000, 1.000000000000000000, 0.0000000000000000000 ) ) ;
#278 = CARTESIAN_POINT ( 'NONE',  ( 1.999999999499068700, -19.99999999650043500, 0.0000000000000000000 ) ) ;
#279 = AXIS2_PLACEMENT_3D ( 'NONE', #278, #277, #276 ) ;
#280 = PLANE ( 'NONE',  #279 ) ;
#281 = FACE_BOUND ( 'NONE', #38, .T. ) ;
#282 = FACE_OUTER_BOUND ( 'NONE', #34, .T. ) ;
#283 = DIRECTION ( 'NONE',  ( 0.0000000000000000000, 0.0000000000000000000, 1.000000000000000000 ) ) ;
#284 = DIRECTION ( 'NONE',  ( 0.0000000000000000000, 1.000000000000000000, 0.0000000000000000000 ) ) ;
#285 = AXIS2_PLACEMENT_3D ( 'NONE', #291, #284, #283 ) ;
#286 = CIRCLE ( 'NONE', #285, 2.000000000000001300 ) ;
#287 = DIRECTION ( 'NONE',  ( 0.0000000000000000000, 0.0000000000000000000, 1.000000000000000000 ) ) ;
#288 = DIRECTION ( 'NONE',  ( 0.0000000000000000000, 1.000000000000000000, 0.0000000000000000000 ) ) ;
#289 = CARTESIAN_POINT ( 'NONE',  ( -5.009326287108706300E-010, 2.412507003500041800, 0.0000000000000000000 ) ) ;
#290 = AXIS2_PLACEMENT_3D ( 'NONE', #289, #288, #287 ) ;
#291 = CARTESIAN_POINT ( 'NONE',  ( -5.009326287108706300E-010, -19.99999999650043500, 0.0000000000000000000 ) ) ;
#292 = CYLINDRICAL_SURFACE ( 'NONE', #290, 2.000000000000000900 ) ;
#293 = FACE_OUTER_BOUND ( 'NONE', #27, .T. ) ;
#294 = DIRECTION ( 'NONE',  ( 0.0000000000000000000, 0.0000000000000000000, 1.000000000000000000 ) ) ;
#295 = DIRECTION ( 'NONE',  ( 0.0000000000000000000, 1.000000000000000000, 0.0000000000000000000 ) ) ;
#296 = CARTESIAN_POINT ( 'NONE',  ( -5.009326287108706300E-010, -9.999999996500434900, 0.0000000000000000000 ) ) ;
#297 = AXIS2_PLACEMENT_3D ( 'NONE', #296, #295, #294 ) ;
#298 = CIRCLE ( 'NONE', #297, 2.000000000000000000 ) ;
#299 = DIRECTION ( 'NONE',  ( 0.0000000000000000000, 0.0000000000000000000, -1.000000000000000000 ) ) ;
#300 = DIRECTION ( 'NONE',  ( 0.0000000000000000000, -1.000000000000000000, 0.0000000000000000000 ) ) ;
#301 = CARTESIAN_POINT ( 'NONE',  ( 3.999999999499067400, -9.999999996500434900, 0.0000000000000000000 ) ) ;
#302 = AXIS2_PLACEMENT_3D ( 'NONE', #301, #300, #299 ) ;
#303 = PLANE ( 'NONE',  #302 ) ;
#304 = CC_DESIGN_PERSON_AND_ORGANIZATION_ASSIGNMENT ( #310, #305, ( #6 ) ) ;
#305 = PERSON_AND_ORGANIZATION_ROLE ( 'design_owner' ) ;
#306 = DIRECTION ( 'NONE',  ( 1.000000000000000000, 0.0000000000000000000, 0.0000000000000000000 ) ) ;
#307 = DIRECTION ( 'NONE',  ( 0.0000000000000000000, 0.0000000000000000000, 1.000000000000000000 ) ) ;
#308 = AXIS2_PLACEMENT_3D ( 'NONE', #119, #307, #306 ) ;
#309 = ORGANIZATION ( 'UNSPECIFIED', 'UNSPECIFIED', '' ) ;
#310 = PERSON_AND_ORGANIZATION ( #8, #309 ) ;
#311 = ADVANCED_BREP_SHAPE_REPRESENTATION ( 'C-30-RK-2320', ( #110, #308 ), #312 ) ;
#312 =( GEOMETRIC_REPRESENTATION_CONTEXT ( 3 ) GLOBAL_UNCERTAINTY_ASSIGNED_CONTEXT ( ( #313 ) ) GLOBAL_UNIT_ASSIGNED_CONTEXT ( ( #140, #114, #113 ) ) REPRESENTATION_CONTEXT ( 'NONE', 'WORKASPACE' ) );
#313 = UNCERTAINTY_MEASURE_WITH_UNIT (LENGTH_MEASURE( 1.000000000000000100E-005 ), #140, 'distance_accuracy_value', 'NONE');
#314 = APPLICATION_PROTOCOL_DEFINITION ( 'international standard', 'config_control_design', 1994, #315 ) ;
#315 = APPLICATION_CONTEXT ( 'configuration controlled 3d designs of mechanical parts and assemblies' ) ;
#316 = CC_DESIGN_APPROVAL ( #324, ( #327 ) ) ;
#317 = APPROVAL_DATE_TIME ( #318, #324 ) ;
#318 = DATE_AND_TIME ( #319, #320 ) ;
#319 = CALENDAR_DATE ( 2009, 26, 6 ) ;
#320 = LOCAL_TIME ( 16, 51, 32.00000000000000000, #321 ) ;
#321 = COORDINATED_UNIVERSAL_TIME_OFFSET ( 9, 0, .AHEAD. ) ;
#322 = APPROVAL_PERSON_ORGANIZATION ( #326, #324, #323 ) ;
#323 = APPROVAL_ROLE ( '' ) ;
#324 = APPROVAL ( #325, 'UNSPECIFIED' ) ;
#325 = APPROVAL_STATUS ( 'not_yet_approved' ) ;
#326 = PERSON_AND_ORGANIZATION ( #8, #309 ) ;
#327 = PRODUCT_DEFINITION ( 'UNKNOWN', '', #372, #328 ) ;
#328 = DESIGN_CONTEXT ( 'detailed design', #315, 'design' ) ;
#329 = SHAPE_DEFINITION_REPRESENTATION ( #330, #311 ) ;
#330 = PRODUCT_DEFINITION_SHAPE ( 'NONE', 'NONE',  #327 ) ;
#331 = PRODUCT_RELATED_PRODUCT_CATEGORY ( 'detail', '', ( #6 ) ) ;
#332 = CC_DESIGN_SECURITY_CLASSIFICATION ( #353, ( #372 ) ) ;
#333 = CC_DESIGN_APPROVAL ( #341, ( #353 ) ) ;
#334 = APPROVAL_DATE_TIME ( #335, #341 ) ;
#335 = DATE_AND_TIME ( #336, #337 ) ;
#336 = CALENDAR_DATE ( 2009, 26, 6 ) ;
#337 = LOCAL_TIME ( 16, 51, 32.00000000000000000, #338 ) ;
#338 = COORDINATED_UNIVERSAL_TIME_OFFSET ( 9, 0, .AHEAD. ) ;
#339 = APPROVAL_PERSON_ORGANIZATION ( #343, #341, #340 ) ;
#340 = APPROVAL_ROLE ( '' ) ;
#341 = APPROVAL ( #342, 'UNSPECIFIED' ) ;
#342 = APPROVAL_STATUS ( 'not_yet_approved' ) ;
#343 = PERSON_AND_ORGANIZATION ( #8, #309 ) ;
#344 = CC_DESIGN_DATE_AND_TIME_ASSIGNMENT ( #346, #345, ( #353 ) ) ;
#345 = DATE_TIME_ROLE ( 'classification_date' ) ;
#346 = DATE_AND_TIME ( #347, #348 ) ;
#347 = CALENDAR_DATE ( 2009, 26, 6 ) ;
#348 = LOCAL_TIME ( 16, 51, 32.00000000000000000, #349 ) ;
#349 = COORDINATED_UNIVERSAL_TIME_OFFSET ( 9, 0, .AHEAD. ) ;
#350 = CC_DESIGN_PERSON_AND_ORGANIZATION_ASSIGNMENT ( #352, #351, ( #353 ) ) ;
#351 = PERSON_AND_ORGANIZATION_ROLE ( 'classification_officer' ) ;
#352 = PERSON_AND_ORGANIZATION ( #8, #309 ) ;
#353 = SECURITY_CLASSIFICATION ( '', '', #354 ) ;
#354 = SECURITY_CLASSIFICATION_LEVEL ( 'unclassified' ) ;
#355 = CC_DESIGN_PERSON_AND_ORGANIZATION_ASSIGNMENT ( #357, #356, ( #372 ) ) ;
#356 = PERSON_AND_ORGANIZATION_ROLE ( 'design_supplier' ) ;
#357 = PERSON_AND_ORGANIZATION ( #8, #309 ) ;
#358 = CC_DESIGN_PERSON_AND_ORGANIZATION_ASSIGNMENT ( #360, #359, ( #372 ) ) ;
#359 = PERSON_AND_ORGANIZATION_ROLE ( 'creator' ) ;
#360 = PERSON_AND_ORGANIZATION ( #8, #309 ) ;
#361 = CC_DESIGN_APPROVAL ( #369, ( #372 ) ) ;
#362 = APPROVAL_DATE_TIME ( #363, #369 ) ;
#363 = DATE_AND_TIME ( #364, #365 ) ;
#364 = CALENDAR_DATE ( 2009, 26, 6 ) ;
#365 = LOCAL_TIME ( 16, 51, 32.00000000000000000, #366 ) ;
#366 = COORDINATED_UNIVERSAL_TIME_OFFSET ( 9, 0, .AHEAD. ) ;
#367 = APPROVAL_PERSON_ORGANIZATION ( #371, #369, #368 ) ;
#368 = APPROVAL_ROLE ( '' ) ;
#369 = APPROVAL ( #370, 'UNSPECIFIED' ) ;
#370 = APPROVAL_STATUS ( 'not_yet_approved' ) ;
#371 = PERSON_AND_ORGANIZATION ( #8, #309 ) ;
#372 = PRODUCT_DEFINITION_FORMATION_WITH_SPECIFIED_SOURCE ( 'ANY', '', #6, .NOT_KNOWN. ) ;
#373 = CC_DESIGN_DATE_AND_TIME_ASSIGNMENT ( #375, #374, ( #327 ) ) ;
#374 = DATE_TIME_ROLE ( 'creation_date' ) ;
#375 = DATE_AND_TIME ( #376, #377 ) ;
#376 = CALENDAR_DATE ( 2009, 26, 6 ) ;
#377 = LOCAL_TIME ( 16, 51, 32.00000000000000000, #378 ) ;
#378 = COORDINATED_UNIVERSAL_TIME_OFFSET ( 9, 0, .AHEAD. ) ;
#379 = CC_DESIGN_PERSON_AND_ORGANIZATION_ASSIGNMENT ( #381, #380, ( #327 ) ) ;
#380 = PERSON_AND_ORGANIZATION_ROLE ( 'creator' ) ;
#381 = PERSON_AND_ORGANIZATION ( #8, #309 ) ;
ENDSEC;
END-ISO-10303-21;
