ISO-10303-21;
HEADER;
FILE_DESCRIPTION (( 'STEP AP203' ),
    '1' );
FILE_NAME ('C-30-RK-22-ÃÞÌ«ÙÄ.STEP',
    '2009-06-29T01:41:07',
    ( '11sw' ),
    ( '^LQ»¢®ïÐ' ),
    'SwSTEP 2.0',
    'SolidWorks 2007',
    '' );
FILE_SCHEMA (( 'CONFIG_CONTROL_DESIGN' ));
ENDSEC;

DATA;
#1 = EDGE_CURVE ( 'NONE', #4, #2, #108, .T. ) ;
#2 = VERTEX_POINT ( 'NONE', #110 ) ;
#3 = ORIENTED_EDGE ( 'NONE', *, *, #1, .F. ) ;
#4 = VERTEX_POINT ( 'NONE', #118 ) ;
#5 = ORIENTED_EDGE ( 'NONE', *, *, #10, .T. ) ;
#6 = VERTEX_POINT ( 'NONE', #117 ) ;
#7 = EDGE_CURVE ( 'NONE', #6, #2, #116, .T. ) ;
#8 = VERTEX_POINT ( 'NONE', #120 ) ;
#9 = ORIENTED_EDGE ( 'NONE', *, *, #7, .T. ) ;
#10 = EDGE_CURVE ( 'NONE', #8, #6, #122, .T. ) ;
#11 = ADVANCED_FACE ( 'NONE', ( #123 ), #132, .T. ) ;
#12 = EDGE_CURVE ( 'NONE', #29, #14, #127, .T. ) ;
#13 = ORIENTED_EDGE ( 'NONE', *, *, #42, .T. ) ;
#14 = VERTEX_POINT ( 'NONE', #139 ) ;
#15 = VERTEX_POINT ( 'NONE', #138 ) ;
#16 = ORIENTED_EDGE ( 'NONE', *, *, #17, .F. ) ;
#17 = EDGE_CURVE ( 'NONE', #35, #15, #137, .T. ) ;
#18 = ADVANCED_FACE ( 'NONE', ( #133 ), #376, .T. ) ;
#19 = EDGE_LOOP ( 'NONE', ( #20, #21, #24, #27 ) ) ;
#20 = ORIENTED_EDGE ( 'NONE', *, *, #33, .T. ) ;
#21 = ORIENTED_EDGE ( 'NONE', *, *, #22, .T. ) ;
#22 = EDGE_CURVE ( 'NONE', #35, #23, #371, .T. ) ;
#23 = VERTEX_POINT ( 'NONE', #377 ) ;
#24 = ORIENTED_EDGE ( 'NONE', *, *, #25, .F. ) ;
#25 = EDGE_CURVE ( 'NONE', #26, #23, #148, .T. ) ;
#26 = VERTEX_POINT ( 'NONE', #149 ) ;
#27 = ORIENTED_EDGE ( 'NONE', *, *, #28, .F. ) ;
#28 = EDGE_CURVE ( 'NONE', #34, #26, #150, .T. ) ;
#29 = VERTEX_POINT ( 'NONE', #180 ) ;
#30 = VERTEX_POINT ( 'NONE', #179 ) ;
#31 = EDGE_LOOP ( 'NONE', ( #32, #36, #39, #16 ) ) ;
#32 = ORIENTED_EDGE ( 'NONE', *, *, #33, .F. ) ;
#33 = EDGE_CURVE ( 'NONE', #34, #35, #181, .T. ) ;
#34 = VERTEX_POINT ( 'NONE', #182 ) ;
#35 = VERTEX_POINT ( 'NONE', #184 ) ;
#36 = ORIENTED_EDGE ( 'NONE', *, *, #37, .T. ) ;
#37 = EDGE_CURVE ( 'NONE', #34, #38, #183, .T. ) ;
#38 = VERTEX_POINT ( 'NONE', #185 ) ;
#39 = ORIENTED_EDGE ( 'NONE', *, *, #40, .T. ) ;
#40 = EDGE_CURVE ( 'NONE', #38, #15, #204, .T. ) ;
#41 = ORIENTED_EDGE ( 'NONE', *, *, #12, .T. ) ;
#42 = EDGE_CURVE ( 'NONE', #14, #43, #198, .T. ) ;
#43 = VERTEX_POINT ( 'NONE', #199 ) ;
#44 = ORIENTED_EDGE ( 'NONE', *, *, #45, .F. ) ;
#45 = EDGE_CURVE ( 'NONE', #30, #43, #193, .T. ) ;
#46 = EDGE_LOOP ( 'NONE', ( #75, #5, #9, #3 ) ) ;
#47 = EDGE_CURVE ( 'NONE', #29, #30, #189, .T. ) ;
#48 = ORIENTED_EDGE ( 'NONE', *, *, #47, .F. ) ;
#49 = MANIFOLD_SOLID_BREP ( 'NONE', #103 ) ;
#50 = ADVANCED_FACE ( 'NONE', ( #213 ), #214, .F. ) ;
#51 = EDGE_LOOP ( 'NONE', ( #48, #41, #13, #44 ) ) ;
#52 = EDGE_CURVE ( 'NONE', #23, #26, #209, .T. ) ;
#53 = ADVANCED_FACE ( 'NONE', ( #210 ), #218, .T. ) ;
#54 = EDGE_LOOP ( 'NONE', ( #55, #56, #57, #58 ) ) ;
#55 = ORIENTED_EDGE ( 'NONE', *, *, #37, .F. ) ;
#56 = ORIENTED_EDGE ( 'NONE', *, *, #86, .F. ) ;
#57 = ORIENTED_EDGE ( 'NONE', *, *, #17, .T. ) ;
#58 = ORIENTED_EDGE ( 'NONE', *, *, #59, .T. ) ;
#59 = EDGE_CURVE ( 'NONE', #15, #38, #251, .T. ) ;
#60 = EDGE_LOOP ( 'NONE', ( #105, #106 ) ) ;
#61 = ORIENTED_EDGE ( 'NONE', *, *, #62, .T. ) ;
#62 = EDGE_CURVE ( 'NONE', #2, #6, #242, .T. ) ;
#63 = ADVANCED_FACE ( 'NONE', ( #227, #233 ), #231, .F. ) ;
#64 = EDGE_LOOP ( 'NONE', ( #65, #66 ) ) ;
#65 = ORIENTED_EDGE ( 'NONE', *, *, #62, .F. ) ;
#66 = ORIENTED_EDGE ( 'NONE', *, *, #7, .F. ) ;
#67 = EDGE_LOOP ( 'NONE', ( #68, #70 ) ) ;
#68 = ORIENTED_EDGE ( 'NONE', *, *, #69, .T. ) ;
#69 = EDGE_CURVE ( 'NONE', #30, #29, #237, .T. ) ;
#70 = ORIENTED_EDGE ( 'NONE', *, *, #47, .T. ) ;
#71 = ADVANCED_FACE ( 'NONE', ( #238 ), #246, .F. ) ;
#72 = EDGE_LOOP ( 'NONE', ( #73, #92, #93, #94 ) ) ;
#73 = ORIENTED_EDGE ( 'NONE', *, *, #12, .F. ) ;
#74 = ADVANCED_FACE ( 'NONE', ( #331 ), #284, .F. ) ;
#75 = ORIENTED_EDGE ( 'NONE', *, *, #107, .F. ) ;
#76 = EDGE_LOOP ( 'NONE', ( #77, #79 ) ) ;
#77 = ORIENTED_EDGE ( 'NONE', *, *, #78, .T. ) ;
#78 = EDGE_CURVE ( 'NONE', #4, #8, #346, .T. ) ;
#79 = ORIENTED_EDGE ( 'NONE', *, *, #107, .T. ) ;
#80 = ADVANCED_FACE ( 'NONE', ( #296 ), #358, .F. ) ;
#81 = EDGE_LOOP ( 'NONE', ( #82, #83, #84, #61 ) ) ;
#82 = ORIENTED_EDGE ( 'NONE', *, *, #10, .F. ) ;
#83 = ORIENTED_EDGE ( 'NONE', *, *, #78, .F. ) ;
#84 = ORIENTED_EDGE ( 'NONE', *, *, #1, .T. ) ;
#85 = ORIENTED_EDGE ( 'NONE', *, *, #86, .T. ) ;
#86 = EDGE_CURVE ( 'NONE', #35, #34, #255, .T. ) ;
#87 = ORIENTED_EDGE ( 'NONE', *, *, #28, .T. ) ;
#88 = ORIENTED_EDGE ( 'NONE', *, *, #52, .F. ) ;
#89 = ADVANCED_FACE ( 'NONE', ( #363 ), #330, .T. ) ;
#90 = EDGE_LOOP ( 'NONE', ( #91, #85, #87, #88 ) ) ;
#91 = ORIENTED_EDGE ( 'NONE', *, *, #22, .F. ) ;
#92 = ORIENTED_EDGE ( 'NONE', *, *, #69, .F. ) ;
#93 = ORIENTED_EDGE ( 'NONE', *, *, #45, .T. ) ;
#94 = ORIENTED_EDGE ( 'NONE', *, *, #95, .T. ) ;
#95 = EDGE_CURVE ( 'NONE', #43, #14, #341, .T. ) ;
#96 = ADVANCED_FACE ( 'NONE', ( #342, #348 ), #347, .F. ) ;
#97 = EDGE_LOOP ( 'NONE', ( #98, #99 ) ) ;
#98 = ORIENTED_EDGE ( 'NONE', *, *, #95, .F. ) ;
#99 = ORIENTED_EDGE ( 'NONE', *, *, #42, .F. ) ;
#100 = EDGE_LOOP ( 'NONE', ( #101, #102 ) ) ;
#101 = ORIENTED_EDGE ( 'NONE', *, *, #25, .T. ) ;
#102 = ORIENTED_EDGE ( 'NONE', *, *, #52, .T. ) ;
#103 = CLOSED_SHELL ( 'NONE', ( #50, #74, #11, #18, #89, #53, #104, #80, #63, #71, #96 ) ) ;
#104 = ADVANCED_FACE ( 'NONE', ( #283, #292 ), #336, .F. ) ;
#105 = ORIENTED_EDGE ( 'NONE', *, *, #59, .F. ) ;
#106 = ORIENTED_EDGE ( 'NONE', *, *, #40, .F. ) ;
#107 = EDGE_CURVE ( 'NONE', #8, #4, #367, .T. ) ;
#108 = LINE ( 'NONE', #111, #109 ) ;
#109 = VECTOR ( 'NONE', #119, 1000.000000000000000 ) ;
#110 = CARTESIAN_POINT ( 'NONE',  ( -5.009326287108706300E-010, -9.999999996500434900, 1.500000000000000400 ) ) ;
#111 = CARTESIAN_POINT ( 'NONE',  ( -5.009326287108706300E-010, 2.412507003500041800, 1.500000000000001300 ) ) ;
#112 = DIRECTION ( 'NONE',  ( 0.0000000000000000000, 0.0000000000000000000, 1.000000000000000000 ) ) ;
#113 = DIRECTION ( 'NONE',  ( 0.0000000000000000000, 1.000000000000000000, 0.0000000000000000000 ) ) ;
#114 = CARTESIAN_POINT ( 'NONE',  ( -5.009326287108706300E-010, -9.999999996500434900, 0.0000000000000000000 ) ) ;
#115 = AXIS2_PLACEMENT_3D ( 'NONE', #114, #113, #112 ) ;
#116 = CIRCLE ( 'NONE', #115, 1.500000000000000400 ) ;
#117 = CARTESIAN_POINT ( 'NONE',  ( -5.009324450199175600E-010, -9.999999996500434900, -1.500000000000000400 ) ) ;
#118 = CARTESIAN_POINT ( 'NONE',  ( -5.009326287108706300E-010, -23.99999999650043500, 1.500000000000002200 ) ) ;
#119 = DIRECTION ( 'NONE',  ( 0.0000000000000000000, 1.000000000000000000, 0.0000000000000000000 ) ) ;
#120 = CARTESIAN_POINT ( 'NONE',  ( -5.009324450199175600E-010, -23.99999999650043500, -1.500000000000002400 ) ) ;
#121 = VECTOR ( 'NONE', #124, 1000.000000000000000 ) ;
#122 = LINE ( 'NONE', #141, #121 ) ;
#123 = FACE_OUTER_BOUND ( 'NONE', #31, .T. ) ;
#124 = DIRECTION ( 'NONE',  ( 0.0000000000000000000, 1.000000000000000000, 0.0000000000000000000 ) ) ;
#125 = VECTOR ( 'NONE', #140, 1000.000000000000000 ) ;
#126 = CARTESIAN_POINT ( 'NONE',  ( -5.009322000986467900E-010, 2.412507003500041800, -3.500000000000000400 ) ) ;
#127 = LINE ( 'NONE', #126, #125 ) ;
#128 = DIRECTION ( 'NONE',  ( 0.0000000000000000000, 0.0000000000000000000, -1.000000000000000000 ) ) ;
#129 = DIRECTION ( 'NONE',  ( 0.0000000000000000000, -1.000000000000000000, 0.0000000000000000000 ) ) ;
#130 = CARTESIAN_POINT ( 'NONE',  ( -5.009326287108706300E-010, -23.99999999650043500, 0.0000000000000000000 ) ) ;
#131 = AXIS2_PLACEMENT_3D ( 'NONE', #130, #129, #128 ) ;
#132 = CONICAL_SURFACE ( 'NONE', #131, 11.00000000000000000, 0.08314123188844121900 ) ;
#133 = FACE_OUTER_BOUND ( 'NONE', #19, .T. ) ;
#134 = DIRECTION ( 'NONE',  ( 0.0000000000000000000, -0.9965457582448795600, -0.08304547985373995900 ) ) ;
#135 = VECTOR ( 'NONE', #134, 1000.000000000000100 ) ;
#136 = CARTESIAN_POINT ( 'NONE',  ( -5.009326287108706300E-010, -23.99999999650043500, -11.00000000000000000 ) ) ;
#137 = LINE ( 'NONE', #136, #135 ) ;
#138 = CARTESIAN_POINT ( 'NONE',  ( -5.009326287108706300E-010, -23.99999999650043500, -11.00000000000000000 ) ) ;
#139 = CARTESIAN_POINT ( 'NONE',  ( -5.009322000986467900E-010, 3.499565220943523500E-009, -3.500000000000000000 ) ) ;
#140 = DIRECTION ( 'NONE',  ( 0.0000000000000000000, 1.000000000000000000, 0.0000000000000000000 ) ) ;
#141 = CARTESIAN_POINT ( 'NONE',  ( -5.009324450199175600E-010, 2.412507003500041800, -1.500000000000001300 ) ) ;
#142 = DIRECTION ( 'NONE',  ( 0.0000000000000000000, 1.000000000000000000, 0.0000000000000000000 ) ) ;
#143 = CARTESIAN_POINT ( 'NONE',  ( -5.009326287108706300E-010, -0.9999999965004348100, 8.079867118433975600 ) ) ;
#144 = DIRECTION ( 'NONE',  ( 0.0000000000000000000, 0.0000000000000000000, 1.000000000000000000 ) ) ;
#145 = AXIS2_PLACEMENT_3D ( 'NONE', #143, #152, #153 ) ;
#146 = CARTESIAN_POINT ( 'NONE',  ( -5.009326287108706300E-010, 3.499565220943523500E-009, 0.0000000000000000000 ) ) ;
#147 = AXIS2_PLACEMENT_3D ( 'NONE', #146, #142, #144 ) ;
#148 = CIRCLE ( 'NONE', #147, 8.079867118433968500 ) ;
#149 = CARTESIAN_POINT ( 'NONE',  ( -5.009326287108706300E-010, 3.499565220943523500E-009, 8.079867118433968500 ) ) ;
#150 = CIRCLE ( 'NONE', #145, 0.9999999999999991100 ) ;
#151 = LOCAL_TIME ( 10, 41, 7.000000000000000000, #324 ) ;
#152 = DIRECTION ( 'NONE',  ( -1.000000000000000000, 0.0000000000000000000, 0.0000000000000000000 ) ) ;
#153 = DIRECTION ( 'NONE',  ( 0.0000000000000000000, 0.0000000000000000000, 1.000000000000000000 ) ) ;
#154 = CALENDAR_DATE ( 2009, 29, 6 ) ;
#155 = CC_DESIGN_DATE_AND_TIME_ASSIGNMENT ( #157, #156, ( #328 ) ) ;
#156 = DATE_TIME_ROLE ( 'classification_date' ) ;
#157 = DATE_AND_TIME ( #154, #151 ) ;
#158 = LOCAL_TIME ( 10, 41, 7.000000000000000000, #159 ) ;
#159 = COORDINATED_UNIVERSAL_TIME_OFFSET ( 9, 0, .AHEAD. ) ;
#160 = APPROVAL_PERSON_ORGANIZATION ( #161, #163, #162 ) ;
#161 = PERSON_AND_ORGANIZATION ( #340, #370 ) ;
#162 = APPROVAL_ROLE ( '' ) ;
#163 = APPROVAL ( #164, 'UNSPECIFIED' ) ;
#164 = APPROVAL_STATUS ( 'not_yet_approved' ) ;
#165 = APPROVAL_DATE_TIME ( #169, #163 ) ;
#166 = CC_DESIGN_SECURITY_CLASSIFICATION ( #328, ( #301 ) ) ;
#167 = CC_DESIGN_APPROVAL ( #163, ( #328 ) ) ;
#168 = CALENDAR_DATE ( 2009, 29, 6 ) ;
#169 = DATE_AND_TIME ( #168, #158 ) ;
#170 = DIRECTION ( 'NONE',  ( 0.0000000000000000000, 0.0000000000000000000, 1.000000000000000000 ) ) ;
#171 = DIRECTION ( 'NONE',  ( 0.0000000000000000000, 1.000000000000000000, 0.0000000000000000000 ) ) ;
#172 = CARTESIAN_POINT ( 'NONE',  ( -5.009326287108706300E-010, -0.9169545166467013600, 0.0000000000000000000 ) ) ;
#173 = AXIS2_PLACEMENT_3D ( 'NONE', #172, #171, #170 ) ;
#174 = DIRECTION ( 'NONE',  ( 0.0000000000000000000, 0.0000000000000000000, 1.000000000000000000 ) ) ;
#175 = DIRECTION ( 'NONE',  ( 0.0000000000000000000, 1.000000000000000000, 0.0000000000000000000 ) ) ;
#176 = CARTESIAN_POINT ( 'NONE',  ( -5.009326287108706300E-010, -9.999999996500434900, 0.0000000000000000000 ) ) ;
#177 = AXIS2_PLACEMENT_3D ( 'NONE', #176, #175, #174 ) ;
#178 = PRODUCT_RELATED_PRODUCT_CATEGORY ( 'detail', '', ( #304 ) ) ;
#179 = CARTESIAN_POINT ( 'NONE',  ( -5.009326287108706300E-010, -9.999999996500434900, 3.500000000000001300 ) ) ;
#180 = CARTESIAN_POINT ( 'NONE',  ( -5.009322000986467900E-010, -9.999999996500434900, -3.500000000000001300 ) ) ;
#181 = CIRCLE ( 'NONE', #173, 9.076412876678855200 ) ;
#182 = CARTESIAN_POINT ( 'NONE',  ( -5.009326287108706300E-010, -0.9169545166467013600, 9.076412876678855200 ) ) ;
#183 = LINE ( 'NONE', #188, #187 ) ;
#184 = CARTESIAN_POINT ( 'NONE',  ( -5.009315172075826900E-010, -0.9169545166467013600, -9.076412876678855200 ) ) ;
#185 = CARTESIAN_POINT ( 'NONE',  ( -5.009312816438814300E-010, -23.99999999650043500, 11.00000000000000000 ) ) ;
#186 = DIRECTION ( 'NONE',  ( 1.016980222851181600E-017, -0.9965457582448795600, 0.08304547985373995900 ) ) ;
#187 = VECTOR ( 'NONE', #186, 1000.000000000000100 ) ;
#188 = CARTESIAN_POINT ( 'NONE',  ( -5.009312816438814300E-010, -23.99999999650043500, 11.00000000000000000 ) ) ;
#189 = CIRCLE ( 'NONE', #177, 3.500000000000001300 ) ;
#190 = DIRECTION ( 'NONE',  ( 0.0000000000000000000, 1.000000000000000000, 0.0000000000000000000 ) ) ;
#191 = VECTOR ( 'NONE', #190, 1000.000000000000000 ) ;
#192 = CARTESIAN_POINT ( 'NONE',  ( -5.009326287108706300E-010, 2.412507003500041800, 3.500000000000000400 ) ) ;
#193 = LINE ( 'NONE', #192, #191 ) ;
#194 = DIRECTION ( 'NONE',  ( 0.0000000000000000000, 0.0000000000000000000, 1.000000000000000000 ) ) ;
#195 = DIRECTION ( 'NONE',  ( 0.0000000000000000000, 1.000000000000000000, 0.0000000000000000000 ) ) ;
#196 = CARTESIAN_POINT ( 'NONE',  ( -5.009326287108706300E-010, 3.499565220943523500E-009, 0.0000000000000000000 ) ) ;
#197 = AXIS2_PLACEMENT_3D ( 'NONE', #196, #195, #194 ) ;
#198 = CIRCLE ( 'NONE', #197, 3.500000000000000000 ) ;
#199 = CARTESIAN_POINT ( 'NONE',  ( -5.009326287108706300E-010, 3.499565220943523500E-009, 3.500000000000000000 ) ) ;
#200 = DIRECTION ( 'NONE',  ( 0.0000000000000000000, 0.0000000000000000000, 1.000000000000000000 ) ) ;
#201 = DIRECTION ( 'NONE',  ( 0.0000000000000000000, 1.000000000000000000, 0.0000000000000000000 ) ) ;
#202 = CARTESIAN_POINT ( 'NONE',  ( -5.009326287108706300E-010, -23.99999999650043500, 0.0000000000000000000 ) ) ;
#203 = AXIS2_PLACEMENT_3D ( 'NONE', #202, #201, #200 ) ;
#204 = CIRCLE ( 'NONE', #203, 11.00000000000000000 ) ;
#205 = DIRECTION ( 'NONE',  ( 0.0000000000000000000, 0.0000000000000000000, 1.000000000000000000 ) ) ;
#206 = DIRECTION ( 'NONE',  ( 0.0000000000000000000, 1.000000000000000000, 0.0000000000000000000 ) ) ;
#207 = CARTESIAN_POINT ( 'NONE',  ( -5.009326287108706300E-010, 3.499565220943523500E-009, 0.0000000000000000000 ) ) ;
#208 = AXIS2_PLACEMENT_3D ( 'NONE', #207, #206, #205 ) ;
#209 = CIRCLE ( 'NONE', #208, 8.079867118433968500 ) ;
#210 = FACE_OUTER_BOUND ( 'NONE', #54, .T. ) ;
#211 = DIRECTION ( 'NONE',  ( 0.0000000000000000000, 0.0000000000000000000, 1.000000000000000000 ) ) ;
#212 = DIRECTION ( 'NONE',  ( 0.0000000000000000000, 1.000000000000000000, 0.0000000000000000000 ) ) ;
#213 = FACE_OUTER_BOUND ( 'NONE', #51, .T. ) ;
#214 = CYLINDRICAL_SURFACE ( 'NONE', #223, 3.500000000000000400 ) ;
#215 = DIRECTION ( 'NONE',  ( 0.0000000000000000000, 0.0000000000000000000, -1.000000000000000000 ) ) ;
#216 = DIRECTION ( 'NONE',  ( 0.0000000000000000000, -1.000000000000000000, 0.0000000000000000000 ) ) ;
#217 = AXIS2_PLACEMENT_3D ( 'NONE', #221, #216, #215 ) ;
#218 = CONICAL_SURFACE ( 'NONE', #217, 11.00000000000000000, 0.08314123188844121900 ) ;
#219 = SHAPE_DEFINITION_REPRESENTATION ( #220, #352 ) ;
#220 = PRODUCT_DEFINITION_SHAPE ( 'NONE', 'NONE',  #276 ) ;
#221 = CARTESIAN_POINT ( 'NONE',  ( -5.009326287108706300E-010, -23.99999999650043500, 0.0000000000000000000 ) ) ;
#222 = CARTESIAN_POINT ( 'NONE',  ( -5.009326287108706300E-010, 2.412507003500041800, 0.0000000000000000000 ) ) ;
#223 = AXIS2_PLACEMENT_3D ( 'NONE', #222, #212, #211 ) ;
#224 = CARTESIAN_POINT ( 'NONE',  ( -5.009326287108706300E-010, 2.412507003500041800, 0.0000000000000000000 ) ) ;
#225 = DIRECTION ( 'NONE',  ( 0.0000000000000000000, 0.0000000000000000000, -1.000000000000000000 ) ) ;
#226 = CARTESIAN_POINT ( 'NONE',  ( -5.009326287108706300E-010, -9.999999996500434900, 0.0000000000000000000 ) ) ;
#227 = FACE_BOUND ( 'NONE', #64, .T. ) ;
#228 = DIRECTION ( 'NONE',  ( 0.0000000000000000000, -1.000000000000000000, 0.0000000000000000000 ) ) ;
#229 = CARTESIAN_POINT ( 'NONE',  ( 3.499999999499068700, -9.999999996500434900, 0.0000000000000000000 ) ) ;
#230 = AXIS2_PLACEMENT_3D ( 'NONE', #229, #228, #225 ) ;
#231 = PLANE ( 'NONE',  #230 ) ;
#232 = CARTESIAN_POINT ( 'NONE',  ( -5.009326287108706300E-010, -9.999999996500434900, 0.0000000000000000000 ) ) ;
#233 = FACE_OUTER_BOUND ( 'NONE', #67, .T. ) ;
#234 = DIRECTION ( 'NONE',  ( 0.0000000000000000000, 0.0000000000000000000, 1.000000000000000000 ) ) ;
#235 = DIRECTION ( 'NONE',  ( 0.0000000000000000000, 1.000000000000000000, 0.0000000000000000000 ) ) ;
#236 = AXIS2_PLACEMENT_3D ( 'NONE', #232, #235, #234 ) ;
#237 = CIRCLE ( 'NONE', #236, 3.500000000000001300 ) ;
#238 = FACE_OUTER_BOUND ( 'NONE', #72, .T. ) ;
#239 = DIRECTION ( 'NONE',  ( 0.0000000000000000000, 0.0000000000000000000, 1.000000000000000000 ) ) ;
#240 = DIRECTION ( 'NONE',  ( 0.0000000000000000000, 1.000000000000000000, 0.0000000000000000000 ) ) ;
#241 = AXIS2_PLACEMENT_3D ( 'NONE', #226, #240, #239 ) ;
#242 = CIRCLE ( 'NONE', #241, 1.500000000000000400 ) ;
#243 = DIRECTION ( 'NONE',  ( 0.0000000000000000000, 0.0000000000000000000, 1.000000000000000000 ) ) ;
#244 = DIRECTION ( 'NONE',  ( 0.0000000000000000000, 1.000000000000000000, 0.0000000000000000000 ) ) ;
#245 = AXIS2_PLACEMENT_3D ( 'NONE', #224, #244, #243 ) ;
#246 = CYLINDRICAL_SURFACE ( 'NONE', #245, 3.500000000000000400 ) ;
#247 = AXIS2_PLACEMENT_3D ( 'NONE', #250, #249, #248 ) ;
#248 = DIRECTION ( 'NONE',  ( 0.0000000000000000000, 0.0000000000000000000, 1.000000000000000000 ) ) ;
#249 = DIRECTION ( 'NONE',  ( 0.0000000000000000000, 1.000000000000000000, 0.0000000000000000000 ) ) ;
#250 = CARTESIAN_POINT ( 'NONE',  ( -5.009326287108706300E-010, -23.99999999650043500, 0.0000000000000000000 ) ) ;
#251 = CIRCLE ( 'NONE', #247, 11.00000000000000000 ) ;
#252 = APPLICATION_PROTOCOL_DEFINITION ( 'international standard', 'config_control_design', 1994, #253 ) ;
#253 = APPLICATION_CONTEXT ( 'configuration controlled 3d designs of mechanical parts and assemblies' ) ;
#254 = CC_DESIGN_PERSON_AND_ORGANIZATION_ASSIGNMENT ( #369, #368, ( #304 ) ) ;
#255 = CIRCLE ( 'NONE', #362, 9.076412876678855200 ) ;
#256 = DATE_TIME_ROLE ( 'creation_date' ) ;
#257 = DATE_AND_TIME ( #258, #259 ) ;
#258 = CALENDAR_DATE ( 2009, 29, 6 ) ;
#259 = LOCAL_TIME ( 10, 41, 7.000000000000000000, #260 ) ;
#260 = COORDINATED_UNIVERSAL_TIME_OFFSET ( 9, 0, .AHEAD. ) ;
#261 = CC_DESIGN_PERSON_AND_ORGANIZATION_ASSIGNMENT ( #287, #286, ( #276 ) ) ;
#262 =( NAMED_UNIT ( * ) SI_UNIT ( $, .STERADIAN. ) SOLID_ANGLE_UNIT ( ) );
#263 =( NAMED_UNIT ( * ) PLANE_ANGLE_UNIT ( ) SI_UNIT ( $, .RADIAN. ) );
#264 =( LENGTH_UNIT ( ) NAMED_UNIT ( * ) SI_UNIT ( .MILLI., .METRE. ) );
#265 = CARTESIAN_POINT ( 'NONE',  ( -5.009326287108706300E-010, -0.9999999965004348100, 0.0000000000000000000 ) ) ;
#266 = DIRECTION ( 'NONE',  ( 0.0000000000000000000, 0.0000000000000000000, 1.000000000000000000 ) ) ;
#267 = DIRECTION ( 'NONE',  ( 0.0000000000000000000, 1.000000000000000000, 0.0000000000000000000 ) ) ;
#268 = AXIS2_PLACEMENT_3D ( 'NONE', #343, #278, #344 ) ;
#269 = LOCAL_TIME ( 10, 41, 7.000000000000000000, #270 ) ;
#270 = COORDINATED_UNIVERSAL_TIME_OFFSET ( 9, 0, .AHEAD. ) ;
#271 = APPROVAL_PERSON_ORGANIZATION ( #275, #273, #272 ) ;
#272 = APPROVAL_ROLE ( '' ) ;
#273 = APPROVAL ( #274, 'UNSPECIFIED' ) ;
#274 = APPROVAL_STATUS ( 'not_yet_approved' ) ;
#275 = PERSON_AND_ORGANIZATION ( #340, #370 ) ;
#276 = PRODUCT_DEFINITION ( 'UNKNOWN', '', #301, #277 ) ;
#277 = DESIGN_CONTEXT ( 'detailed design', #253, 'design' ) ;
#278 = DIRECTION ( 'NONE',  ( 0.0000000000000000000, 1.000000000000000000, 0.0000000000000000000 ) ) ;
#279 = DIRECTION ( 'NONE',  ( 0.0000000000000000000, 0.0000000000000000000, 1.000000000000000000 ) ) ;
#280 = UNCERTAINTY_MEASURE_WITH_UNIT (LENGTH_MEASURE( 1.000000000000000100E-005 ), #264, 'distance_accuracy_value', 'NONE');
#281 = DIRECTION ( 'NONE',  ( 1.000000000000000000, 0.0000000000000000000, 0.0000000000000000000 ) ) ;
#282 = AXIS2_PLACEMENT_3D ( 'NONE', #295, #294, #293 ) ;
#283 = FACE_OUTER_BOUND ( 'NONE', #60, .T. ) ;
#284 = CYLINDRICAL_SURFACE ( 'NONE', #353, 1.500000000000001300 ) ;
#285 = DIRECTION ( 'NONE',  ( 0.0000000000000000000, 0.0000000000000000000, 1.000000000000000000 ) ) ;
#286 = PERSON_AND_ORGANIZATION_ROLE ( 'creator' ) ;
#287 = PERSON_AND_ORGANIZATION ( #340, #370 ) ;
#288 = CC_DESIGN_APPROVAL ( #273, ( #276 ) ) ;
#289 = APPROVAL_DATE_TIME ( #290, #273 ) ;
#290 = DATE_AND_TIME ( #291, #269 ) ;
#291 = CALENDAR_DATE ( 2009, 29, 6 ) ;
#292 = FACE_BOUND ( 'NONE', #76, .T. ) ;
#293 = DIRECTION ( 'NONE',  ( 0.0000000000000000000, 0.0000000000000000000, -1.000000000000000000 ) ) ;
#294 = DIRECTION ( 'NONE',  ( 0.0000000000000000000, -1.000000000000000000, 0.0000000000000000000 ) ) ;
#295 = CARTESIAN_POINT ( 'NONE',  ( 8.079867117933035900, 3.499565288624657600E-009, 0.0000000000000000000 ) ) ;
#296 = FACE_OUTER_BOUND ( 'NONE', #81, .T. ) ;
#297 = APPROVAL_ROLE ( '' ) ;
#298 = APPROVAL ( #299, 'UNSPECIFIED' ) ;
#299 = APPROVAL_STATUS ( 'not_yet_approved' ) ;
#300 = PERSON_AND_ORGANIZATION ( #340, #370 ) ;
#301 = PRODUCT_DEFINITION_FORMATION_WITH_SPECIFIED_SOURCE ( 'ANY', '', #304, .NOT_KNOWN. ) ;
#302 = CC_DESIGN_DATE_AND_TIME_ASSIGNMENT ( #257, #256, ( #276 ) ) ;
#303 = DIRECTION ( 'NONE',  ( 0.0000000000000000000, 1.000000000000000000, 0.0000000000000000000 ) ) ;
#304 = PRODUCT ( 'C-30-RK-22-ÃÞÌ«ÙÄ', 'C-30-RK-22-ÃÞÌ«ÙÄ', '', ( #305 ) ) ;
#305 = MECHANICAL_CONTEXT ( 'NONE', #307, 'mechanical' ) ;
#306 = APPLICATION_PROTOCOL_DEFINITION ( 'international standard', 'config_control_design', 1994, #307 ) ;
#307 = APPLICATION_CONTEXT ( 'configuration controlled 3d designs of mechanical parts and assemblies' ) ;
#308 = PERSON_AND_ORGANIZATION_ROLE ( 'creator' ) ;
#309 = PERSON_AND_ORGANIZATION ( #340, #370 ) ;
#310 = CC_DESIGN_APPROVAL ( #298, ( #301 ) ) ;
#311 = APPROVAL_DATE_TIME ( #312, #298 ) ;
#312 = DATE_AND_TIME ( #313, #314 ) ;
#313 = CALENDAR_DATE ( 2009, 29, 6 ) ;
#314 = LOCAL_TIME ( 10, 41, 7.000000000000000000, #315 ) ;
#315 = COORDINATED_UNIVERSAL_TIME_OFFSET ( 9, 0, .AHEAD. ) ;
#316 = APPROVAL_PERSON_ORGANIZATION ( #300, #298, #297 ) ;
#317 = DIRECTION ( 'NONE',  ( 0.0000000000000000000, 0.0000000000000000000, 1.000000000000000000 ) ) ;
#318 =( GEOMETRIC_REPRESENTATION_CONTEXT ( 3 ) GLOBAL_UNCERTAINTY_ASSIGNED_CONTEXT ( ( #280 ) ) GLOBAL_UNIT_ASSIGNED_CONTEXT ( ( #264, #263, #262 ) ) REPRESENTATION_CONTEXT ( 'NONE', 'WORKASPACE' ) );
#319 = CC_DESIGN_PERSON_AND_ORGANIZATION_ASSIGNMENT ( #321, #320, ( #301 ) ) ;
#320 = PERSON_AND_ORGANIZATION_ROLE ( 'design_supplier' ) ;
#321 = PERSON_AND_ORGANIZATION ( #340, #370 ) ;
#322 = CC_DESIGN_PERSON_AND_ORGANIZATION_ASSIGNMENT ( #309, #308, ( #301 ) ) ;
#323 = CARTESIAN_POINT ( 'NONE',  ( -5.009326287108706300E-010, -23.99999999650043500, 0.0000000000000000000 ) ) ;
#324 = COORDINATED_UNIVERSAL_TIME_OFFSET ( 9, 0, .AHEAD. ) ;
#325 = CC_DESIGN_PERSON_AND_ORGANIZATION_ASSIGNMENT ( #327, #326, ( #328 ) ) ;
#326 = PERSON_AND_ORGANIZATION_ROLE ( 'classification_officer' ) ;
#327 = PERSON_AND_ORGANIZATION ( #340, #370 ) ;
#328 = SECURITY_CLASSIFICATION ( '', '', #329 ) ;
#329 = SECURITY_CLASSIFICATION_LEVEL ( 'unclassified' ) ;
#330 = TOROIDAL_SURFACE ( 'NONE', #338, 8.079867118433975600, 0.9999999999999997800 ) ;
#331 = FACE_OUTER_BOUND ( 'NONE', #46, .T. ) ;
#332 = DIRECTION ( 'NONE',  ( 0.0000000000000000000, 0.0000000000000000000, 1.000000000000000000 ) ) ;
#333 = DIRECTION ( 'NONE',  ( 0.0000000000000000000, 1.000000000000000000, 0.0000000000000000000 ) ) ;
#334 = CARTESIAN_POINT ( 'NONE',  ( 1.499999999499069600, -23.99999999650043500, 0.0000000000000000000 ) ) ;
#335 = AXIS2_PLACEMENT_3D ( 'NONE', #334, #333, #332 ) ;
#336 = PLANE ( 'NONE',  #335 ) ;
#337 = DIRECTION ( 'NONE',  ( 0.0000000000000000000, 1.000000000000000000, 0.0000000000000000000 ) ) ;
#338 = AXIS2_PLACEMENT_3D ( 'NONE', #265, #337, #285 ) ;
#339 = CARTESIAN_POINT ( 'NONE',  ( -5.009326287108706300E-010, 2.412507003500041800, 0.0000000000000000000 ) ) ;
#340 = PERSON ( 'UNSPECIFIED', 'UNSPECIFIED', 'UNSPECIFIED', ('UNSPECIFIED'), ('UNSPECIFIED'), ('UNSPECIFIED') ) ;
#341 = CIRCLE ( 'NONE', #357, 3.500000000000000000 ) ;
#342 = FACE_BOUND ( 'NONE', #97, .T. ) ;
#343 = CARTESIAN_POINT ( 'NONE',  ( -5.009326287108706300E-010, 2.412507003500041800, 0.0000000000000000000 ) ) ;
#344 = DIRECTION ( 'NONE',  ( 0.0000000000000000000, 0.0000000000000000000, 1.000000000000000000 ) ) ;
#345 = DIRECTION ( 'NONE',  ( 0.0000000000000000000, 1.000000000000000000, 0.0000000000000000000 ) ) ;
#346 = CIRCLE ( 'NONE', #349, 1.500000000000002200 ) ;
#347 = PLANE ( 'NONE',  #282 ) ;
#348 = FACE_OUTER_BOUND ( 'NONE', #100, .T. ) ;
#349 = AXIS2_PLACEMENT_3D ( 'NONE', #323, #303, #279 ) ;
#350 = CARTESIAN_POINT ( 'NONE',  ( 0.0000000000000000000, 0.0000000000000000000, 0.0000000000000000000 ) ) ;
#351 = AXIS2_PLACEMENT_3D ( 'NONE', #350, #317, #281 ) ;
#352 = ADVANCED_BREP_SHAPE_REPRESENTATION ( 'C-30-RK-22-ÃÞÌ«ÙÄ', ( #49, #351 ), #318 ) ;
#353 = AXIS2_PLACEMENT_3D ( 'NONE', #339, #345, #359 ) ;
#354 = DIRECTION ( 'NONE',  ( 0.0000000000000000000, 0.0000000000000000000, 1.000000000000000000 ) ) ;
#355 = DIRECTION ( 'NONE',  ( 0.0000000000000000000, 1.000000000000000000, 0.0000000000000000000 ) ) ;
#356 = CARTESIAN_POINT ( 'NONE',  ( -5.009326287108706300E-010, 3.499565220943523500E-009, 0.0000000000000000000 ) ) ;
#357 = AXIS2_PLACEMENT_3D ( 'NONE', #356, #355, #354 ) ;
#358 = CYLINDRICAL_SURFACE ( 'NONE', #268, 1.500000000000001300 ) ;
#359 = DIRECTION ( 'NONE',  ( 0.0000000000000000000, 0.0000000000000000000, 1.000000000000000000 ) ) ;
#360 = CARTESIAN_POINT ( 'NONE',  ( -5.009326287108706300E-010, -23.99999999650043500, 0.0000000000000000000 ) ) ;
#361 = CARTESIAN_POINT ( 'NONE',  ( -5.009326287108706300E-010, -0.9169545166467013600, 0.0000000000000000000 ) ) ;
#362 = AXIS2_PLACEMENT_3D ( 'NONE', #361, #267, #266 ) ;
#363 = FACE_OUTER_BOUND ( 'NONE', #90, .T. ) ;
#364 = DIRECTION ( 'NONE',  ( 0.0000000000000000000, 0.0000000000000000000, 1.000000000000000000 ) ) ;
#365 = DIRECTION ( 'NONE',  ( 0.0000000000000000000, 1.000000000000000000, 0.0000000000000000000 ) ) ;
#366 = AXIS2_PLACEMENT_3D ( 'NONE', #360, #365, #364 ) ;
#367 = CIRCLE ( 'NONE', #366, 1.500000000000002200 ) ;
#368 = PERSON_AND_ORGANIZATION_ROLE ( 'design_owner' ) ;
#369 = PERSON_AND_ORGANIZATION ( #340, #370 ) ;
#370 = ORGANIZATION ( 'UNSPECIFIED', 'UNSPECIFIED', '' ) ;
#371 = CIRCLE ( 'NONE', #381, 0.9999999999999991100 ) ;
#372 = DIRECTION ( 'NONE',  ( 0.0000000000000000000, 0.0000000000000000000, 1.000000000000000000 ) ) ;
#373 = DIRECTION ( 'NONE',  ( 0.0000000000000000000, 1.000000000000000000, 0.0000000000000000000 ) ) ;
#374 = CARTESIAN_POINT ( 'NONE',  ( -5.009326287108706300E-010, -0.9999999965004348100, 0.0000000000000000000 ) ) ;
#375 = AXIS2_PLACEMENT_3D ( 'NONE', #374, #373, #372 ) ;
#376 = TOROIDAL_SURFACE ( 'NONE', #375, 8.079867118433975600, 0.9999999999999997800 ) ;
#377 = CARTESIAN_POINT ( 'NONE',  ( -5.009315782263960900E-010, 3.499565220943523500E-009, -8.079867118433968500 ) ) ;
#378 = DIRECTION ( 'NONE',  ( 1.224606353612351900E-016, 0.0000000000000000000, -1.000000000000000000 ) ) ;
#379 = DIRECTION ( 'NONE',  ( 1.000000000000000000, 0.0000000000000000000, 1.224606353822377300E-016 ) ) ;
#380 = CARTESIAN_POINT ( 'NONE',  ( -5.009316392452094900E-010, -0.9999999965004348100, -8.079867118433975600 ) ) ;
#381 = AXIS2_PLACEMENT_3D ( 'NONE', #380, #379, #378 ) ;
ENDSEC;
END-ISO-10303-21;
