ISO-10303-21;
HEADER;
FILE_DESCRIPTION (( 'STEP AP203' ),
    '1' );
FILE_NAME ('C-30-RK-22-gray.STEP',
    '2009-06-29T01:39:55',
    ( '11sw' ),
    ( '^LQ»¢®ïÐ' ),
    'SwSTEP 2.0',
    'SolidWorks 2007',
    '' );
FILE_SCHEMA (( 'CONFIG_CONTROL_DESIGN' ));
ENDSEC;

DATA;
#1 = ORIENTED_EDGE ( 'NONE', *, *, #115, .T. ) ;
#2 = VERTEX_POINT ( 'NONE', #107 ) ;
#3 = VERTEX_POINT ( 'NONE', #106 ) ;
#4 = VERTEX_POINT ( 'NONE', #55 ) ;
#5 = ORIENTED_EDGE ( 'NONE', *, *, #19, .F. ) ;
#6 = ADVANCED_FACE ( 'NONE', ( #54 ), #168, .T. ) ;
#7 = ORIENTED_EDGE ( 'NONE', *, *, #10, .T. ) ;
#8 = VERTEX_POINT ( 'NONE', #160 ) ;
#9 = EDGE_CURVE ( 'NONE', #76, #78, #156, .T. ) ;
#10 = EDGE_CURVE ( 'NONE', #78, #8, #153, .T. ) ;
#11 = EDGE_LOOP ( 'NONE', ( #13, #1, #116, #104 ) ) ;
#12 = EDGE_CURVE ( 'NONE', #4, #3, #165, .T. ) ;
#13 = ORIENTED_EDGE ( 'NONE', *, *, #12, .F. ) ;
#14 = EDGE_CURVE ( 'NONE', #3, #15, #184, .T. ) ;
#15 = VERTEX_POINT ( 'NONE', #180 ) ;
#16 = ORIENTED_EDGE ( 'NONE', *, *, #81, .F. ) ;
#17 = VERTEX_POINT ( 'NONE', #179 ) ;
#18 = ORIENTED_EDGE ( 'NONE', *, *, #9, .T. ) ;
#19 = EDGE_CURVE ( 'NONE', #77, #8, #177, .T. ) ;
#20 = EDGE_LOOP ( 'NONE', ( #79, #66, #62, #96 ) ) ;
#21 = VERTEX_POINT ( 'NONE', #173 ) ;
#22 = CC_DESIGN_PERSON_AND_ORGANIZATION_ASSIGNMENT ( #24, #23, ( #322 ) ) ;
#23 = PERSON_AND_ORGANIZATION_ROLE ( 'design_supplier' ) ;
#24 = PERSON_AND_ORGANIZATION ( #209, #208 ) ;
#25 = EDGE_LOOP ( 'NONE', ( #27, #39 ) ) ;
#26 = ADVANCED_FACE ( 'NONE', ( #172 ), #170, .F. ) ;
#27 = ORIENTED_EDGE ( 'NONE', *, *, #29, .T. ) ;
#28 = MANIFOLD_SOLID_BREP ( 'NONE', #86 ) ;
#29 = EDGE_CURVE ( 'NONE', #77, #76, #145, .T. ) ;
#30 = EDGE_LOOP ( 'NONE', ( #31, #38 ) ) ;
#31 = ORIENTED_EDGE ( 'NONE', *, *, #37, .F. ) ;
#32 = ORIENTED_EDGE ( 'NONE', *, *, #46, .F. ) ;
#33 = ORIENTED_EDGE ( 'NONE', *, *, #10, .F. ) ;
#34 = EDGE_LOOP ( 'NONE', ( #75, #119 ) ) ;
#35 = ORIENTED_EDGE ( 'NONE', *, *, #93, .F. ) ;
#36 = ORIENTED_EDGE ( 'NONE', *, *, #105, .T. ) ;
#37 = EDGE_CURVE ( 'NONE', #103, #2, #139, .T. ) ;
#38 = ORIENTED_EDGE ( 'NONE', *, *, #117, .F. ) ;
#39 = ORIENTED_EDGE ( 'NONE', *, *, #71, .T. ) ;
#40 = ADVANCED_FACE ( 'NONE', ( #140 ), #134, .F. ) ;
#41 = EDGE_LOOP ( 'NONE', ( #42, #43, #44, #45 ) ) ;
#42 = ORIENTED_EDGE ( 'NONE', *, *, #9, .F. ) ;
#43 = ORIENTED_EDGE ( 'NONE', *, *, #29, .F. ) ;
#44 = ORIENTED_EDGE ( 'NONE', *, *, #19, .T. ) ;
#45 = ORIENTED_EDGE ( 'NONE', *, *, #46, .T. ) ;
#46 = EDGE_CURVE ( 'NONE', #8, #78, #130, .T. ) ;
#47 = ORIENTED_EDGE ( 'NONE', *, *, #37, .T. ) ;
#48 = ADVANCED_FACE ( 'NONE', ( #125, #124 ), #123, .F. ) ;
#49 = ADVANCED_FACE ( 'NONE', ( #306, #305 ), #189, .F. ) ;
#50 = EDGE_LOOP ( 'NONE', ( #32, #33 ) ) ;
#51 = DIRECTION ( 'NONE',  ( 0.0000000000000000000, 1.000000000000000000, 0.0000000000000000000 ) ) ;
#52 = CARTESIAN_POINT ( 'NONE',  ( 1.499999999499069600, -23.99999999650043500, 0.0000000000000000000 ) ) ;
#53 = AXIS2_PLACEMENT_3D ( 'NONE', #52, #51, #307 ) ;
#54 = FACE_OUTER_BOUND ( 'NONE', #11, .T. ) ;
#55 = CARTESIAN_POINT ( 'NONE',  ( -5.009326287108706300E-010, -0.9169545166467013600, 9.076412876678855200 ) ) ;
#56 = CC_DESIGN_PERSON_AND_ORGANIZATION_ASSIGNMENT ( #58, #57, ( #59 ) ) ;
#57 = PERSON_AND_ORGANIZATION_ROLE ( 'classification_officer' ) ;
#58 = PERSON_AND_ORGANIZATION ( #209, #208 ) ;
#59 = SECURITY_CLASSIFICATION ( '', '', #60 ) ;
#60 = SECURITY_CLASSIFICATION_LEVEL ( 'unclassified' ) ;
#61 = ORIENTED_EDGE ( 'NONE', *, *, #14, .T. ) ;
#62 = ORIENTED_EDGE ( 'NONE', *, *, #63, .T. ) ;
#63 = EDGE_CURVE ( 'NONE', #68, #64, #206, .T. ) ;
#64 = VERTEX_POINT ( 'NONE', #303 ) ;
#65 = VERTEX_POINT ( 'NONE', #302 ) ;
#66 = ORIENTED_EDGE ( 'NONE', *, *, #67, .T. ) ;
#67 = EDGE_CURVE ( 'NONE', #21, #68, #360, .T. ) ;
#68 = VERTEX_POINT ( 'NONE', #298 ) ;
#69 = EDGE_LOOP ( 'NONE', ( #70, #18, #7, #5 ) ) ;
#70 = ORIENTED_EDGE ( 'NONE', *, *, #71, .F. ) ;
#71 = EDGE_CURVE ( 'NONE', #76, #77, #263, .T. ) ;
#72 = ADVANCED_FACE ( 'NONE', ( #264 ), #285, .F. ) ;
#73 = ORIENTED_EDGE ( 'NONE', *, *, #67, .F. ) ;
#74 = ORIENTED_EDGE ( 'NONE', *, *, #121, .F. ) ;
#75 = ORIENTED_EDGE ( 'NONE', *, *, #121, .T. ) ;
#76 = VERTEX_POINT ( 'NONE', #190 ) ;
#77 = VERTEX_POINT ( 'NONE', #281 ) ;
#78 = VERTEX_POINT ( 'NONE', #280 ) ;
#79 = ORIENTED_EDGE ( 'NONE', *, *, #80, .F. ) ;
#80 = EDGE_CURVE ( 'NONE', #21, #65, #279, .T. ) ;
#81 = EDGE_CURVE ( 'NONE', #17, #15, #237, .T. ) ;
#82 = ORIENTED_EDGE ( 'NONE', *, *, #83, .F. ) ;
#83 = EDGE_CURVE ( 'NONE', #4, #17, #233, .T. ) ;
#84 = ADVANCED_FACE ( 'NONE', ( #276 ), #275, .T. ) ;
#85 = EDGE_LOOP ( 'NONE', ( #91, #92, #94, #95 ) ) ;
#86 = CLOSED_SHELL ( 'NONE', ( #26, #98, #6, #113, #84, #100, #48, #40, #49, #72, #90 ) ) ;
#87 = ORIENTED_EDGE ( 'NONE', *, *, #109, .F. ) ;
#88 = EDGE_LOOP ( 'NONE', ( #87, #89 ) ) ;
#89 = ORIENTED_EDGE ( 'NONE', *, *, #63, .F. ) ;
#90 = ADVANCED_FACE ( 'NONE', ( #274, #203 ), #202, .F. ) ;
#91 = ORIENTED_EDGE ( 'NONE', *, *, #14, .F. ) ;
#92 = ORIENTED_EDGE ( 'NONE', *, *, #93, .T. ) ;
#93 = EDGE_CURVE ( 'NONE', #3, #4, #197, .T. ) ;
#94 = ORIENTED_EDGE ( 'NONE', *, *, #83, .T. ) ;
#95 = ORIENTED_EDGE ( 'NONE', *, *, #99, .F. ) ;
#96 = ORIENTED_EDGE ( 'NONE', *, *, #97, .F. ) ;
#97 = EDGE_CURVE ( 'NONE', #65, #64, #294, .T. ) ;
#98 = ADVANCED_FACE ( 'NONE', ( #290 ), #289, .F. ) ;
#99 = EDGE_CURVE ( 'NONE', #15, #17, #288, .T. ) ;
#100 = ADVANCED_FACE ( 'NONE', ( #255 ), #254, .T. ) ;
#101 = EDGE_LOOP ( 'NONE', ( #114, #35, #36, #47 ) ) ;
#102 = EDGE_LOOP ( 'NONE', ( #122, #61, #16, #82 ) ) ;
#103 = VERTEX_POINT ( 'NONE', #249 ) ;
#104 = ORIENTED_EDGE ( 'NONE', *, *, #105, .F. ) ;
#105 = EDGE_CURVE ( 'NONE', #3, #103, #248, .T. ) ;
#106 = CARTESIAN_POINT ( 'NONE',  ( -5.009315172075826900E-010, -0.9169545166467013600, -9.076412876678855200 ) ) ;
#107 = CARTESIAN_POINT ( 'NONE',  ( -5.009312816438814300E-010, -23.99999999650043500, 11.00000000000000000 ) ) ;
#108 = ORIENTED_EDGE ( 'NONE', *, *, #109, .T. ) ;
#109 = EDGE_CURVE ( 'NONE', #64, #68, #244, .T. ) ;
#110 = ORIENTED_EDGE ( 'NONE', *, *, #97, .T. ) ;
#111 = ORIENTED_EDGE ( 'NONE', *, *, #99, .T. ) ;
#112 = ORIENTED_EDGE ( 'NONE', *, *, #81, .T. ) ;
#113 = ADVANCED_FACE ( 'NONE', ( #239 ), #238, .T. ) ;
#114 = ORIENTED_EDGE ( 'NONE', *, *, #115, .F. ) ;
#115 = EDGE_CURVE ( 'NONE', #4, #2, #359, .T. ) ;
#116 = ORIENTED_EDGE ( 'NONE', *, *, #117, .T. ) ;
#117 = EDGE_CURVE ( 'NONE', #2, #103, #223, .T. ) ;
#118 = EDGE_LOOP ( 'NONE', ( #112, #111 ) ) ;
#119 = ORIENTED_EDGE ( 'NONE', *, *, #80, .T. ) ;
#120 = EDGE_LOOP ( 'NONE', ( #73, #74, #110, #108 ) ) ;
#121 = EDGE_CURVE ( 'NONE', #65, #21, #218, .T. ) ;
#122 = ORIENTED_EDGE ( 'NONE', *, *, #12, .T. ) ;
#123 = PLANE ( 'NONE',  #53 ) ;
#124 = FACE_BOUND ( 'NONE', #25, .T. ) ;
#125 = FACE_OUTER_BOUND ( 'NONE', #30, .T. ) ;
#126 = DIRECTION ( 'NONE',  ( 0.0000000000000000000, 0.0000000000000000000, 1.000000000000000000 ) ) ;
#127 = DIRECTION ( 'NONE',  ( 0.0000000000000000000, 1.000000000000000000, 0.0000000000000000000 ) ) ;
#128 = CARTESIAN_POINT ( 'NONE',  ( -5.009326287108706300E-010, -9.999999996500434900, 0.0000000000000000000 ) ) ;
#129 = AXIS2_PLACEMENT_3D ( 'NONE', #128, #127, #126 ) ;
#130 = CIRCLE ( 'NONE', #129, 1.500000000000000400 ) ;
#131 = DIRECTION ( 'NONE',  ( 0.0000000000000000000, 0.0000000000000000000, 1.000000000000000000 ) ) ;
#132 = DIRECTION ( 'NONE',  ( 0.0000000000000000000, 1.000000000000000000, 0.0000000000000000000 ) ) ;
#133 = AXIS2_PLACEMENT_3D ( 'NONE', #135, #132, #131 ) ;
#134 = CYLINDRICAL_SURFACE ( 'NONE', #133, 1.500000000000001300 ) ;
#135 = CARTESIAN_POINT ( 'NONE',  ( -5.009326287108706300E-010, 2.412507003500041800, 0.0000000000000000000 ) ) ;
#136 = DIRECTION ( 'NONE',  ( 0.0000000000000000000, 0.0000000000000000000, 1.000000000000000000 ) ) ;
#137 = DIRECTION ( 'NONE',  ( 0.0000000000000000000, 1.000000000000000000, 0.0000000000000000000 ) ) ;
#138 = AXIS2_PLACEMENT_3D ( 'NONE', #146, #137, #136 ) ;
#139 = CIRCLE ( 'NONE', #138, 11.00000000000000000 ) ;
#140 = FACE_OUTER_BOUND ( 'NONE', #41, .T. ) ;
#141 = DIRECTION ( 'NONE',  ( 0.0000000000000000000, 0.0000000000000000000, 1.000000000000000000 ) ) ;
#142 = DIRECTION ( 'NONE',  ( 0.0000000000000000000, 1.000000000000000000, 0.0000000000000000000 ) ) ;
#143 = CARTESIAN_POINT ( 'NONE',  ( -5.009326287108706300E-010, -23.99999999650043500, 0.0000000000000000000 ) ) ;
#144 = AXIS2_PLACEMENT_3D ( 'NONE', #143, #142, #141 ) ;
#145 = CIRCLE ( 'NONE', #144, 1.500000000000002200 ) ;
#146 = CARTESIAN_POINT ( 'NONE',  ( -5.009326287108706300E-010, -23.99999999650043500, 0.0000000000000000000 ) ) ;
#147 = DIRECTION ( 'NONE',  ( 0.0000000000000000000, 0.0000000000000000000, 1.000000000000000000 ) ) ;
#148 = DIRECTION ( 'NONE',  ( 0.0000000000000000000, 1.000000000000000000, 0.0000000000000000000 ) ) ;
#149 = DIRECTION ( 'NONE',  ( 0.0000000000000000000, 0.0000000000000000000, 1.000000000000000000 ) ) ;
#150 = DIRECTION ( 'NONE',  ( 0.0000000000000000000, 1.000000000000000000, 0.0000000000000000000 ) ) ;
#151 = CARTESIAN_POINT ( 'NONE',  ( -5.009326287108706300E-010, -9.999999996500434900, 0.0000000000000000000 ) ) ;
#152 = AXIS2_PLACEMENT_3D ( 'NONE', #151, #150, #149 ) ;
#153 = CIRCLE ( 'NONE', #152, 1.500000000000000400 ) ;
#154 = DIRECTION ( 'NONE',  ( 0.0000000000000000000, 0.0000000000000000000, -1.000000000000000000 ) ) ;
#155 = CARTESIAN_POINT ( 'NONE',  ( -5.009324450199175600E-010, 2.412507003500041800, -1.500000000000001300 ) ) ;
#156 = LINE ( 'NONE', #155, #158 ) ;
#157 = DIRECTION ( 'NONE',  ( 0.0000000000000000000, 1.000000000000000000, 0.0000000000000000000 ) ) ;
#158 = VECTOR ( 'NONE', #157, 1000.000000000000000 ) ;
#159 = DIRECTION ( 'NONE',  ( 0.0000000000000000000, -1.000000000000000000, 0.0000000000000000000 ) ) ;
#160 = CARTESIAN_POINT ( 'NONE',  ( -5.009326287108706300E-010, -9.999999996500434900, 1.500000000000000400 ) ) ;
#161 = DIRECTION ( 'NONE',  ( 0.0000000000000000000, 0.0000000000000000000, 1.000000000000000000 ) ) ;
#162 = DIRECTION ( 'NONE',  ( 0.0000000000000000000, 1.000000000000000000, 0.0000000000000000000 ) ) ;
#163 = CARTESIAN_POINT ( 'NONE',  ( -5.009326287108706300E-010, -0.9169545166467013600, 0.0000000000000000000 ) ) ;
#164 = AXIS2_PLACEMENT_3D ( 'NONE', #163, #162, #161 ) ;
#165 = CIRCLE ( 'NONE', #164, 9.076412876678855200 ) ;
#166 = CARTESIAN_POINT ( 'NONE',  ( -5.009316392452094900E-010, -0.9999999965004348100, -8.079867118433975600 ) ) ;
#167 = AXIS2_PLACEMENT_3D ( 'NONE', #178, #159, #154 ) ;
#168 = CONICAL_SURFACE ( 'NONE', #167, 11.00000000000000000, 0.08314123188844121900 ) ;
#169 = AXIS2_PLACEMENT_3D ( 'NONE', #171, #148, #147 ) ;
#170 = CYLINDRICAL_SURFACE ( 'NONE', #169, 3.500000000000000400 ) ;
#171 = CARTESIAN_POINT ( 'NONE',  ( -5.009326287108706300E-010, 2.412507003500041800, 0.0000000000000000000 ) ) ;
#172 = FACE_OUTER_BOUND ( 'NONE', #20, .T. ) ;
#173 = CARTESIAN_POINT ( 'NONE',  ( -5.009322000986467900E-010, -9.999999996500434900, -3.500000000000001300 ) ) ;
#174 = DIRECTION ( 'NONE',  ( 0.0000000000000000000, 1.000000000000000000, 0.0000000000000000000 ) ) ;
#175 = VECTOR ( 'NONE', #174, 1000.000000000000000 ) ;
#176 = CARTESIAN_POINT ( 'NONE',  ( -5.009326287108706300E-010, 2.412507003500041800, 1.500000000000001300 ) ) ;
#177 = LINE ( 'NONE', #176, #175 ) ;
#178 = CARTESIAN_POINT ( 'NONE',  ( -5.009326287108706300E-010, -23.99999999650043500, 0.0000000000000000000 ) ) ;
#179 = CARTESIAN_POINT ( 'NONE',  ( -5.009326287108706300E-010, 3.499565220943523500E-009, 8.079867118433968500 ) ) ;
#180 = CARTESIAN_POINT ( 'NONE',  ( -5.009315782263960900E-010, 3.499565220943523500E-009, -8.079867118433968500 ) ) ;
#181 = DIRECTION ( 'NONE',  ( 1.224606353612351900E-016, 0.0000000000000000000, -1.000000000000000000 ) ) ;
#182 = DIRECTION ( 'NONE',  ( 1.000000000000000000, 0.0000000000000000000, 1.224606353822377300E-016 ) ) ;
#183 = AXIS2_PLACEMENT_3D ( 'NONE', #166, #182, #181 ) ;
#184 = CIRCLE ( 'NONE', #183, 0.9999999999999991100 ) ;
#185 = DIRECTION ( 'NONE',  ( 0.0000000000000000000, 0.0000000000000000000, -1.000000000000000000 ) ) ;
#186 = DIRECTION ( 'NONE',  ( 0.0000000000000000000, -1.000000000000000000, 0.0000000000000000000 ) ) ;
#187 = CARTESIAN_POINT ( 'NONE',  ( 3.499999999499068700, -9.999999996500434900, 0.0000000000000000000 ) ) ;
#188 = CARTESIAN_POINT ( 'NONE',  ( -5.009326287108706300E-010, 3.499565220943523500E-009, 0.0000000000000000000 ) ) ;
#189 = PLANE ( 'NONE',  #297 ) ;
#190 = CARTESIAN_POINT ( 'NONE',  ( -5.009324450199175600E-010, -23.99999999650043500, -1.500000000000002400 ) ) ;
#191 = CARTESIAN_POINT ( 'NONE',  ( -5.009326287108706300E-010, 2.412507003500041800, 0.0000000000000000000 ) ) ;
#192 = DIRECTION ( 'NONE',  ( 0.0000000000000000000, 0.0000000000000000000, 1.000000000000000000 ) ) ;
#193 = DIRECTION ( 'NONE',  ( 0.0000000000000000000, 1.000000000000000000, 0.0000000000000000000 ) ) ;
#194 = CARTESIAN_POINT ( 'NONE',  ( -5.009326287108706300E-010, -23.99999999650043500, 0.0000000000000000000 ) ) ;
#195 = CARTESIAN_POINT ( 'NONE',  ( -5.009326287108706300E-010, -0.9169545166467013600, 0.0000000000000000000 ) ) ;
#196 = AXIS2_PLACEMENT_3D ( 'NONE', #195, #296, #295 ) ;
#197 = CIRCLE ( 'NONE', #196, 9.076412876678855200 ) ;
#198 = DIRECTION ( 'NONE',  ( 0.0000000000000000000, 0.0000000000000000000, -1.000000000000000000 ) ) ;
#199 = DIRECTION ( 'NONE',  ( 0.0000000000000000000, -1.000000000000000000, 0.0000000000000000000 ) ) ;
#200 = CARTESIAN_POINT ( 'NONE',  ( 8.079867117933035900, 3.499565288624657600E-009, 0.0000000000000000000 ) ) ;
#201 = AXIS2_PLACEMENT_3D ( 'NONE', #200, #199, #198 ) ;
#202 = PLANE ( 'NONE',  #201 ) ;
#203 = FACE_OUTER_BOUND ( 'NONE', #118, .T. ) ;
#204 = DIRECTION ( 'NONE',  ( 0.0000000000000000000, 1.000000000000000000, 0.0000000000000000000 ) ) ;
#205 = AXIS2_PLACEMENT_3D ( 'NONE', #188, #204, #304 ) ;
#206 = CIRCLE ( 'NONE', #205, 3.500000000000000000 ) ;
#207 = PERSON_AND_ORGANIZATION ( #209, #208 ) ;
#208 = ORGANIZATION ( 'UNSPECIFIED', 'UNSPECIFIED', '' ) ;
#209 = PERSON ( 'UNSPECIFIED', 'UNSPECIFIED', 'UNSPECIFIED', ('UNSPECIFIED'), ('UNSPECIFIED'), ('UNSPECIFIED') ) ;
#210 = PRODUCT ( 'C-30-RK-22-gray', 'C-30-RK-22-gray', '', ( #211 ) ) ;
#211 = MECHANICAL_CONTEXT ( 'NONE', #213, 'mechanical' ) ;
#212 = APPLICATION_PROTOCOL_DEFINITION ( 'international standard', 'config_control_design', 1994, #213 ) ;
#213 = APPLICATION_CONTEXT ( 'configuration controlled 3d designs of mechanical parts and assemblies' ) ;
#214 = DIRECTION ( 'NONE',  ( 0.0000000000000000000, 0.0000000000000000000, 1.000000000000000000 ) ) ;
#215 = DIRECTION ( 'NONE',  ( 0.0000000000000000000, 1.000000000000000000, 0.0000000000000000000 ) ) ;
#216 = CARTESIAN_POINT ( 'NONE',  ( -5.009326287108706300E-010, -9.999999996500434900, 0.0000000000000000000 ) ) ;
#217 = AXIS2_PLACEMENT_3D ( 'NONE', #216, #215, #214 ) ;
#218 = CIRCLE ( 'NONE', #217, 3.500000000000001300 ) ;
#219 = DIRECTION ( 'NONE',  ( 0.0000000000000000000, 0.0000000000000000000, 1.000000000000000000 ) ) ;
#220 = DIRECTION ( 'NONE',  ( 0.0000000000000000000, 1.000000000000000000, 0.0000000000000000000 ) ) ;
#221 = CARTESIAN_POINT ( 'NONE',  ( -5.009326287108706300E-010, -23.99999999650043500, 0.0000000000000000000 ) ) ;
#222 = AXIS2_PLACEMENT_3D ( 'NONE', #221, #220, #219 ) ;
#223 = CIRCLE ( 'NONE', #222, 11.00000000000000000 ) ;
#224 = ADVANCED_BREP_SHAPE_REPRESENTATION ( 'C-30-RK-22-gray', ( #28, #351 ), #225 ) ;
#225 =( GEOMETRIC_REPRESENTATION_CONTEXT ( 3 ) GLOBAL_UNCERTAINTY_ASSIGNED_CONTEXT ( ( #226 ) ) GLOBAL_UNIT_ASSIGNED_CONTEXT ( ( #229, #228, #227 ) ) REPRESENTATION_CONTEXT ( 'NONE', 'WORKASPACE' ) );
#226 = UNCERTAINTY_MEASURE_WITH_UNIT (LENGTH_MEASURE( 1.000000000000000100E-005 ), #229, 'distance_accuracy_value', 'NONE');
#227 =( NAMED_UNIT ( * ) SI_UNIT ( $, .STERADIAN. ) SOLID_ANGLE_UNIT ( ) );
#228 =( NAMED_UNIT ( * ) PLANE_ANGLE_UNIT ( ) SI_UNIT ( $, .RADIAN. ) );
#229 =( LENGTH_UNIT ( ) NAMED_UNIT ( * ) SI_UNIT ( .MILLI., .METRE. ) );
#230 = CARTESIAN_POINT ( 'NONE',  ( 0.0000000000000000000, 0.0000000000000000000, 0.0000000000000000000 ) ) ;
#231 = CARTESIAN_POINT ( 'NONE',  ( -5.009326287108706300E-010, -0.9999999965004348100, 8.079867118433975600 ) ) ;
#232 = AXIS2_PLACEMENT_3D ( 'NONE', #231, #278, #277 ) ;
#233 = CIRCLE ( 'NONE', #232, 0.9999999999999991100 ) ;
#234 = DIRECTION ( 'NONE',  ( 0.0000000000000000000, 0.0000000000000000000, 1.000000000000000000 ) ) ;
#235 = DIRECTION ( 'NONE',  ( 0.0000000000000000000, 1.000000000000000000, 0.0000000000000000000 ) ) ;
#236 = AXIS2_PLACEMENT_3D ( 'NONE', #269, #235, #234 ) ;
#237 = CIRCLE ( 'NONE', #236, 8.079867118433968500 ) ;
#238 = TOROIDAL_SURFACE ( 'NONE', #358, 8.079867118433975600, 0.9999999999999997800 ) ;
#239 = FACE_OUTER_BOUND ( 'NONE', #102, .T. ) ;
#240 = DIRECTION ( 'NONE',  ( 0.0000000000000000000, 0.0000000000000000000, 1.000000000000000000 ) ) ;
#241 = DIRECTION ( 'NONE',  ( 0.0000000000000000000, 1.000000000000000000, 0.0000000000000000000 ) ) ;
#242 = CARTESIAN_POINT ( 'NONE',  ( -5.009326287108706300E-010, 3.499565220943523500E-009, 0.0000000000000000000 ) ) ;
#243 = AXIS2_PLACEMENT_3D ( 'NONE', #242, #241, #240 ) ;
#244 = CIRCLE ( 'NONE', #243, 3.500000000000000000 ) ;
#245 = DIRECTION ( 'NONE',  ( 0.0000000000000000000, -0.9965457582448795600, -0.08304547985373995900 ) ) ;
#246 = VECTOR ( 'NONE', #245, 1000.000000000000100 ) ;
#247 = CARTESIAN_POINT ( 'NONE',  ( -5.009326287108706300E-010, -23.99999999650043500, -11.00000000000000000 ) ) ;
#248 = LINE ( 'NONE', #247, #246 ) ;
#249 = CARTESIAN_POINT ( 'NONE',  ( -5.009326287108706300E-010, -23.99999999650043500, -11.00000000000000000 ) ) ;
#250 = DIRECTION ( 'NONE',  ( 0.0000000000000000000, 0.0000000000000000000, -1.000000000000000000 ) ) ;
#251 = DIRECTION ( 'NONE',  ( 0.0000000000000000000, -1.000000000000000000, 0.0000000000000000000 ) ) ;
#252 = CARTESIAN_POINT ( 'NONE',  ( -5.009326287108706300E-010, -23.99999999650043500, 0.0000000000000000000 ) ) ;
#253 = AXIS2_PLACEMENT_3D ( 'NONE', #252, #251, #250 ) ;
#254 = CONICAL_SURFACE ( 'NONE', #253, 11.00000000000000000, 0.08314123188844121900 ) ;
#255 = FACE_OUTER_BOUND ( 'NONE', #101, .T. ) ;
#256 = DIRECTION ( 'NONE',  ( 0.0000000000000000000, 0.0000000000000000000, 1.000000000000000000 ) ) ;
#257 = DIRECTION ( 'NONE',  ( 0.0000000000000000000, 1.000000000000000000, 0.0000000000000000000 ) ) ;
#258 = CARTESIAN_POINT ( 'NONE',  ( -5.009326287108706300E-010, 3.499565220943523500E-009, 0.0000000000000000000 ) ) ;
#259 = AXIS2_PLACEMENT_3D ( 'NONE', #258, #257, #256 ) ;
#260 = DIRECTION ( 'NONE',  ( 0.0000000000000000000, 0.0000000000000000000, 1.000000000000000000 ) ) ;
#261 = DIRECTION ( 'NONE',  ( 0.0000000000000000000, 1.000000000000000000, 0.0000000000000000000 ) ) ;
#262 = AXIS2_PLACEMENT_3D ( 'NONE', #194, #193, #192 ) ;
#263 = CIRCLE ( 'NONE', #262, 1.500000000000002200 ) ;
#264 = FACE_OUTER_BOUND ( 'NONE', #120, .T. ) ;
#265 = DIRECTION ( 'NONE',  ( 0.0000000000000000000, 0.0000000000000000000, 1.000000000000000000 ) ) ;
#266 = DIRECTION ( 'NONE',  ( 0.0000000000000000000, 1.000000000000000000, 0.0000000000000000000 ) ) ;
#267 = CARTESIAN_POINT ( 'NONE',  ( -5.009326287108706300E-010, -9.999999996500434900, 0.0000000000000000000 ) ) ;
#268 = AXIS2_PLACEMENT_3D ( 'NONE', #267, #266, #265 ) ;
#269 = CARTESIAN_POINT ( 'NONE',  ( -5.009326287108706300E-010, 3.499565220943523500E-009, 0.0000000000000000000 ) ) ;
#270 = DIRECTION ( 'NONE',  ( 0.0000000000000000000, 0.0000000000000000000, 1.000000000000000000 ) ) ;
#271 = DIRECTION ( 'NONE',  ( 0.0000000000000000000, 1.000000000000000000, 0.0000000000000000000 ) ) ;
#272 = CARTESIAN_POINT ( 'NONE',  ( -5.009326287108706300E-010, -0.9999999965004348100, 0.0000000000000000000 ) ) ;
#273 = AXIS2_PLACEMENT_3D ( 'NONE', #272, #271, #270 ) ;
#274 = FACE_BOUND ( 'NONE', #88, .T. ) ;
#275 = TOROIDAL_SURFACE ( 'NONE', #273, 8.079867118433975600, 0.9999999999999997800 ) ;
#276 = FACE_OUTER_BOUND ( 'NONE', #85, .T. ) ;
#277 = DIRECTION ( 'NONE',  ( 0.0000000000000000000, 0.0000000000000000000, 1.000000000000000000 ) ) ;
#278 = DIRECTION ( 'NONE',  ( -1.000000000000000000, 0.0000000000000000000, 0.0000000000000000000 ) ) ;
#279 = CIRCLE ( 'NONE', #268, 3.500000000000001300 ) ;
#280 = CARTESIAN_POINT ( 'NONE',  ( -5.009324450199175600E-010, -9.999999996500434900, -1.500000000000000400 ) ) ;
#281 = CARTESIAN_POINT ( 'NONE',  ( -5.009326287108706300E-010, -23.99999999650043500, 1.500000000000002200 ) ) ;
#282 = DIRECTION ( 'NONE',  ( 0.0000000000000000000, 0.0000000000000000000, 1.000000000000000000 ) ) ;
#283 = DIRECTION ( 'NONE',  ( 0.0000000000000000000, 1.000000000000000000, 0.0000000000000000000 ) ) ;
#284 = AXIS2_PLACEMENT_3D ( 'NONE', #191, #283, #282 ) ;
#285 = CYLINDRICAL_SURFACE ( 'NONE', #284, 3.500000000000000400 ) ;
#286 = CARTESIAN_POINT ( 'NONE',  ( -5.009326287108706300E-010, 2.412507003500041800, 0.0000000000000000000 ) ) ;
#287 = AXIS2_PLACEMENT_3D ( 'NONE', #286, #261, #260 ) ;
#288 = CIRCLE ( 'NONE', #259, 8.079867118433968500 ) ;
#289 = CYLINDRICAL_SURFACE ( 'NONE', #287, 1.500000000000001300 ) ;
#290 = FACE_OUTER_BOUND ( 'NONE', #69, .T. ) ;
#291 = DIRECTION ( 'NONE',  ( 0.0000000000000000000, 1.000000000000000000, 0.0000000000000000000 ) ) ;
#292 = VECTOR ( 'NONE', #291, 1000.000000000000000 ) ;
#293 = CARTESIAN_POINT ( 'NONE',  ( -5.009326287108706300E-010, 2.412507003500041800, 3.500000000000000400 ) ) ;
#294 = LINE ( 'NONE', #293, #292 ) ;
#295 = DIRECTION ( 'NONE',  ( 0.0000000000000000000, 0.0000000000000000000, 1.000000000000000000 ) ) ;
#296 = DIRECTION ( 'NONE',  ( 0.0000000000000000000, 1.000000000000000000, 0.0000000000000000000 ) ) ;
#297 = AXIS2_PLACEMENT_3D ( 'NONE', #187, #186, #185 ) ;
#298 = CARTESIAN_POINT ( 'NONE',  ( -5.009322000986467900E-010, 3.499565220943523500E-009, -3.500000000000000000 ) ) ;
#299 = DIRECTION ( 'NONE',  ( 0.0000000000000000000, 1.000000000000000000, 0.0000000000000000000 ) ) ;
#300 = VECTOR ( 'NONE', #299, 1000.000000000000000 ) ;
#301 = CARTESIAN_POINT ( 'NONE',  ( -5.009322000986467900E-010, 2.412507003500041800, -3.500000000000000400 ) ) ;
#302 = CARTESIAN_POINT ( 'NONE',  ( -5.009326287108706300E-010, -9.999999996500434900, 3.500000000000001300 ) ) ;
#303 = CARTESIAN_POINT ( 'NONE',  ( -5.009326287108706300E-010, 3.499565220943523500E-009, 3.500000000000000000 ) ) ;
#304 = DIRECTION ( 'NONE',  ( 0.0000000000000000000, 0.0000000000000000000, 1.000000000000000000 ) ) ;
#305 = FACE_OUTER_BOUND ( 'NONE', #34, .T. ) ;
#306 = FACE_BOUND ( 'NONE', #50, .T. ) ;
#307 = DIRECTION ( 'NONE',  ( 0.0000000000000000000, 0.0000000000000000000, 1.000000000000000000 ) ) ;
#308 = CC_DESIGN_PERSON_AND_ORGANIZATION_ASSIGNMENT ( #310, #309, ( #322 ) ) ;
#309 = PERSON_AND_ORGANIZATION_ROLE ( 'creator' ) ;
#310 = PERSON_AND_ORGANIZATION ( #209, #208 ) ;
#311 = CC_DESIGN_APPROVAL ( #319, ( #322 ) ) ;
#312 = APPROVAL_DATE_TIME ( #313, #319 ) ;
#313 = DATE_AND_TIME ( #314, #315 ) ;
#314 = CALENDAR_DATE ( 2009, 29, 6 ) ;
#315 = LOCAL_TIME ( 10, 39, 55.00000000000000000, #316 ) ;
#316 = COORDINATED_UNIVERSAL_TIME_OFFSET ( 9, 0, .AHEAD. ) ;
#317 = APPROVAL_PERSON_ORGANIZATION ( #321, #319, #318 ) ;
#318 = APPROVAL_ROLE ( '' ) ;
#319 = APPROVAL ( #320, 'UNSPECIFIED' ) ;
#320 = APPROVAL_STATUS ( 'not_yet_approved' ) ;
#321 = PERSON_AND_ORGANIZATION ( #209, #208 ) ;
#322 = PRODUCT_DEFINITION_FORMATION_WITH_SPECIFIED_SOURCE ( 'ANY', '', #210, .NOT_KNOWN. ) ;
#323 = CC_DESIGN_DATE_AND_TIME_ASSIGNMENT ( #325, #324, ( #343 ) ) ;
#324 = DATE_TIME_ROLE ( 'creation_date' ) ;
#325 = DATE_AND_TIME ( #326, #327 ) ;
#326 = CALENDAR_DATE ( 2009, 29, 6 ) ;
#327 = LOCAL_TIME ( 10, 39, 55.00000000000000000, #328 ) ;
#328 = COORDINATED_UNIVERSAL_TIME_OFFSET ( 9, 0, .AHEAD. ) ;
#329 = CC_DESIGN_PERSON_AND_ORGANIZATION_ASSIGNMENT ( #331, #330, ( #343 ) ) ;
#330 = PERSON_AND_ORGANIZATION_ROLE ( 'creator' ) ;
#331 = PERSON_AND_ORGANIZATION ( #209, #208 ) ;
#332 = CC_DESIGN_APPROVAL ( #340, ( #343 ) ) ;
#333 = APPROVAL_DATE_TIME ( #334, #340 ) ;
#334 = DATE_AND_TIME ( #335, #336 ) ;
#335 = CALENDAR_DATE ( 2009, 29, 6 ) ;
#336 = LOCAL_TIME ( 10, 39, 55.00000000000000000, #337 ) ;
#337 = COORDINATED_UNIVERSAL_TIME_OFFSET ( 9, 0, .AHEAD. ) ;
#338 = APPROVAL_PERSON_ORGANIZATION ( #342, #340, #339 ) ;
#339 = APPROVAL_ROLE ( '' ) ;
#340 = APPROVAL ( #341, 'UNSPECIFIED' ) ;
#341 = APPROVAL_STATUS ( 'not_yet_approved' ) ;
#342 = PERSON_AND_ORGANIZATION ( #209, #208 ) ;
#343 = PRODUCT_DEFINITION ( 'UNKNOWN', '', #322, #344 ) ;
#344 = DESIGN_CONTEXT ( 'detailed design', #346, 'design' ) ;
#345 = APPLICATION_PROTOCOL_DEFINITION ( 'international standard', 'config_control_design', 1994, #346 ) ;
#346 = APPLICATION_CONTEXT ( 'configuration controlled 3d designs of mechanical parts and assemblies' ) ;
#347 = CC_DESIGN_PERSON_AND_ORGANIZATION_ASSIGNMENT ( #207, #348, ( #210 ) ) ;
#348 = PERSON_AND_ORGANIZATION_ROLE ( 'design_owner' ) ;
#349 = DIRECTION ( 'NONE',  ( 1.000000000000000000, 0.0000000000000000000, 0.0000000000000000000 ) ) ;
#350 = DIRECTION ( 'NONE',  ( 0.0000000000000000000, 0.0000000000000000000, 1.000000000000000000 ) ) ;
#351 = AXIS2_PLACEMENT_3D ( 'NONE', #230, #350, #349 ) ;
#352 = DIRECTION ( 'NONE',  ( 1.016980222851181600E-017, -0.9965457582448795600, 0.08304547985373995900 ) ) ;
#353 = VECTOR ( 'NONE', #352, 1000.000000000000100 ) ;
#354 = CARTESIAN_POINT ( 'NONE',  ( -5.009312816438814300E-010, -23.99999999650043500, 11.00000000000000000 ) ) ;
#355 = DIRECTION ( 'NONE',  ( 0.0000000000000000000, 0.0000000000000000000, 1.000000000000000000 ) ) ;
#356 = DIRECTION ( 'NONE',  ( 0.0000000000000000000, 1.000000000000000000, 0.0000000000000000000 ) ) ;
#357 = CARTESIAN_POINT ( 'NONE',  ( -5.009326287108706300E-010, -0.9999999965004348100, 0.0000000000000000000 ) ) ;
#358 = AXIS2_PLACEMENT_3D ( 'NONE', #357, #356, #355 ) ;
#359 = LINE ( 'NONE', #354, #353 ) ;
#360 = LINE ( 'NONE', #301, #300 ) ;
#361 = PERSON_AND_ORGANIZATION ( #209, #208 ) ;
#362 = DATE_AND_TIME ( #371, #381 ) ;
#363 = DATE_AND_TIME ( #364, #378 ) ;
#364 = CALENDAR_DATE ( 2009, 29, 6 ) ;
#365 = APPROVAL ( #366, 'UNSPECIFIED' ) ;
#366 = APPROVAL_STATUS ( 'not_yet_approved' ) ;
#367 = APPROVAL_PERSON_ORGANIZATION ( #361, #365, #368 ) ;
#368 = APPROVAL_ROLE ( '' ) ;
#369 = PRODUCT_DEFINITION_SHAPE ( 'NONE', 'NONE',  #343 ) ;
#370 = PRODUCT_RELATED_PRODUCT_CATEGORY ( 'detail', '', ( #210 ) ) ;
#371 = CALENDAR_DATE ( 2009, 29, 6 ) ;
#372 = CC_DESIGN_DATE_AND_TIME_ASSIGNMENT ( #362, #375, ( #59 ) ) ;
#373 = COORDINATED_UNIVERSAL_TIME_OFFSET ( 9, 0, .AHEAD. ) ;
#374 = CC_DESIGN_SECURITY_CLASSIFICATION ( #59, ( #322 ) ) ;
#375 = DATE_TIME_ROLE ( 'classification_date' ) ;
#376 = CC_DESIGN_APPROVAL ( #365, ( #59 ) ) ;
#377 = APPROVAL_DATE_TIME ( #363, #365 ) ;
#378 = LOCAL_TIME ( 10, 39, 55.00000000000000000, #379 ) ;
#379 = COORDINATED_UNIVERSAL_TIME_OFFSET ( 9, 0, .AHEAD. ) ;
#380 = SHAPE_DEFINITION_REPRESENTATION ( #369, #224 ) ;
#381 = LOCAL_TIME ( 10, 39, 55.00000000000000000, #373 ) ;
ENDSEC;
END-ISO-10303-21;
