ISO-10303-21;
HEADER;
FILE_DESCRIPTION (( 'STEP AP203' ),
    '1' );
FILE_NAME ('C-30-RK-22.STEP',
    '2009-06-26T04:34:40',
    ( '11sw' ),
    ( '^LQ»¢®ïÐ' ),
    'SwSTEP 2.0',
    'SolidWorks 2007',
    '' );
FILE_SCHEMA (( 'CONFIG_CONTROL_DESIGN' ));
ENDSEC;

DATA;
#1 = TOROIDAL_SURFACE ( 'NONE', #3, 8.079867118433975600, 0.9999999999999997800 ) ;
#2 = CARTESIAN_POINT ( 'NONE',  ( -5.009326287108706300E-010, -0.9999999965004348100, 0.0000000000000000000 ) ) ;
#3 = AXIS2_PLACEMENT_3D ( 'NONE', #2, #5, #4 ) ;
#4 = DIRECTION ( 'NONE',  ( 0.0000000000000000000, 0.0000000000000000000, 1.000000000000000000 ) ) ;
#5 = DIRECTION ( 'NONE',  ( 0.0000000000000000000, 1.000000000000000000, 0.0000000000000000000 ) ) ;
#6 = CARTESIAN_POINT ( 'NONE',  ( -5.009326287108706300E-010, 2.412507003500041800, 0.0000000000000000000 ) ) ;
#7 = AXIS2_PLACEMENT_3D ( 'NONE', #6, #8, #9 ) ;
#8 = DIRECTION ( 'NONE',  ( 0.0000000000000000000, 1.000000000000000000, 0.0000000000000000000 ) ) ;
#9 = DIRECTION ( 'NONE',  ( 0.0000000000000000000, 0.0000000000000000000, 1.000000000000000000 ) ) ;
#10 = DIRECTION ( 'NONE',  ( 0.0000000000000000000, 0.0000000000000000000, 1.000000000000000000 ) ) ;
#11 = DIRECTION ( 'NONE',  ( -1.000000000000000000, 0.0000000000000000000, 0.0000000000000000000 ) ) ;
#12 = CARTESIAN_POINT ( 'NONE',  ( -5.009326287108706300E-010, -0.9999999965004348100, 8.079867118433975600 ) ) ;
#13 = AXIS2_PLACEMENT_3D ( 'NONE', #12, #11, #10 ) ;
#14 = CIRCLE ( 'NONE', #13, 0.9999999999999991100 ) ;
#15 = FACE_OUTER_BOUND ( 'NONE', #39, .T. ) ;
#16 = CARTESIAN_POINT ( 'NONE',  ( -5.009326287108706300E-010, -9.999999996500434900, 3.500000000000001300 ) ) ;
#17 = CARTESIAN_POINT ( 'NONE',  ( -5.009322000986467900E-010, -9.999999996500434900, -3.500000000000001300 ) ) ;
#18 = DIRECTION ( 'NONE',  ( 0.0000000000000000000, 0.0000000000000000000, 1.000000000000000000 ) ) ;
#19 = DIRECTION ( 'NONE',  ( 0.0000000000000000000, 1.000000000000000000, 0.0000000000000000000 ) ) ;
#20 = CARTESIAN_POINT ( 'NONE',  ( -5.009326287108706300E-010, -9.999999996500434900, 0.0000000000000000000 ) ) ;
#21 = AXIS2_PLACEMENT_3D ( 'NONE', #20, #19, #18 ) ;
#22 = DIRECTION ( 'NONE',  ( 0.0000000000000000000, 0.0000000000000000000, 1.000000000000000000 ) ) ;
#23 = DIRECTION ( 'NONE',  ( 0.0000000000000000000, 1.000000000000000000, 0.0000000000000000000 ) ) ;
#24 = AXIS2_PLACEMENT_3D ( 'NONE', #27, #23, #22 ) ;
#25 = CYLINDRICAL_SURFACE ( 'NONE', #24, 3.500000000000000400 ) ;
#26 = CIRCLE ( 'NONE', #21, 3.500000000000001300 ) ;
#27 = CARTESIAN_POINT ( 'NONE',  ( -5.009326287108706300E-010, 2.412507003500041800, 0.0000000000000000000 ) ) ;
#28 = FACE_OUTER_BOUND ( 'NONE', #31, .T. ) ;
#29 = MANIFOLD_SOLID_BREP ( 'NONE', #90 ) ;
#30 = ADVANCED_FACE ( 'NONE', ( #28 ), #25, .F. ) ;
#31 = EDGE_LOOP ( 'NONE', ( #32, #123, #128, #126 ) ) ;
#32 = ORIENTED_EDGE ( 'NONE', *, *, #33, .F. ) ;
#33 = EDGE_CURVE ( 'NONE', #34, #35, #26, .T. ) ;
#34 = VERTEX_POINT ( 'NONE', #17 ) ;
#35 = VERTEX_POINT ( 'NONE', #16 ) ;
#36 = ORIENTED_EDGE ( 'NONE', *, *, #37, .F. ) ;
#37 = EDGE_CURVE ( 'NONE', #111, #96, #14, .T. ) ;
#38 = ADVANCED_FACE ( 'NONE', ( #15 ), #1, .T. ) ;
#39 = EDGE_LOOP ( 'NONE', ( #40, #41, #43, #44 ) ) ;
#40 = ORIENTED_EDGE ( 'NONE', *, *, #94, .F. ) ;
#41 = ORIENTED_EDGE ( 'NONE', *, *, #42, .T. ) ;
#42 = EDGE_CURVE ( 'NONE', #112, #111, #234, .T. ) ;
#43 = ORIENTED_EDGE ( 'NONE', *, *, #37, .T. ) ;
#44 = ORIENTED_EDGE ( 'NONE', *, *, #45, .F. ) ;
#45 = EDGE_CURVE ( 'NONE', #95, #96, #235, .T. ) ;
#46 = ADVANCED_FACE ( 'NONE', ( #233 ), #252, .T. ) ;
#47 = EDGE_LOOP ( 'NONE', ( #48, #49, #50, #51 ) ) ;
#48 = ORIENTED_EDGE ( 'NONE', *, *, #114, .F. ) ;
#49 = ORIENTED_EDGE ( 'NONE', *, *, #42, .F. ) ;
#50 = ORIENTED_EDGE ( 'NONE', *, *, #99, .T. ) ;
#51 = ORIENTED_EDGE ( 'NONE', *, *, #52, .T. ) ;
#52 = EDGE_CURVE ( 'NONE', #102, #115, #247, .T. ) ;
#53 = ADVANCED_FACE ( 'NONE', ( #248, #242 ), #241, .F. ) ;
#54 = EDGE_LOOP ( 'NONE', ( #55, #56 ) ) ;
#55 = ORIENTED_EDGE ( 'NONE', *, *, #52, .F. ) ;
#56 = ORIENTED_EDGE ( 'NONE', *, *, #101, .F. ) ;
#57 = EDGE_LOOP ( 'NONE', ( #58, #60 ) ) ;
#58 = ORIENTED_EDGE ( 'NONE', *, *, #59, .T. ) ;
#59 = EDGE_CURVE ( 'NONE', #122, #121, #230, .T. ) ;
#60 = ORIENTED_EDGE ( 'NONE', *, *, #120, .T. ) ;
#61 = ADVANCED_FACE ( 'NONE', ( #231 ), #224, .F. ) ;
#62 = EDGE_LOOP ( 'NONE', ( #63, #64, #65, #66 ) ) ;
#63 = ORIENTED_EDGE ( 'NONE', *, *, #118, .F. ) ;
#64 = ORIENTED_EDGE ( 'NONE', *, *, #59, .F. ) ;
#65 = ORIENTED_EDGE ( 'NONE', *, *, #106, .T. ) ;
#66 = ORIENTED_EDGE ( 'NONE', *, *, #67, .T. ) ;
#67 = EDGE_CURVE ( 'NONE', #104, #117, #225, .T. ) ;
#68 = ADVANCED_FACE ( 'NONE', ( #216, #215 ), #214, .F. ) ;
#69 = EDGE_LOOP ( 'NONE', ( #70, #71 ) ) ;
#70 = ORIENTED_EDGE ( 'NONE', *, *, #67, .F. ) ;
#71 = ORIENTED_EDGE ( 'NONE', *, *, #103, .F. ) ;
#72 = EDGE_LOOP ( 'NONE', ( #73, #75 ) ) ;
#73 = ORIENTED_EDGE ( 'NONE', *, *, #74, .T. ) ;
#74 = EDGE_CURVE ( 'NONE', #35, #34, #209, .T. ) ;
#75 = ORIENTED_EDGE ( 'NONE', *, *, #33, .T. ) ;
#76 = ADVANCED_FACE ( 'NONE', ( #204 ), #203, .F. ) ;
#77 = EDGE_LOOP ( 'NONE', ( #78, #79, #80, #81 ) ) ;
#78 = ORIENTED_EDGE ( 'NONE', *, *, #133, .F. ) ;
#79 = ORIENTED_EDGE ( 'NONE', *, *, #74, .F. ) ;
#80 = ORIENTED_EDGE ( 'NONE', *, *, #127, .T. ) ;
#81 = ORIENTED_EDGE ( 'NONE', *, *, #82, .T. ) ;
#82 = EDGE_CURVE ( 'NONE', #124, #130, #202, .T. ) ;
#83 = ADVANCED_FACE ( 'NONE', ( #193, #192 ), #191, .F. ) ;
#84 = EDGE_LOOP ( 'NONE', ( #85, #86 ) ) ;
#85 = ORIENTED_EDGE ( 'NONE', *, *, #82, .F. ) ;
#86 = ORIENTED_EDGE ( 'NONE', *, *, #125, .F. ) ;
#87 = EDGE_LOOP ( 'NONE', ( #88, #89 ) ) ;
#88 = ORIENTED_EDGE ( 'NONE', *, *, #93, .T. ) ;
#89 = ORIENTED_EDGE ( 'NONE', *, *, #45, .T. ) ;
#90 = CLOSED_SHELL ( 'NONE', ( #30, #129, #107, #100, #38, #46, #53, #61, #68, #76, #83 ) ) ;
#91 = ORIENTED_EDGE ( 'NONE', *, *, #94, .T. ) ;
#92 = ORIENTED_EDGE ( 'NONE', *, *, #93, .F. ) ;
#93 = EDGE_CURVE ( 'NONE', #96, #95, #186, .T. ) ;
#94 = EDGE_CURVE ( 'NONE', #112, #95, #181, .T. ) ;
#95 = VERTEX_POINT ( 'NONE', #176 ) ;
#96 = VERTEX_POINT ( 'NONE', #175 ) ;
#97 = ORIENTED_EDGE ( 'NONE', *, *, #110, .T. ) ;
#98 = ORIENTED_EDGE ( 'NONE', *, *, #99, .F. ) ;
#99 = EDGE_CURVE ( 'NONE', #112, #102, #174, .T. ) ;
#100 = ADVANCED_FACE ( 'NONE', ( #170 ), #169, .T. ) ;
#101 = EDGE_CURVE ( 'NONE', #115, #102, #163, .T. ) ;
#102 = VERTEX_POINT ( 'NONE', #159 ) ;
#103 = EDGE_CURVE ( 'NONE', #117, #104, #158, .T. ) ;
#104 = VERTEX_POINT ( 'NONE', #153 ) ;
#105 = ORIENTED_EDGE ( 'NONE', *, *, #106, .F. ) ;
#106 = EDGE_CURVE ( 'NONE', #122, #104, #152, .T. ) ;
#107 = ADVANCED_FACE ( 'NONE', ( #148 ), #146, .T. ) ;
#108 = EDGE_LOOP ( 'NONE', ( #109, #113, #116, #98 ) ) ;
#109 = ORIENTED_EDGE ( 'NONE', *, *, #110, .F. ) ;
#110 = EDGE_CURVE ( 'NONE', #111, #112, #141, .T. ) ;
#111 = VERTEX_POINT ( 'NONE', #137 ) ;
#112 = VERTEX_POINT ( 'NONE', #136 ) ;
#113 = ORIENTED_EDGE ( 'NONE', *, *, #114, .T. ) ;
#114 = EDGE_CURVE ( 'NONE', #111, #115, #284, .T. ) ;
#115 = VERTEX_POINT ( 'NONE', #280 ) ;
#116 = ORIENTED_EDGE ( 'NONE', *, *, #101, .T. ) ;
#117 = VERTEX_POINT ( 'NONE', #279 ) ;
#118 = EDGE_CURVE ( 'NONE', #121, #117, #278, .T. ) ;
#119 = ORIENTED_EDGE ( 'NONE', *, *, #103, .T. ) ;
#120 = EDGE_CURVE ( 'NONE', #121, #122, #274, .T. ) ;
#121 = VERTEX_POINT ( 'NONE', #269 ) ;
#122 = VERTEX_POINT ( 'NONE', #268 ) ;
#123 = ORIENTED_EDGE ( 'NONE', *, *, #133, .T. ) ;
#124 = VERTEX_POINT ( 'NONE', #267 ) ;
#125 = EDGE_CURVE ( 'NONE', #130, #124, #266, .T. ) ;
#126 = ORIENTED_EDGE ( 'NONE', *, *, #127, .F. ) ;
#127 = EDGE_CURVE ( 'NONE', #35, #124, #261, .T. ) ;
#128 = ORIENTED_EDGE ( 'NONE', *, *, #125, .T. ) ;
#129 = ADVANCED_FACE ( 'NONE', ( #257 ), #256, .F. ) ;
#130 = VERTEX_POINT ( 'NONE', #301 ) ;
#131 = ORIENTED_EDGE ( 'NONE', *, *, #120, .F. ) ;
#132 = EDGE_LOOP ( 'NONE', ( #97, #91, #92, #36 ) ) ;
#133 = EDGE_CURVE ( 'NONE', #34, #130, #300, .T. ) ;
#134 = EDGE_LOOP ( 'NONE', ( #131, #135, #119, #105 ) ) ;
#135 = ORIENTED_EDGE ( 'NONE', *, *, #118, .T. ) ;
#136 = CARTESIAN_POINT ( 'NONE',  ( -5.009315172075826900E-010, -0.9169545166467013600, -9.076412876678855200 ) ) ;
#137 = CARTESIAN_POINT ( 'NONE',  ( -5.009326287108706300E-010, -0.9169545166467013600, 9.076412876678855200 ) ) ;
#138 = DIRECTION ( 'NONE',  ( 0.0000000000000000000, 0.0000000000000000000, 1.000000000000000000 ) ) ;
#139 = DIRECTION ( 'NONE',  ( 0.0000000000000000000, 1.000000000000000000, 0.0000000000000000000 ) ) ;
#140 = AXIS2_PLACEMENT_3D ( 'NONE', #147, #139, #138 ) ;
#141 = CIRCLE ( 'NONE', #140, 9.076412876678855200 ) ;
#142 = DIRECTION ( 'NONE',  ( 0.0000000000000000000, 0.0000000000000000000, -1.000000000000000000 ) ) ;
#143 = DIRECTION ( 'NONE',  ( 0.0000000000000000000, -1.000000000000000000, 0.0000000000000000000 ) ) ;
#144 = CARTESIAN_POINT ( 'NONE',  ( -5.009326287108706300E-010, -23.99999999650043500, 0.0000000000000000000 ) ) ;
#145 = AXIS2_PLACEMENT_3D ( 'NONE', #144, #143, #142 ) ;
#146 = CONICAL_SURFACE ( 'NONE', #145, 11.00000000000000000, 0.08314123188844121900 ) ;
#147 = CARTESIAN_POINT ( 'NONE',  ( -5.009326287108706300E-010, -0.9169545166467013600, 0.0000000000000000000 ) ) ;
#148 = FACE_OUTER_BOUND ( 'NONE', #108, .T. ) ;
#149 = DIRECTION ( 'NONE',  ( 0.0000000000000000000, 1.000000000000000000, 0.0000000000000000000 ) ) ;
#150 = VECTOR ( 'NONE', #149, 1000.000000000000000 ) ;
#151 = CARTESIAN_POINT ( 'NONE',  ( -5.009326287108706300E-010, 2.412507003500041800, 1.500000000000001300 ) ) ;
#152 = LINE ( 'NONE', #151, #150 ) ;
#153 = CARTESIAN_POINT ( 'NONE',  ( -5.009326287108706300E-010, -9.999999996500434900, 1.500000000000000400 ) ) ;
#154 = DIRECTION ( 'NONE',  ( 0.0000000000000000000, 0.0000000000000000000, 1.000000000000000000 ) ) ;
#155 = DIRECTION ( 'NONE',  ( 0.0000000000000000000, 1.000000000000000000, 0.0000000000000000000 ) ) ;
#156 = CARTESIAN_POINT ( 'NONE',  ( -5.009326287108706300E-010, -9.999999996500434900, 0.0000000000000000000 ) ) ;
#157 = AXIS2_PLACEMENT_3D ( 'NONE', #156, #155, #154 ) ;
#158 = CIRCLE ( 'NONE', #157, 1.500000000000000400 ) ;
#159 = CARTESIAN_POINT ( 'NONE',  ( -5.009326287108706300E-010, -23.99999999650043500, -11.00000000000000000 ) ) ;
#160 = DIRECTION ( 'NONE',  ( 0.0000000000000000000, 0.0000000000000000000, 1.000000000000000000 ) ) ;
#161 = DIRECTION ( 'NONE',  ( 0.0000000000000000000, 1.000000000000000000, 0.0000000000000000000 ) ) ;
#162 = AXIS2_PLACEMENT_3D ( 'NONE', #168, #161, #160 ) ;
#163 = CIRCLE ( 'NONE', #162, 11.00000000000000000 ) ;
#164 = DIRECTION ( 'NONE',  ( 0.0000000000000000000, 0.0000000000000000000, 1.000000000000000000 ) ) ;
#165 = DIRECTION ( 'NONE',  ( 0.0000000000000000000, 1.000000000000000000, 0.0000000000000000000 ) ) ;
#166 = CARTESIAN_POINT ( 'NONE',  ( -5.009326287108706300E-010, -0.9999999965004348100, 0.0000000000000000000 ) ) ;
#167 = AXIS2_PLACEMENT_3D ( 'NONE', #166, #165, #164 ) ;
#168 = CARTESIAN_POINT ( 'NONE',  ( -5.009326287108706300E-010, -23.99999999650043500, 0.0000000000000000000 ) ) ;
#169 = TOROIDAL_SURFACE ( 'NONE', #167, 8.079867118433975600, 0.9999999999999997800 ) ;
#170 = FACE_OUTER_BOUND ( 'NONE', #132, .T. ) ;
#171 = DIRECTION ( 'NONE',  ( 0.0000000000000000000, -0.9965457582448795600, -0.08304547985373995900 ) ) ;
#172 = VECTOR ( 'NONE', #171, 1000.000000000000100 ) ;
#173 = CARTESIAN_POINT ( 'NONE',  ( -5.009326287108706300E-010, -23.99999999650043500, -11.00000000000000000 ) ) ;
#174 = LINE ( 'NONE', #173, #172 ) ;
#175 = CARTESIAN_POINT ( 'NONE',  ( -5.009326287108706300E-010, 3.499565220943523500E-009, 8.079867118433968500 ) ) ;
#176 = CARTESIAN_POINT ( 'NONE',  ( -5.009315782263960900E-010, 3.499565220943523500E-009, -8.079867118433968500 ) ) ;
#177 = DIRECTION ( 'NONE',  ( 1.224606353612351900E-016, 0.0000000000000000000, -1.000000000000000000 ) ) ;
#178 = DIRECTION ( 'NONE',  ( 1.000000000000000000, 0.0000000000000000000, 1.224606353822377300E-016 ) ) ;
#179 = CARTESIAN_POINT ( 'NONE',  ( -5.009316392452094900E-010, -0.9999999965004348100, -8.079867118433975600 ) ) ;
#180 = AXIS2_PLACEMENT_3D ( 'NONE', #179, #178, #177 ) ;
#181 = CIRCLE ( 'NONE', #180, 0.9999999999999991100 ) ;
#182 = DIRECTION ( 'NONE',  ( 0.0000000000000000000, 0.0000000000000000000, 1.000000000000000000 ) ) ;
#183 = DIRECTION ( 'NONE',  ( 0.0000000000000000000, 1.000000000000000000, 0.0000000000000000000 ) ) ;
#184 = CARTESIAN_POINT ( 'NONE',  ( -5.009326287108706300E-010, 3.499565220943523500E-009, 0.0000000000000000000 ) ) ;
#185 = AXIS2_PLACEMENT_3D ( 'NONE', #184, #183, #182 ) ;
#186 = CIRCLE ( 'NONE', #185, 8.079867118433968500 ) ;
#187 = DIRECTION ( 'NONE',  ( 0.0000000000000000000, 0.0000000000000000000, -1.000000000000000000 ) ) ;
#188 = DIRECTION ( 'NONE',  ( 0.0000000000000000000, -1.000000000000000000, 0.0000000000000000000 ) ) ;
#189 = CARTESIAN_POINT ( 'NONE',  ( 8.079867117933035900, 3.499565288624657600E-009, 0.0000000000000000000 ) ) ;
#190 = AXIS2_PLACEMENT_3D ( 'NONE', #189, #188, #187 ) ;
#191 = PLANE ( 'NONE',  #190 ) ;
#192 = FACE_OUTER_BOUND ( 'NONE', #87, .T. ) ;
#193 = FACE_BOUND ( 'NONE', #84, .T. ) ;
#194 = DIRECTION ( 'NONE',  ( 0.0000000000000000000, 0.0000000000000000000, 1.000000000000000000 ) ) ;
#195 = DIRECTION ( 'NONE',  ( 0.0000000000000000000, 1.000000000000000000, 0.0000000000000000000 ) ) ;
#196 = CARTESIAN_POINT ( 'NONE',  ( -5.009326287108706300E-010, 3.499565220943523500E-009, 0.0000000000000000000 ) ) ;
#197 = AXIS2_PLACEMENT_3D ( 'NONE', #196, #195, #194 ) ;
#198 = DIRECTION ( 'NONE',  ( 0.0000000000000000000, 0.0000000000000000000, 1.000000000000000000 ) ) ;
#199 = DIRECTION ( 'NONE',  ( 0.0000000000000000000, 1.000000000000000000, 0.0000000000000000000 ) ) ;
#200 = CARTESIAN_POINT ( 'NONE',  ( -5.009326287108706300E-010, 2.412507003500041800, 0.0000000000000000000 ) ) ;
#201 = AXIS2_PLACEMENT_3D ( 'NONE', #200, #199, #198 ) ;
#202 = CIRCLE ( 'NONE', #197, 3.500000000000000000 ) ;
#203 = CYLINDRICAL_SURFACE ( 'NONE', #201, 3.500000000000000400 ) ;
#204 = FACE_OUTER_BOUND ( 'NONE', #77, .T. ) ;
#205 = DIRECTION ( 'NONE',  ( 0.0000000000000000000, 0.0000000000000000000, 1.000000000000000000 ) ) ;
#206 = DIRECTION ( 'NONE',  ( 0.0000000000000000000, 1.000000000000000000, 0.0000000000000000000 ) ) ;
#207 = CARTESIAN_POINT ( 'NONE',  ( -5.009326287108706300E-010, -9.999999996500434900, 0.0000000000000000000 ) ) ;
#208 = AXIS2_PLACEMENT_3D ( 'NONE', #207, #206, #205 ) ;
#209 = CIRCLE ( 'NONE', #208, 3.500000000000001300 ) ;
#210 = DIRECTION ( 'NONE',  ( 0.0000000000000000000, 0.0000000000000000000, -1.000000000000000000 ) ) ;
#211 = DIRECTION ( 'NONE',  ( 0.0000000000000000000, -1.000000000000000000, 0.0000000000000000000 ) ) ;
#212 = CARTESIAN_POINT ( 'NONE',  ( 3.499999999499068700, -9.999999996500434900, 0.0000000000000000000 ) ) ;
#213 = AXIS2_PLACEMENT_3D ( 'NONE', #212, #211, #210 ) ;
#214 = PLANE ( 'NONE',  #213 ) ;
#215 = FACE_OUTER_BOUND ( 'NONE', #72, .T. ) ;
#216 = FACE_BOUND ( 'NONE', #69, .T. ) ;
#217 = DIRECTION ( 'NONE',  ( 0.0000000000000000000, 0.0000000000000000000, 1.000000000000000000 ) ) ;
#218 = DIRECTION ( 'NONE',  ( 0.0000000000000000000, 1.000000000000000000, 0.0000000000000000000 ) ) ;
#219 = CARTESIAN_POINT ( 'NONE',  ( -5.009326287108706300E-010, -9.999999996500434900, 0.0000000000000000000 ) ) ;
#220 = AXIS2_PLACEMENT_3D ( 'NONE', #219, #218, #217 ) ;
#221 = DIRECTION ( 'NONE',  ( 0.0000000000000000000, 0.0000000000000000000, 1.000000000000000000 ) ) ;
#222 = DIRECTION ( 'NONE',  ( 0.0000000000000000000, 1.000000000000000000, 0.0000000000000000000 ) ) ;
#223 = AXIS2_PLACEMENT_3D ( 'NONE', #226, #222, #221 ) ;
#224 = CYLINDRICAL_SURFACE ( 'NONE', #223, 1.500000000000001300 ) ;
#225 = CIRCLE ( 'NONE', #220, 1.500000000000000400 ) ;
#226 = CARTESIAN_POINT ( 'NONE',  ( -5.009326287108706300E-010, 2.412507003500041800, 0.0000000000000000000 ) ) ;
#227 = DIRECTION ( 'NONE',  ( 0.0000000000000000000, 0.0000000000000000000, 1.000000000000000000 ) ) ;
#228 = DIRECTION ( 'NONE',  ( 0.0000000000000000000, 1.000000000000000000, 0.0000000000000000000 ) ) ;
#229 = AXIS2_PLACEMENT_3D ( 'NONE', #240, #228, #227 ) ;
#230 = CIRCLE ( 'NONE', #229, 1.500000000000002200 ) ;
#231 = FACE_OUTER_BOUND ( 'NONE', #62, .T. ) ;
#232 = AXIS2_PLACEMENT_3D ( 'NONE', #286, #288, #289 ) ;
#233 = FACE_OUTER_BOUND ( 'NONE', #47, .T. ) ;
#234 = CIRCLE ( 'NONE', #232, 9.076412876678855200 ) ;
#235 = CIRCLE ( 'NONE', #285, 8.079867118433968500 ) ;
#236 = DIRECTION ( 'NONE',  ( 0.0000000000000000000, 0.0000000000000000000, 1.000000000000000000 ) ) ;
#237 = DIRECTION ( 'NONE',  ( 0.0000000000000000000, 1.000000000000000000, 0.0000000000000000000 ) ) ;
#238 = CARTESIAN_POINT ( 'NONE',  ( 1.499999999499069600, -23.99999999650043500, 0.0000000000000000000 ) ) ;
#239 = AXIS2_PLACEMENT_3D ( 'NONE', #238, #237, #236 ) ;
#240 = CARTESIAN_POINT ( 'NONE',  ( -5.009326287108706300E-010, -23.99999999650043500, 0.0000000000000000000 ) ) ;
#241 = PLANE ( 'NONE',  #239 ) ;
#242 = FACE_BOUND ( 'NONE', #57, .T. ) ;
#243 = DIRECTION ( 'NONE',  ( 0.0000000000000000000, 0.0000000000000000000, 1.000000000000000000 ) ) ;
#244 = DIRECTION ( 'NONE',  ( 0.0000000000000000000, 1.000000000000000000, 0.0000000000000000000 ) ) ;
#245 = CARTESIAN_POINT ( 'NONE',  ( -5.009326287108706300E-010, -23.99999999650043500, 0.0000000000000000000 ) ) ;
#246 = AXIS2_PLACEMENT_3D ( 'NONE', #245, #244, #243 ) ;
#247 = CIRCLE ( 'NONE', #246, 11.00000000000000000 ) ;
#248 = FACE_OUTER_BOUND ( 'NONE', #54, .T. ) ;
#249 = DIRECTION ( 'NONE',  ( 0.0000000000000000000, 0.0000000000000000000, -1.000000000000000000 ) ) ;
#250 = DIRECTION ( 'NONE',  ( 0.0000000000000000000, -1.000000000000000000, 0.0000000000000000000 ) ) ;
#251 = AXIS2_PLACEMENT_3D ( 'NONE', #253, #250, #249 ) ;
#252 = CONICAL_SURFACE ( 'NONE', #251, 11.00000000000000000, 0.08314123188844121900 ) ;
#253 = CARTESIAN_POINT ( 'NONE',  ( -5.009326287108706300E-010, -23.99999999650043500, 0.0000000000000000000 ) ) ;
#254 = DIRECTION ( 'NONE',  ( 0.0000000000000000000, 0.0000000000000000000, 1.000000000000000000 ) ) ;
#255 = DIRECTION ( 'NONE',  ( 0.0000000000000000000, 1.000000000000000000, 0.0000000000000000000 ) ) ;
#256 = CYLINDRICAL_SURFACE ( 'NONE', #7, 1.500000000000001300 ) ;
#257 = FACE_OUTER_BOUND ( 'NONE', #134, .T. ) ;
#258 = DIRECTION ( 'NONE',  ( 0.0000000000000000000, 1.000000000000000000, 0.0000000000000000000 ) ) ;
#259 = VECTOR ( 'NONE', #258, 1000.000000000000000 ) ;
#260 = CARTESIAN_POINT ( 'NONE',  ( -5.009326287108706300E-010, 2.412507003500041800, 3.500000000000000400 ) ) ;
#261 = LINE ( 'NONE', #260, #259 ) ;
#262 = DIRECTION ( 'NONE',  ( 0.0000000000000000000, 0.0000000000000000000, 1.000000000000000000 ) ) ;
#263 = DIRECTION ( 'NONE',  ( 0.0000000000000000000, 1.000000000000000000, 0.0000000000000000000 ) ) ;
#264 = CARTESIAN_POINT ( 'NONE',  ( -5.009326287108706300E-010, 3.499565220943523500E-009, 0.0000000000000000000 ) ) ;
#265 = AXIS2_PLACEMENT_3D ( 'NONE', #264, #263, #262 ) ;
#266 = CIRCLE ( 'NONE', #265, 3.500000000000000000 ) ;
#267 = CARTESIAN_POINT ( 'NONE',  ( -5.009326287108706300E-010, 3.499565220943523500E-009, 3.500000000000000000 ) ) ;
#268 = CARTESIAN_POINT ( 'NONE',  ( -5.009326287108706300E-010, -23.99999999650043500, 1.500000000000002200 ) ) ;
#269 = CARTESIAN_POINT ( 'NONE',  ( -5.009324450199175600E-010, -23.99999999650043500, -1.500000000000002200 ) ) ;
#270 = DIRECTION ( 'NONE',  ( 0.0000000000000000000, 0.0000000000000000000, 1.000000000000000000 ) ) ;
#271 = DIRECTION ( 'NONE',  ( 0.0000000000000000000, 1.000000000000000000, 0.0000000000000000000 ) ) ;
#272 = CARTESIAN_POINT ( 'NONE',  ( -5.009326287108706300E-010, -23.99999999650043500, 0.0000000000000000000 ) ) ;
#273 = AXIS2_PLACEMENT_3D ( 'NONE', #272, #271, #270 ) ;
#274 = CIRCLE ( 'NONE', #273, 1.500000000000002200 ) ;
#275 = DIRECTION ( 'NONE',  ( 0.0000000000000000000, 1.000000000000000000, 0.0000000000000000000 ) ) ;
#276 = VECTOR ( 'NONE', #275, 1000.000000000000000 ) ;
#277 = CARTESIAN_POINT ( 'NONE',  ( -5.009324450199175600E-010, 2.412507003500041800, -1.500000000000001300 ) ) ;
#278 = LINE ( 'NONE', #277, #276 ) ;
#279 = CARTESIAN_POINT ( 'NONE',  ( -5.009324450199175600E-010, -9.999999996500434900, -1.500000000000000400 ) ) ;
#280 = CARTESIAN_POINT ( 'NONE',  ( -5.009312816438814300E-010, -23.99999999650043500, 11.00000000000000000 ) ) ;
#281 = DIRECTION ( 'NONE',  ( 1.016980222851181600E-017, -0.9965457582448795600, 0.08304547985373995900 ) ) ;
#282 = VECTOR ( 'NONE', #281, 1000.000000000000100 ) ;
#283 = CARTESIAN_POINT ( 'NONE',  ( -5.009312816438814300E-010, -23.99999999650043500, 11.00000000000000000 ) ) ;
#284 = LINE ( 'NONE', #283, #282 ) ;
#285 = AXIS2_PLACEMENT_3D ( 'NONE', #287, #255, #254 ) ;
#286 = CARTESIAN_POINT ( 'NONE',  ( -5.009326287108706300E-010, -0.9169545166467013600, 0.0000000000000000000 ) ) ;
#287 = CARTESIAN_POINT ( 'NONE',  ( -5.009326287108706300E-010, 3.499565220943523500E-009, 0.0000000000000000000 ) ) ;
#288 = DIRECTION ( 'NONE',  ( 0.0000000000000000000, 1.000000000000000000, 0.0000000000000000000 ) ) ;
#289 = DIRECTION ( 'NONE',  ( 0.0000000000000000000, 0.0000000000000000000, 1.000000000000000000 ) ) ;
#290 = PERSON_AND_ORGANIZATION ( #291, #381 ) ;
#291 = PERSON ( 'UNSPECIFIED', 'UNSPECIFIED', 'UNSPECIFIED', ('UNSPECIFIED'), ('UNSPECIFIED'), ('UNSPECIFIED') ) ;
#292 = PRODUCT ( 'C-30-RK-22', 'C-30-RK-22', '', ( #293 ) ) ;
#293 = MECHANICAL_CONTEXT ( 'NONE', #295, 'mechanical' ) ;
#294 = APPLICATION_PROTOCOL_DEFINITION ( 'international standard', 'config_control_design', 1994, #295 ) ;
#295 = APPLICATION_CONTEXT ( 'configuration controlled 3d designs of mechanical parts and assemblies' ) ;
#296 =( LENGTH_UNIT ( ) NAMED_UNIT ( * ) SI_UNIT ( .MILLI., .METRE. ) );
#297 = DIRECTION ( 'NONE',  ( 0.0000000000000000000, 1.000000000000000000, 0.0000000000000000000 ) ) ;
#298 = VECTOR ( 'NONE', #297, 1000.000000000000000 ) ;
#299 = CARTESIAN_POINT ( 'NONE',  ( -5.009322000986467900E-010, 2.412507003500041800, -3.500000000000000400 ) ) ;
#300 = LINE ( 'NONE', #299, #298 ) ;
#301 = CARTESIAN_POINT ( 'NONE',  ( -5.009322000986467900E-010, 3.499565220943523500E-009, -3.500000000000000000 ) ) ;
#302 = DIRECTION ( 'NONE',  ( 1.000000000000000000, 0.0000000000000000000, 0.0000000000000000000 ) ) ;
#303 = DIRECTION ( 'NONE',  ( 0.0000000000000000000, 0.0000000000000000000, 1.000000000000000000 ) ) ;
#304 = CARTESIAN_POINT ( 'NONE',  ( 0.0000000000000000000, 0.0000000000000000000, 0.0000000000000000000 ) ) ;
#305 = AXIS2_PLACEMENT_3D ( 'NONE', #304, #303, #302 ) ;
#306 = SHAPE_DEFINITION_REPRESENTATION ( #312, #307 ) ;
#307 = ADVANCED_BREP_SHAPE_REPRESENTATION ( 'C-30-RK-22', ( #29, #305 ), #308 ) ;
#308 =( GEOMETRIC_REPRESENTATION_CONTEXT ( 3 ) GLOBAL_UNCERTAINTY_ASSIGNED_CONTEXT ( ( #309 ) ) GLOBAL_UNIT_ASSIGNED_CONTEXT ( ( #296, #311, #310 ) ) REPRESENTATION_CONTEXT ( 'NONE', 'WORKASPACE' ) );
#309 = UNCERTAINTY_MEASURE_WITH_UNIT (LENGTH_MEASURE( 1.000000000000000100E-005 ), #296, 'distance_accuracy_value', 'NONE');
#310 =( NAMED_UNIT ( * ) SI_UNIT ( $, .STERADIAN. ) SOLID_ANGLE_UNIT ( ) );
#311 =( NAMED_UNIT ( * ) PLANE_ANGLE_UNIT ( ) SI_UNIT ( $, .RADIAN. ) );
#312 = PRODUCT_DEFINITION_SHAPE ( 'NONE', 'NONE',  #375 ) ;
#313 = PRODUCT_RELATED_PRODUCT_CATEGORY ( 'detail', '', ( #292 ) ) ;
#314 = CC_DESIGN_SECURITY_CLASSIFICATION ( #335, ( #354 ) ) ;
#315 = CC_DESIGN_APPROVAL ( #323, ( #335 ) ) ;
#316 = APPROVAL_DATE_TIME ( #317, #323 ) ;
#317 = DATE_AND_TIME ( #318, #319 ) ;
#318 = CALENDAR_DATE ( 2009, 26, 6 ) ;
#319 = LOCAL_TIME ( 13, 34, 40.00000000000000000, #320 ) ;
#320 = COORDINATED_UNIVERSAL_TIME_OFFSET ( 9, 0, .AHEAD. ) ;
#321 = APPROVAL_PERSON_ORGANIZATION ( #325, #323, #322 ) ;
#322 = APPROVAL_ROLE ( '' ) ;
#323 = APPROVAL ( #324, 'UNSPECIFIED' ) ;
#324 = APPROVAL_STATUS ( 'not_yet_approved' ) ;
#325 = PERSON_AND_ORGANIZATION ( #291, #381 ) ;
#326 = CC_DESIGN_DATE_AND_TIME_ASSIGNMENT ( #328, #327, ( #335 ) ) ;
#327 = DATE_TIME_ROLE ( 'classification_date' ) ;
#328 = DATE_AND_TIME ( #329, #330 ) ;
#329 = CALENDAR_DATE ( 2009, 26, 6 ) ;
#330 = LOCAL_TIME ( 13, 34, 40.00000000000000000, #331 ) ;
#331 = COORDINATED_UNIVERSAL_TIME_OFFSET ( 9, 0, .AHEAD. ) ;
#332 = CC_DESIGN_PERSON_AND_ORGANIZATION_ASSIGNMENT ( #334, #333, ( #335 ) ) ;
#333 = PERSON_AND_ORGANIZATION_ROLE ( 'classification_officer' ) ;
#334 = PERSON_AND_ORGANIZATION ( #291, #381 ) ;
#335 = SECURITY_CLASSIFICATION ( '', '', #336 ) ;
#336 = SECURITY_CLASSIFICATION_LEVEL ( 'unclassified' ) ;
#337 = CC_DESIGN_PERSON_AND_ORGANIZATION_ASSIGNMENT ( #339, #338, ( #354 ) ) ;
#338 = PERSON_AND_ORGANIZATION_ROLE ( 'design_supplier' ) ;
#339 = PERSON_AND_ORGANIZATION ( #291, #381 ) ;
#340 = CC_DESIGN_PERSON_AND_ORGANIZATION_ASSIGNMENT ( #342, #341, ( #354 ) ) ;
#341 = PERSON_AND_ORGANIZATION_ROLE ( 'creator' ) ;
#342 = PERSON_AND_ORGANIZATION ( #291, #381 ) ;
#343 = CC_DESIGN_APPROVAL ( #351, ( #354 ) ) ;
#344 = APPROVAL_DATE_TIME ( #345, #351 ) ;
#345 = DATE_AND_TIME ( #346, #347 ) ;
#346 = CALENDAR_DATE ( 2009, 26, 6 ) ;
#347 = LOCAL_TIME ( 13, 34, 40.00000000000000000, #348 ) ;
#348 = COORDINATED_UNIVERSAL_TIME_OFFSET ( 9, 0, .AHEAD. ) ;
#349 = APPROVAL_PERSON_ORGANIZATION ( #353, #351, #350 ) ;
#350 = APPROVAL_ROLE ( '' ) ;
#351 = APPROVAL ( #352, 'UNSPECIFIED' ) ;
#352 = APPROVAL_STATUS ( 'not_yet_approved' ) ;
#353 = PERSON_AND_ORGANIZATION ( #291, #381 ) ;
#354 = PRODUCT_DEFINITION_FORMATION_WITH_SPECIFIED_SOURCE ( 'ANY', '', #292, .NOT_KNOWN. ) ;
#355 = CC_DESIGN_DATE_AND_TIME_ASSIGNMENT ( #357, #356, ( #375 ) ) ;
#356 = DATE_TIME_ROLE ( 'creation_date' ) ;
#357 = DATE_AND_TIME ( #358, #359 ) ;
#358 = CALENDAR_DATE ( 2009, 26, 6 ) ;
#359 = LOCAL_TIME ( 13, 34, 40.00000000000000000, #360 ) ;
#360 = COORDINATED_UNIVERSAL_TIME_OFFSET ( 9, 0, .AHEAD. ) ;
#361 = CC_DESIGN_PERSON_AND_ORGANIZATION_ASSIGNMENT ( #363, #362, ( #375 ) ) ;
#362 = PERSON_AND_ORGANIZATION_ROLE ( 'creator' ) ;
#363 = PERSON_AND_ORGANIZATION ( #291, #381 ) ;
#364 = CC_DESIGN_APPROVAL ( #372, ( #375 ) ) ;
#365 = APPROVAL_DATE_TIME ( #366, #372 ) ;
#366 = DATE_AND_TIME ( #367, #368 ) ;
#367 = CALENDAR_DATE ( 2009, 26, 6 ) ;
#368 = LOCAL_TIME ( 13, 34, 40.00000000000000000, #369 ) ;
#369 = COORDINATED_UNIVERSAL_TIME_OFFSET ( 9, 0, .AHEAD. ) ;
#370 = APPROVAL_PERSON_ORGANIZATION ( #374, #372, #371 ) ;
#371 = APPROVAL_ROLE ( '' ) ;
#372 = APPROVAL ( #373, 'UNSPECIFIED' ) ;
#373 = APPROVAL_STATUS ( 'not_yet_approved' ) ;
#374 = PERSON_AND_ORGANIZATION ( #291, #381 ) ;
#375 = PRODUCT_DEFINITION ( 'UNKNOWN', '', #354, #376 ) ;
#376 = DESIGN_CONTEXT ( 'detailed design', #378, 'design' ) ;
#377 = APPLICATION_PROTOCOL_DEFINITION ( 'international standard', 'config_control_design', 1994, #378 ) ;
#378 = APPLICATION_CONTEXT ( 'configuration controlled 3d designs of mechanical parts and assemblies' ) ;
#379 = CC_DESIGN_PERSON_AND_ORGANIZATION_ASSIGNMENT ( #290, #380, ( #292 ) ) ;
#380 = PERSON_AND_ORGANIZATION_ROLE ( 'design_owner' ) ;
#381 = ORGANIZATION ( 'UNSPECIFIED', 'UNSPECIFIED', '' ) ;
ENDSEC;
END-ISO-10303-21;
