ISO-10303-21;
HEADER;
FILE_DESCRIPTION (( 'STEP AP203' ),
    '1' );
FILE_NAME ('C-30-RK-2017-ÃÞÌ«ÙÄ.STEP',
    '2009-06-29T02:43:15',
    ( '11sw' ),
    ( '^LQ»¢®ïÐ' ),
    'SwSTEP 2.0',
    'SolidWorks 2007',
    '' );
FILE_SCHEMA (( 'CONFIG_CONTROL_DESIGN' ));
ENDSEC;

DATA;
#1 = ADVANCED_FACE ( 'NONE', ( #129 ), #189, .F. ) ;
#2 = EDGE_LOOP ( 'NONE', ( #17, #16, #15, #232 ) ) ;
#3 = EDGE_CURVE ( 'NONE', #52, #8, #182, .T. ) ;
#4 = ADVANCED_FACE ( 'NONE', ( #183 ), #178, .T. ) ;
#5 = VERTEX_POINT ( 'NONE', #177 ) ;
#6 = ORIENTED_EDGE ( 'NONE', *, *, #7, .F. ) ;
#7 = EDGE_CURVE ( 'NONE', #8, #5, #106, .T. ) ;
#8 = VERTEX_POINT ( 'NONE', #136 ) ;
#9 = ORIENTED_EDGE ( 'NONE', *, *, #3, .F. ) ;
#10 = EDGE_LOOP ( 'NONE', ( #11, #12, #19, #13 ) ) ;
#11 = ORIENTED_EDGE ( 'NONE', *, *, #31, .F. ) ;
#12 = ORIENTED_EDGE ( 'NONE', *, *, #18, .T. ) ;
#13 = ORIENTED_EDGE ( 'NONE', *, *, #20, .F. ) ;
#14 = EDGE_CURVE ( 'NONE', #38, #37, #135, .T. ) ;
#15 = ORIENTED_EDGE ( 'NONE', *, *, #22, .T. ) ;
#16 = ORIENTED_EDGE ( 'NONE', *, *, #14, .F. ) ;
#17 = ORIENTED_EDGE ( 'NONE', *, *, #34, .F. ) ;
#18 = EDGE_CURVE ( 'NONE', #73, #52, #140, .T. ) ;
#19 = ORIENTED_EDGE ( 'NONE', *, *, #3, .T. ) ;
#20 = EDGE_CURVE ( 'NONE', #5, #8, #147, .T. ) ;
#21 = ORIENTED_EDGE ( 'NONE', *, *, #22, .F. ) ;
#22 = EDGE_CURVE ( 'NONE', #38, #25, #227, .T. ) ;
#23 = ORIENTED_EDGE ( 'NONE', *, *, #24, .T. ) ;
#24 = EDGE_CURVE ( 'NONE', #35, #25, #252, .T. ) ;
#25 = VERTEX_POINT ( 'NONE', #99 ) ;
#26 = ORIENTED_EDGE ( 'NONE', *, *, #31, .T. ) ;
#27 = EDGE_LOOP ( 'NONE', ( #28, #33, #23, #21 ) ) ;
#28 = ORIENTED_EDGE ( 'NONE', *, *, #36, .F. ) ;
#29 = ADVANCED_FACE ( 'NONE', ( #91 ), #248, .T. ) ;
#30 = EDGE_LOOP ( 'NONE', ( #32, #26, #6, #9 ) ) ;
#31 = EDGE_CURVE ( 'NONE', #73, #5, #170, .T. ) ;
#32 = ORIENTED_EDGE ( 'NONE', *, *, #72, .T. ) ;
#33 = ORIENTED_EDGE ( 'NONE', *, *, #34, .T. ) ;
#34 = EDGE_CURVE ( 'NONE', #37, #35, #171, .T. ) ;
#35 = VERTEX_POINT ( 'NONE', #163 ) ;
#36 = EDGE_CURVE ( 'NONE', #37, #38, #162, .T. ) ;
#37 = VERTEX_POINT ( 'NONE', #157 ) ;
#38 = VERTEX_POINT ( 'NONE', #205 ) ;
#39 = ADVANCED_FACE ( 'NONE', ( #204, #203 ), #201, .F. ) ;
#40 = EDGE_LOOP ( 'NONE', ( #44, #45 ) ) ;
#41 = DIRECTION ( 'NONE',  ( 1.000000000000000000, 0.0000000000000000000, 0.0000000000000000000 ) ) ;
#42 = ORIENTED_EDGE ( 'NONE', *, *, #24, .F. ) ;
#43 = EDGE_CURVE ( 'NONE', #25, #35, #199, .T. ) ;
#44 = ORIENTED_EDGE ( 'NONE', *, *, #7, .T. ) ;
#45 = ORIENTED_EDGE ( 'NONE', *, *, #20, .T. ) ;
#46 = EDGE_LOOP ( 'NONE', ( #47, #42 ) ) ;
#47 = ORIENTED_EDGE ( 'NONE', *, *, #43, .F. ) ;
#48 = EDGE_CURVE ( 'NONE', #73, #63, #119, .T. ) ;
#49 = ADVANCED_FACE ( 'NONE', ( #116 ), #115, .F. ) ;
#50 = ADVANCED_FACE ( 'NONE', ( #184 ), #190, .T. ) ;
#51 = EDGE_LOOP ( 'NONE', ( #71, #55, #61, #64 ) ) ;
#52 = VERTEX_POINT ( 'NONE', #217 ) ;
#53 = EDGE_LOOP ( 'NONE', ( #218, #198 ) ) ;
#54 = MANIFOLD_SOLID_BREP ( 'NONE', #130 ) ;
#55 = ORIENTED_EDGE ( 'NONE', *, *, #56, .T. ) ;
#56 = EDGE_CURVE ( 'NONE', #52, #57, #237, .T. ) ;
#57 = VERTEX_POINT ( 'NONE', #167 ) ;
#58 = ORIENTED_EDGE ( 'NONE', *, *, #59, .T. ) ;
#59 = EDGE_CURVE ( 'NONE', #76, #60, #127, .T. ) ;
#60 = VERTEX_POINT ( 'NONE', #122 ) ;
#61 = ORIENTED_EDGE ( 'NONE', *, *, #62, .T. ) ;
#62 = EDGE_CURVE ( 'NONE', #57, #63, #176, .T. ) ;
#63 = VERTEX_POINT ( 'NONE', #245 ) ;
#64 = ORIENTED_EDGE ( 'NONE', *, *, #48, .F. ) ;
#65 = ADVANCED_FACE ( 'NONE', ( #244 ), #243, .F. ) ;
#66 = EDGE_LOOP ( 'NONE', ( #67, #74, #58, #77 ) ) ;
#67 = ORIENTED_EDGE ( 'NONE', *, *, #69, .F. ) ;
#68 = VERTEX_POINT ( 'NONE', #79 ) ;
#69 = EDGE_CURVE ( 'NONE', #68, #70, #154, .T. ) ;
#70 = VERTEX_POINT ( 'NONE', #222 ) ;
#71 = ORIENTED_EDGE ( 'NONE', *, *, #72, .F. ) ;
#72 = EDGE_CURVE ( 'NONE', #52, #73, #221, .T. ) ;
#73 = VERTEX_POINT ( 'NONE', #95 ) ;
#74 = ORIENTED_EDGE ( 'NONE', *, *, #75, .T. ) ;
#75 = EDGE_CURVE ( 'NONE', #68, #76, #94, .T. ) ;
#76 = VERTEX_POINT ( 'NONE', #83 ) ;
#77 = ORIENTED_EDGE ( 'NONE', *, *, #78, .F. ) ;
#78 = EDGE_CURVE ( 'NONE', #70, #60, #276, .T. ) ;
#79 = CARTESIAN_POINT ( 'NONE',  ( -5.009324450199175600E-010, -16.99999999650043500, -1.500000000000001100 ) ) ;
#80 = DIRECTION ( 'NONE',  ( 0.0000000000000000000, 0.0000000000000000000, 1.000000000000000000 ) ) ;
#81 = DIRECTION ( 'NONE',  ( 0.0000000000000000000, 1.000000000000000000, 0.0000000000000000000 ) ) ;
#82 = AXIS2_PLACEMENT_3D ( 'NONE', #242, #81, #80 ) ;
#83 = CARTESIAN_POINT ( 'NONE',  ( -5.009324450199175600E-010, -7.999999996500434900, -1.500000000000000200 ) ) ;
#84 = CARTESIAN_POINT ( 'NONE',  ( -5.009326287108706300E-010, -16.99999999650043500, 0.0000000000000000000 ) ) ;
#85 = DIRECTION ( 'NONE',  ( 0.0000000000000000000, 1.000000000000000000, 0.0000000000000000000 ) ) ;
#86 = VECTOR ( 'NONE', #85, 1000.000000000000000 ) ;
#87 = CARTESIAN_POINT ( 'NONE',  ( -5.009318160249258600E-010, -0.9999999965004348100, -6.636303513091790200 ) ) ;
#88 = DIRECTION ( 'NONE',  ( 0.0000000000000000000, 0.0000000000000000000, 1.000000000000000000 ) ) ;
#89 = DIRECTION ( 'NONE',  ( 0.0000000000000000000, 1.000000000000000000, 0.0000000000000000000 ) ) ;
#90 = AXIS2_PLACEMENT_3D ( 'NONE', #247, #89, #88 ) ;
#91 = FACE_OUTER_BOUND ( 'NONE', #30, .T. ) ;
#92 = DIRECTION ( 'NONE',  ( 0.0000000000000000000, 0.0000000000000000000, 1.000000000000000000 ) ) ;
#93 = CARTESIAN_POINT ( 'NONE',  ( -5.009324450199175600E-010, 2.412507003500041800, -1.500000000000000700 ) ) ;
#94 = LINE ( 'NONE', #93, #86 ) ;
#95 = CARTESIAN_POINT ( 'NONE',  ( -5.009316948673775600E-010, -0.8545060060056036700, -7.625662648456642300 ) ) ;
#96 = DIRECTION ( 'NONE',  ( 0.0000000000000000000, 0.0000000000000000000, 1.000000000000000000 ) ) ;
#97 = DIRECTION ( 'NONE',  ( 0.0000000000000000000, 1.000000000000000000, 0.0000000000000000000 ) ) ;
#98 = ADVANCED_FACE ( 'NONE', ( #273, #286 ), #266, .F. ) ;
#99 = CARTESIAN_POINT ( 'NONE',  ( -5.009326287108706300E-010, 3.499565220943523500E-009, 3.500000000000000000 ) ) ;
#100 = ADVANCED_FACE ( 'NONE', ( #275 ), #263, .T. ) ;
#101 = EDGE_LOOP ( 'NONE', ( #141, #143, #120, #142 ) ) ;
#102 = ORIENTED_EDGE ( 'NONE', *, *, #59, .F. ) ;
#103 = DIRECTION ( 'NONE',  ( 0.0000000000000000000, 1.000000000000000000, 0.0000000000000000000 ) ) ;
#104 = CARTESIAN_POINT ( 'NONE',  ( -5.009326287108706300E-010, 3.499565220943523500E-009, 0.0000000000000000000 ) ) ;
#105 = AXIS2_PLACEMENT_3D ( 'NONE', #104, #103, #137 ) ;
#106 = CIRCLE ( 'NONE', #105, 6.636303513091790200 ) ;
#107 = DIRECTION ( 'NONE',  ( 0.0000000000000000000, 0.0000000000000000000, 1.000000000000000000 ) ) ;
#108 = DIRECTION ( 'NONE',  ( 0.0000000000000000000, 1.000000000000000000, 0.0000000000000000000 ) ) ;
#109 = CARTESIAN_POINT ( 'NONE',  ( -5.009326287108706300E-010, -0.9999999965004348100, 0.0000000000000000000 ) ) ;
#110 = AXIS2_PLACEMENT_3D ( 'NONE', #109, #108, #107 ) ;
#111 = ORIENTED_EDGE ( 'NONE', *, *, #234, .T. ) ;
#112 = ADVANCED_FACE ( 'NONE', ( #267, #257 ), #261, .F. ) ;
#113 = EDGE_LOOP ( 'NONE', ( #144, #233, #194, #195 ) ) ;
#114 = CARTESIAN_POINT ( 'NONE',  ( -5.009326287108706300E-010, 2.412507003500041800, 0.0000000000000000000 ) ) ;
#115 = CYLINDRICAL_SURFACE ( 'NONE', #193, 1.500000000000000700 ) ;
#116 = FACE_OUTER_BOUND ( 'NONE', #66, .T. ) ;
#117 = DIRECTION ( 'NONE',  ( 0.0000000000000000000, -0.9893591353648532000, -0.1454939904948313600 ) ) ;
#118 = VECTOR ( 'NONE', #117, 1000.000000000000000 ) ;
#119 = LINE ( 'NONE', #209, #118 ) ;
#120 = ORIENTED_EDGE ( 'NONE', *, *, #48, .T. ) ;
#121 = ORIENTED_EDGE ( 'NONE', *, *, #69, .T. ) ;
#122 = CARTESIAN_POINT ( 'NONE',  ( -5.009326287108706300E-010, -7.999999996500434900, 1.500000000000000200 ) ) ;
#123 = DIRECTION ( 'NONE',  ( 0.0000000000000000000, 0.0000000000000000000, 1.000000000000000000 ) ) ;
#124 = DIRECTION ( 'NONE',  ( 0.0000000000000000000, 1.000000000000000000, 0.0000000000000000000 ) ) ;
#125 = CARTESIAN_POINT ( 'NONE',  ( -5.009326287108706300E-010, -7.999999996500434900, 0.0000000000000000000 ) ) ;
#126 = AXIS2_PLACEMENT_3D ( 'NONE', #125, #124, #123 ) ;
#127 = CIRCLE ( 'NONE', #126, 1.500000000000000200 ) ;
#128 = CARTESIAN_POINT ( 'NONE',  ( -5.009326287108706300E-010, 2.412507003500041800, 0.0000000000000000000 ) ) ;
#129 = FACE_OUTER_BOUND ( 'NONE', #2, .T. ) ;
#130 = CLOSED_SHELL ( 'NONE', ( #50, #49, #65, #29, #4, #39, #1, #112, #223, #98, #100 ) ) ;
#131 = ORIENTED_EDGE ( 'NONE', *, *, #196, .F. ) ;
#132 = EDGE_LOOP ( 'NONE', ( #131, #102 ) ) ;
#133 = DIRECTION ( 'NONE',  ( 0.0000000000000000000, 0.0000000000000000000, 1.000000000000000000 ) ) ;
#134 = DIRECTION ( 'NONE',  ( 0.0000000000000000000, 1.000000000000000000, 0.0000000000000000000 ) ) ;
#135 = CIRCLE ( 'NONE', #149, 3.500000000000000400 ) ;
#136 = CARTESIAN_POINT ( 'NONE',  ( -5.009326287108706300E-010, 3.499565220943523500E-009, 6.636303513091790200 ) ) ;
#137 = DIRECTION ( 'NONE',  ( 0.0000000000000000000, 0.0000000000000000000, 1.000000000000000000 ) ) ;
#138 = CARTESIAN_POINT ( 'NONE',  ( -5.009326287108706300E-010, -0.8545060060056036700, 0.0000000000000000000 ) ) ;
#139 = AXIS2_PLACEMENT_3D ( 'NONE', #138, #231, #230 ) ;
#140 = CIRCLE ( 'NONE', #139, 7.625662648456642300 ) ;
#141 = ORIENTED_EDGE ( 'NONE', *, *, #56, .F. ) ;
#142 = ORIENTED_EDGE ( 'NONE', *, *, #246, .T. ) ;
#143 = ORIENTED_EDGE ( 'NONE', *, *, #18, .F. ) ;
#144 = ORIENTED_EDGE ( 'NONE', *, *, #75, .F. ) ;
#145 = CARTESIAN_POINT ( 'NONE',  ( -5.009326287108706300E-010, 3.499565220943523500E-009, 0.0000000000000000000 ) ) ;
#146 = AXIS2_PLACEMENT_3D ( 'NONE', #145, #229, #228 ) ;
#147 = CIRCLE ( 'NONE', #146, 6.636303513091790200 ) ;
#148 = CARTESIAN_POINT ( 'NONE',  ( -5.009326287108706300E-010, -7.999999996500434900, 0.0000000000000000000 ) ) ;
#149 = AXIS2_PLACEMENT_3D ( 'NONE', #148, #134, #133 ) ;
#150 = DIRECTION ( 'NONE',  ( 0.0000000000000000000, 0.0000000000000000000, 1.000000000000000000 ) ) ;
#151 = DIRECTION ( 'NONE',  ( 0.0000000000000000000, 1.000000000000000000, 0.0000000000000000000 ) ) ;
#152 = CARTESIAN_POINT ( 'NONE',  ( -5.009326287108706300E-010, -16.99999999650043500, 0.0000000000000000000 ) ) ;
#153 = AXIS2_PLACEMENT_3D ( 'NONE', #152, #151, #150 ) ;
#154 = CIRCLE ( 'NONE', #153, 1.500000000000001100 ) ;
#155 = ORIENTED_EDGE ( 'NONE', *, *, #246, .F. ) ;
#156 = ORIENTED_EDGE ( 'NONE', *, *, #62, .F. ) ;
#157 = CARTESIAN_POINT ( 'NONE',  ( -5.009322000986467900E-010, -7.999999996500434900, -3.500000000000000400 ) ) ;
#158 = DIRECTION ( 'NONE',  ( 0.0000000000000000000, 0.0000000000000000000, 1.000000000000000000 ) ) ;
#159 = DIRECTION ( 'NONE',  ( 0.0000000000000000000, 1.000000000000000000, 0.0000000000000000000 ) ) ;
#160 = CARTESIAN_POINT ( 'NONE',  ( -5.009326287108706300E-010, -7.999999996500434900, 0.0000000000000000000 ) ) ;
#161 = AXIS2_PLACEMENT_3D ( 'NONE', #160, #159, #158 ) ;
#162 = CIRCLE ( 'NONE', #161, 3.500000000000000400 ) ;
#163 = CARTESIAN_POINT ( 'NONE',  ( -5.009322000986467900E-010, 3.499565220943523500E-009, -3.500000000000000000 ) ) ;
#164 = DIRECTION ( 'NONE',  ( 0.0000000000000000000, 1.000000000000000000, 0.0000000000000000000 ) ) ;
#165 = VECTOR ( 'NONE', #164, 1000.000000000000000 ) ;
#166 = CARTESIAN_POINT ( 'NONE',  ( -5.009322000986467900E-010, 2.412507003500041800, -3.500000000000000400 ) ) ;
#167 = CARTESIAN_POINT ( 'NONE',  ( -5.009314041045168100E-010, -16.99999999650043500, 10.00000000000000000 ) ) ;
#168 = DIRECTION ( 'NONE',  ( 1.781728652029430300E-017, -0.9893591353648532000, 0.1454939904948313600 ) ) ;
#169 = AXIS2_PLACEMENT_3D ( 'NONE', #87, #254, #253 ) ;
#170 = CIRCLE ( 'NONE', #169, 1.000000000000000000 ) ;
#171 = LINE ( 'NONE', #166, #165 ) ;
#172 = DIRECTION ( 'NONE',  ( 0.0000000000000000000, 0.0000000000000000000, 1.000000000000000000 ) ) ;
#173 = DIRECTION ( 'NONE',  ( 0.0000000000000000000, 1.000000000000000000, 0.0000000000000000000 ) ) ;
#174 = CARTESIAN_POINT ( 'NONE',  ( -5.009326287108706300E-010, -16.99999999650043500, 0.0000000000000000000 ) ) ;
#175 = AXIS2_PLACEMENT_3D ( 'NONE', #174, #173, #172 ) ;
#176 = CIRCLE ( 'NONE', #175, 10.00000000000000000 ) ;
#177 = CARTESIAN_POINT ( 'NONE',  ( -5.009317554461516600E-010, 3.499565220943523500E-009, -6.636303513091790200 ) ) ;
#178 = TOROIDAL_SURFACE ( 'NONE', #110, 6.636303513091790200, 0.9999999999999995600 ) ;
#179 = DIRECTION ( 'NONE',  ( 0.0000000000000000000, 0.0000000000000000000, 1.000000000000000000 ) ) ;
#180 = DIRECTION ( 'NONE',  ( -1.000000000000000000, 0.0000000000000000000, 0.0000000000000000000 ) ) ;
#181 = AXIS2_PLACEMENT_3D ( 'NONE', #185, #180, #179 ) ;
#182 = CIRCLE ( 'NONE', #181, 1.000000000000000000 ) ;
#183 = FACE_OUTER_BOUND ( 'NONE', #10, .T. ) ;
#184 = FACE_OUTER_BOUND ( 'NONE', #51, .T. ) ;
#185 = CARTESIAN_POINT ( 'NONE',  ( -5.009326287108706300E-010, -0.9999999965004348100, 6.636303513091790200 ) ) ;
#186 = DIRECTION ( 'NONE',  ( 0.0000000000000000000, 0.0000000000000000000, 1.000000000000000000 ) ) ;
#187 = DIRECTION ( 'NONE',  ( 0.0000000000000000000, 1.000000000000000000, 0.0000000000000000000 ) ) ;
#188 = AXIS2_PLACEMENT_3D ( 'NONE', #128, #187, #186 ) ;
#189 = CYLINDRICAL_SURFACE ( 'NONE', #188, 3.500000000000000400 ) ;
#190 = CONICAL_SURFACE ( 'NONE', #216, 10.00000000000000000, 0.1460122577112754100 ) ;
#191 = DIRECTION ( 'NONE',  ( 0.0000000000000000000, 0.0000000000000000000, 1.000000000000000000 ) ) ;
#192 = DIRECTION ( 'NONE',  ( 0.0000000000000000000, 1.000000000000000000, 0.0000000000000000000 ) ) ;
#193 = AXIS2_PLACEMENT_3D ( 'NONE', #114, #192, #191 ) ;
#194 = ORIENTED_EDGE ( 'NONE', *, *, #78, .T. ) ;
#195 = ORIENTED_EDGE ( 'NONE', *, *, #196, .T. ) ;
#196 = EDGE_CURVE ( 'NONE', #60, #76, #289, .T. ) ;
#197 = EDGE_LOOP ( 'NONE', ( #155, #156 ) ) ;
#198 = ORIENTED_EDGE ( 'NONE', *, *, #36, .T. ) ;
#199 = CIRCLE ( 'NONE', #208, 3.500000000000000000 ) ;
#200 = AXIS2_PLACEMENT_3D ( 'NONE', #212, #211, #210 ) ;
#201 = PLANE ( 'NONE',  #200 ) ;
#202 = CARTESIAN_POINT ( 'NONE',  ( -5.009326287108706300E-010, 3.499565220943523500E-009, 0.0000000000000000000 ) ) ;
#203 = FACE_OUTER_BOUND ( 'NONE', #40, .T. ) ;
#204 = FACE_BOUND ( 'NONE', #46, .T. ) ;
#205 = CARTESIAN_POINT ( 'NONE',  ( -5.009326287108706300E-010, -7.999999996500434900, 3.500000000000000400 ) ) ;
#206 = DIRECTION ( 'NONE',  ( 0.0000000000000000000, 0.0000000000000000000, 1.000000000000000000 ) ) ;
#207 = DIRECTION ( 'NONE',  ( 0.0000000000000000000, 1.000000000000000000, 0.0000000000000000000 ) ) ;
#208 = AXIS2_PLACEMENT_3D ( 'NONE', #202, #207, #206 ) ;
#209 = CARTESIAN_POINT ( 'NONE',  ( -5.009326287108706300E-010, -16.99999999650043500, -10.00000000000000000 ) ) ;
#210 = DIRECTION ( 'NONE',  ( 0.0000000000000000000, 0.0000000000000000000, -1.000000000000000000 ) ) ;
#211 = DIRECTION ( 'NONE',  ( 0.0000000000000000000, -1.000000000000000000, 0.0000000000000000000 ) ) ;
#212 = CARTESIAN_POINT ( 'NONE',  ( 6.636303512590857600, 3.499565220943523500E-009, 0.0000000000000000000 ) ) ;
#213 = DIRECTION ( 'NONE',  ( 0.0000000000000000000, 0.0000000000000000000, -1.000000000000000000 ) ) ;
#214 = DIRECTION ( 'NONE',  ( 0.0000000000000000000, -1.000000000000000000, 0.0000000000000000000 ) ) ;
#215 = CARTESIAN_POINT ( 'NONE',  ( -5.009326287108706300E-010, -16.99999999650043500, 0.0000000000000000000 ) ) ;
#216 = AXIS2_PLACEMENT_3D ( 'NONE', #215, #214, #213 ) ;
#217 = CARTESIAN_POINT ( 'NONE',  ( -5.009326287108706300E-010, -0.8545060060056036700, 7.625662648456642300 ) ) ;
#218 = ORIENTED_EDGE ( 'NONE', *, *, #14, .T. ) ;
#219 = CARTESIAN_POINT ( 'NONE',  ( -5.009326287108706300E-010, -0.8545060060056036700, 0.0000000000000000000 ) ) ;
#220 = AXIS2_PLACEMENT_3D ( 'NONE', #219, #97, #96 ) ;
#221 = CIRCLE ( 'NONE', #220, 7.625662648456642300 ) ;
#222 = CARTESIAN_POINT ( 'NONE',  ( -5.009326287108706300E-010, -16.99999999650043500, 1.500000000000001100 ) ) ;
#223 = ADVANCED_FACE ( 'NONE', ( #290 ), #282, .F. ) ;
#224 = DIRECTION ( 'NONE',  ( 0.0000000000000000000, 1.000000000000000000, 0.0000000000000000000 ) ) ;
#225 = VECTOR ( 'NONE', #224, 1000.000000000000000 ) ;
#226 = CARTESIAN_POINT ( 'NONE',  ( -5.009326287108706300E-010, 2.412507003500041800, 3.500000000000000400 ) ) ;
#227 = LINE ( 'NONE', #226, #225 ) ;
#228 = DIRECTION ( 'NONE',  ( 0.0000000000000000000, 0.0000000000000000000, 1.000000000000000000 ) ) ;
#229 = DIRECTION ( 'NONE',  ( 0.0000000000000000000, 1.000000000000000000, 0.0000000000000000000 ) ) ;
#230 = DIRECTION ( 'NONE',  ( 0.0000000000000000000, 0.0000000000000000000, 1.000000000000000000 ) ) ;
#231 = DIRECTION ( 'NONE',  ( 0.0000000000000000000, 1.000000000000000000, 0.0000000000000000000 ) ) ;
#232 = ORIENTED_EDGE ( 'NONE', *, *, #43, .T. ) ;
#233 = ORIENTED_EDGE ( 'NONE', *, *, #234, .F. ) ;
#234 = EDGE_CURVE ( 'NONE', #70, #68, #278, .T. ) ;
#235 = VECTOR ( 'NONE', #168, 1000.000000000000000 ) ;
#236 = CARTESIAN_POINT ( 'NONE',  ( -5.009314041045168100E-010, -16.99999999650043500, 10.00000000000000000 ) ) ;
#237 = LINE ( 'NONE', #236, #235 ) ;
#238 = DIRECTION ( 'NONE',  ( 0.0000000000000000000, 0.0000000000000000000, 1.000000000000000000 ) ) ;
#239 = CARTESIAN_POINT ( 'NONE',  ( 0.0000000000000000000, 0.0000000000000000000, 0.0000000000000000000 ) ) ;
#240 = AXIS2_PLACEMENT_3D ( 'NONE', #239, #238, #41 ) ;
#241 = EDGE_LOOP ( 'NONE', ( #111, #121 ) ) ;
#242 = CARTESIAN_POINT ( 'NONE',  ( -5.009326287108706300E-010, 2.412507003500041800, 0.0000000000000000000 ) ) ;
#243 = CYLINDRICAL_SURFACE ( 'NONE', #82, 3.500000000000000400 ) ;
#244 = FACE_OUTER_BOUND ( 'NONE', #27, .T. ) ;
#245 = CARTESIAN_POINT ( 'NONE',  ( -5.009326287108706300E-010, -16.99999999650043500, -10.00000000000000000 ) ) ;
#246 = EDGE_CURVE ( 'NONE', #63, #57, #299, .T. ) ;
#247 = CARTESIAN_POINT ( 'NONE',  ( -5.009326287108706300E-010, -0.9999999965004348100, 0.0000000000000000000 ) ) ;
#248 = TOROIDAL_SURFACE ( 'NONE', #90, 6.636303513091790200, 0.9999999999999995600 ) ;
#249 = DIRECTION ( 'NONE',  ( 0.0000000000000000000, 1.000000000000000000, 0.0000000000000000000 ) ) ;
#250 = CARTESIAN_POINT ( 'NONE',  ( -5.009326287108706300E-010, 3.499565220943523500E-009, 0.0000000000000000000 ) ) ;
#251 = AXIS2_PLACEMENT_3D ( 'NONE', #250, #249, #92 ) ;
#252 = CIRCLE ( 'NONE', #251, 3.500000000000000000 ) ;
#253 = DIRECTION ( 'NONE',  ( 1.224606353612350900E-016, 0.0000000000000000000, -1.000000000000000000 ) ) ;
#254 = DIRECTION ( 'NONE',  ( 1.000000000000000000, 0.0000000000000000000, 1.224606353822377300E-016 ) ) ;
#255 = VECTOR ( 'NONE', #287, 1000.000000000000000 ) ;
#256 = AXIS2_PLACEMENT_3D ( 'NONE', #274, #265, #264 ) ;
#257 = FACE_OUTER_BOUND ( 'NONE', #53, .T. ) ;
#258 = DIRECTION ( 'NONE',  ( 0.0000000000000000000, -1.000000000000000000, 0.0000000000000000000 ) ) ;
#259 = CARTESIAN_POINT ( 'NONE',  ( 3.499999999499067800, -7.999999996500434900, 0.0000000000000000000 ) ) ;
#260 = AXIS2_PLACEMENT_3D ( 'NONE', #259, #258, #291 ) ;
#261 = PLANE ( 'NONE',  #260 ) ;
#262 = CARTESIAN_POINT ( 'NONE',  ( -5.009326287108706300E-010, -7.999999996500434900, 0.0000000000000000000 ) ) ;
#263 = CONICAL_SURFACE ( 'NONE', #271, 10.00000000000000000, 0.1460122577112754100 ) ;
#264 = DIRECTION ( 'NONE',  ( 0.0000000000000000000, 0.0000000000000000000, 1.000000000000000000 ) ) ;
#265 = DIRECTION ( 'NONE',  ( 0.0000000000000000000, 1.000000000000000000, 0.0000000000000000000 ) ) ;
#266 = PLANE ( 'NONE',  #256 ) ;
#267 = FACE_BOUND ( 'NONE', #132, .T. ) ;
#268 = DIRECTION ( 'NONE',  ( 0.0000000000000000000, 0.0000000000000000000, -1.000000000000000000 ) ) ;
#269 = DIRECTION ( 'NONE',  ( 0.0000000000000000000, -1.000000000000000000, 0.0000000000000000000 ) ) ;
#270 = CARTESIAN_POINT ( 'NONE',  ( -5.009326287108706300E-010, -16.99999999650043500, 0.0000000000000000000 ) ) ;
#271 = AXIS2_PLACEMENT_3D ( 'NONE', #270, #269, #268 ) ;
#272 = CARTESIAN_POINT ( 'NONE',  ( -5.009326287108706300E-010, 2.412507003500041800, 1.500000000000000700 ) ) ;
#273 = FACE_OUTER_BOUND ( 'NONE', #197, .T. ) ;
#274 = CARTESIAN_POINT ( 'NONE',  ( 1.499999999499068500, -16.99999999650043500, 0.0000000000000000000 ) ) ;
#275 = FACE_OUTER_BOUND ( 'NONE', #101, .T. ) ;
#276 = LINE ( 'NONE', #272, #255 ) ;
#277 = AXIS2_PLACEMENT_3D ( 'NONE', #84, #298, #292 ) ;
#278 = CIRCLE ( 'NONE', #277, 1.500000000000001100 ) ;
#279 = DIRECTION ( 'NONE',  ( 0.0000000000000000000, 0.0000000000000000000, 1.000000000000000000 ) ) ;
#280 = DIRECTION ( 'NONE',  ( 0.0000000000000000000, 1.000000000000000000, 0.0000000000000000000 ) ) ;
#281 = AXIS2_PLACEMENT_3D ( 'NONE', #283, #280, #279 ) ;
#282 = CYLINDRICAL_SURFACE ( 'NONE', #281, 1.500000000000000700 ) ;
#283 = CARTESIAN_POINT ( 'NONE',  ( -5.009326287108706300E-010, 2.412507003500041800, 0.0000000000000000000 ) ) ;
#284 = DIRECTION ( 'NONE',  ( 0.0000000000000000000, 0.0000000000000000000, 1.000000000000000000 ) ) ;
#285 = DIRECTION ( 'NONE',  ( 0.0000000000000000000, 1.000000000000000000, 0.0000000000000000000 ) ) ;
#286 = FACE_BOUND ( 'NONE', #241, .T. ) ;
#287 = DIRECTION ( 'NONE',  ( 0.0000000000000000000, 1.000000000000000000, 0.0000000000000000000 ) ) ;
#288 = AXIS2_PLACEMENT_3D ( 'NONE', #262, #285, #284 ) ;
#289 = CIRCLE ( 'NONE', #288, 1.500000000000000200 ) ;
#290 = FACE_OUTER_BOUND ( 'NONE', #113, .T. ) ;
#291 = DIRECTION ( 'NONE',  ( 0.0000000000000000000, 0.0000000000000000000, -1.000000000000000000 ) ) ;
#292 = DIRECTION ( 'NONE',  ( 0.0000000000000000000, 0.0000000000000000000, 1.000000000000000000 ) ) ;
#293 = DIRECTION ( 'NONE',  ( 0.0000000000000000000, 0.0000000000000000000, 1.000000000000000000 ) ) ;
#294 = ADVANCED_BREP_SHAPE_REPRESENTATION ( 'C-30-RK-2017-ÃÞÌ«ÙÄ', ( #54, #240 ), #295 ) ;
#295 =( GEOMETRIC_REPRESENTATION_CONTEXT ( 3 ) GLOBAL_UNCERTAINTY_ASSIGNED_CONTEXT ( ( #304 ) ) GLOBAL_UNIT_ASSIGNED_CONTEXT ( ( #303, #302, #297 ) ) REPRESENTATION_CONTEXT ( 'NONE', 'WORKASPACE' ) );
#296 = AXIS2_PLACEMENT_3D ( 'NONE', #301, #300, #293 ) ;
#297 =( NAMED_UNIT ( * ) SI_UNIT ( $, .STERADIAN. ) SOLID_ANGLE_UNIT ( ) );
#298 = DIRECTION ( 'NONE',  ( 0.0000000000000000000, 1.000000000000000000, 0.0000000000000000000 ) ) ;
#299 = CIRCLE ( 'NONE', #296, 10.00000000000000000 ) ;
#300 = DIRECTION ( 'NONE',  ( 0.0000000000000000000, 1.000000000000000000, 0.0000000000000000000 ) ) ;
#301 = CARTESIAN_POINT ( 'NONE',  ( -5.009326287108706300E-010, -16.99999999650043500, 0.0000000000000000000 ) ) ;
#302 =( NAMED_UNIT ( * ) PLANE_ANGLE_UNIT ( ) SI_UNIT ( $, .RADIAN. ) );
#303 =( LENGTH_UNIT ( ) NAMED_UNIT ( * ) SI_UNIT ( .MILLI., .METRE. ) );
#304 = UNCERTAINTY_MEASURE_WITH_UNIT (LENGTH_MEASURE( 1.000000000000000100E-005 ), #303, 'distance_accuracy_value', 'NONE');
#305 = PRODUCT_DEFINITION_SHAPE ( 'NONE', 'NONE',  #380 ) ;
#306 = PRODUCT_RELATED_PRODUCT_CATEGORY ( 'detail', '', ( #340 ) ) ;
#307 = CC_DESIGN_SECURITY_CLASSIFICATION ( #328, ( #359 ) ) ;
#308 = CC_DESIGN_APPROVAL ( #316, ( #328 ) ) ;
#309 = APPROVAL_DATE_TIME ( #310, #316 ) ;
#310 = DATE_AND_TIME ( #311, #312 ) ;
#311 = CALENDAR_DATE ( 2009, 29, 6 ) ;
#312 = LOCAL_TIME ( 11, 43, 15.00000000000000000, #313 ) ;
#313 = COORDINATED_UNIVERSAL_TIME_OFFSET ( 9, 0, .AHEAD. ) ;
#314 = APPROVAL_PERSON_ORGANIZATION ( #318, #316, #315 ) ;
#315 = APPROVAL_ROLE ( '' ) ;
#316 = APPROVAL ( #317, 'UNSPECIFIED' ) ;
#317 = APPROVAL_STATUS ( 'not_yet_approved' ) ;
#318 = PERSON_AND_ORGANIZATION ( #339, #338 ) ;
#319 = CC_DESIGN_DATE_AND_TIME_ASSIGNMENT ( #321, #320, ( #328 ) ) ;
#320 = DATE_TIME_ROLE ( 'classification_date' ) ;
#321 = DATE_AND_TIME ( #322, #323 ) ;
#322 = CALENDAR_DATE ( 2009, 29, 6 ) ;
#323 = LOCAL_TIME ( 11, 43, 15.00000000000000000, #324 ) ;
#324 = COORDINATED_UNIVERSAL_TIME_OFFSET ( 9, 0, .AHEAD. ) ;
#325 = CC_DESIGN_PERSON_AND_ORGANIZATION_ASSIGNMENT ( #327, #326, ( #328 ) ) ;
#326 = PERSON_AND_ORGANIZATION_ROLE ( 'classification_officer' ) ;
#327 = PERSON_AND_ORGANIZATION ( #339, #338 ) ;
#328 = SECURITY_CLASSIFICATION ( '', '', #329 ) ;
#329 = SECURITY_CLASSIFICATION_LEVEL ( 'unclassified' ) ;
#330 = CC_DESIGN_PERSON_AND_ORGANIZATION_ASSIGNMENT ( #344, #331, ( #359 ) ) ;
#331 = PERSON_AND_ORGANIZATION_ROLE ( 'design_supplier' ) ;
#332 = APPLICATION_PROTOCOL_DEFINITION ( 'international standard', 'config_control_design', 1994, #333 ) ;
#333 = APPLICATION_CONTEXT ( 'configuration controlled 3d designs of mechanical parts and assemblies' ) ;
#334 = SHAPE_DEFINITION_REPRESENTATION ( #305, #294 ) ;
#335 = CC_DESIGN_PERSON_AND_ORGANIZATION_ASSIGNMENT ( #337, #336, ( #340 ) ) ;
#336 = PERSON_AND_ORGANIZATION_ROLE ( 'design_owner' ) ;
#337 = PERSON_AND_ORGANIZATION ( #339, #338 ) ;
#338 = ORGANIZATION ( 'UNSPECIFIED', 'UNSPECIFIED', '' ) ;
#339 = PERSON ( 'UNSPECIFIED', 'UNSPECIFIED', 'UNSPECIFIED', ('UNSPECIFIED'), ('UNSPECIFIED'), ('UNSPECIFIED') ) ;
#340 = PRODUCT ( 'C-30-RK-2017-ÃÞÌ«ÙÄ', 'C-30-RK-2017-ÃÞÌ«ÙÄ', '', ( #341 ) ) ;
#341 = MECHANICAL_CONTEXT ( 'NONE', #343, 'mechanical' ) ;
#342 = APPLICATION_PROTOCOL_DEFINITION ( 'international standard', 'config_control_design', 1994, #343 ) ;
#343 = APPLICATION_CONTEXT ( 'configuration controlled 3d designs of mechanical parts and assemblies' ) ;
#344 = PERSON_AND_ORGANIZATION ( #339, #338 ) ;
#345 = CC_DESIGN_PERSON_AND_ORGANIZATION_ASSIGNMENT ( #347, #346, ( #359 ) ) ;
#346 = PERSON_AND_ORGANIZATION_ROLE ( 'creator' ) ;
#347 = PERSON_AND_ORGANIZATION ( #339, #338 ) ;
#348 = CC_DESIGN_APPROVAL ( #356, ( #359 ) ) ;
#349 = APPROVAL_DATE_TIME ( #350, #356 ) ;
#350 = DATE_AND_TIME ( #351, #352 ) ;
#351 = CALENDAR_DATE ( 2009, 29, 6 ) ;
#352 = LOCAL_TIME ( 11, 43, 15.00000000000000000, #353 ) ;
#353 = COORDINATED_UNIVERSAL_TIME_OFFSET ( 9, 0, .AHEAD. ) ;
#354 = APPROVAL_PERSON_ORGANIZATION ( #358, #356, #355 ) ;
#355 = APPROVAL_ROLE ( '' ) ;
#356 = APPROVAL ( #357, 'UNSPECIFIED' ) ;
#357 = APPROVAL_STATUS ( 'not_yet_approved' ) ;
#358 = PERSON_AND_ORGANIZATION ( #339, #338 ) ;
#359 = PRODUCT_DEFINITION_FORMATION_WITH_SPECIFIED_SOURCE ( 'ANY', '', #340, .NOT_KNOWN. ) ;
#360 = CC_DESIGN_DATE_AND_TIME_ASSIGNMENT ( #362, #361, ( #380 ) ) ;
#361 = DATE_TIME_ROLE ( 'creation_date' ) ;
#362 = DATE_AND_TIME ( #363, #364 ) ;
#363 = CALENDAR_DATE ( 2009, 29, 6 ) ;
#364 = LOCAL_TIME ( 11, 43, 15.00000000000000000, #365 ) ;
#365 = COORDINATED_UNIVERSAL_TIME_OFFSET ( 9, 0, .AHEAD. ) ;
#366 = CC_DESIGN_PERSON_AND_ORGANIZATION_ASSIGNMENT ( #368, #367, ( #380 ) ) ;
#367 = PERSON_AND_ORGANIZATION_ROLE ( 'creator' ) ;
#368 = PERSON_AND_ORGANIZATION ( #339, #338 ) ;
#369 = CC_DESIGN_APPROVAL ( #377, ( #380 ) ) ;
#370 = APPROVAL_DATE_TIME ( #371, #377 ) ;
#371 = DATE_AND_TIME ( #372, #373 ) ;
#372 = CALENDAR_DATE ( 2009, 29, 6 ) ;
#373 = LOCAL_TIME ( 11, 43, 15.00000000000000000, #374 ) ;
#374 = COORDINATED_UNIVERSAL_TIME_OFFSET ( 9, 0, .AHEAD. ) ;
#375 = APPROVAL_PERSON_ORGANIZATION ( #379, #377, #376 ) ;
#376 = APPROVAL_ROLE ( '' ) ;
#377 = APPROVAL ( #378, 'UNSPECIFIED' ) ;
#378 = APPROVAL_STATUS ( 'not_yet_approved' ) ;
#379 = PERSON_AND_ORGANIZATION ( #339, #338 ) ;
#380 = PRODUCT_DEFINITION ( 'UNKNOWN', '', #359, #381 ) ;
#381 = DESIGN_CONTEXT ( 'detailed design', #333, 'design' ) ;
ENDSEC;
END-ISO-10303-21;
