ISO-10303-21;
HEADER;
FILE_DESCRIPTION (( 'STEP AP203' ),
    '1' );
FILE_NAME ('C-30-RK-2017-gray.STEP',
    '2009-06-29T02:42:13',
    ( '11sw' ),
    ( '^LQ»¢®ïÐ' ),
    'SwSTEP 2.0',
    'SolidWorks 2007',
    '' );
FILE_SCHEMA (( 'CONFIG_CONTROL_DESIGN' ));
ENDSEC;

DATA;
#1 = VERTEX_POINT ( 'NONE', #214 ) ;
#2 = EDGE_CURVE ( 'NONE', #8, #1, #213, .T. ) ;
#3 = EDGE_LOOP ( 'NONE', ( #181, #20, #23, #240 ) ) ;
#4 = ADVANCED_FACE ( 'NONE', ( #209 ), #207, .F. ) ;
#5 = ORIENTED_EDGE ( 'NONE', *, *, #2, .T. ) ;
#6 = ORIENTED_EDGE ( 'NONE', *, *, #7, .F. ) ;
#7 = EDGE_CURVE ( 'NONE', #8, #11, #202, .T. ) ;
#8 = VERTEX_POINT ( 'NONE', #198 ) ;
#9 = VERTEX_POINT ( 'NONE', #197 ) ;
#10 = MANIFOLD_SOLID_BREP ( 'NONE', #273 ) ;
#11 = VERTEX_POINT ( 'NONE', #196 ) ;
#12 = ADVANCED_FACE ( 'NONE', ( #195 ), #193, .T. ) ;
#13 = EDGE_CURVE ( 'NONE', #9, #14, #64, .T. ) ;
#14 = VERTEX_POINT ( 'NONE', #60 ) ;
#15 = EDGE_LOOP ( 'NONE', ( #6, #5, #186, #187 ) ) ;
#16 = EDGE_LOOP ( 'NONE', ( #144, #145, #152, #147 ) ) ;
#17 = VERTEX_POINT ( 'NONE', #59 ) ;
#18 = EDGE_CURVE ( 'NONE', #9, #17, #58, .T. ) ;
#19 = ORIENTED_EDGE ( 'NONE', *, *, #18, .T. ) ;
#20 = ORIENTED_EDGE ( 'NONE', *, *, #21, .T. ) ;
#21 = EDGE_CURVE ( 'NONE', #245, #22, #54, .T. ) ;
#22 = VERTEX_POINT ( 'NONE', #50 ) ;
#23 = ORIENTED_EDGE ( 'NONE', *, *, #24, .T. ) ;
#24 = EDGE_CURVE ( 'NONE', #22, #25, #264, .T. ) ;
#25 = VERTEX_POINT ( 'NONE', #259 ) ;
#26 = DIRECTION ( 'NONE',  ( 0.0000000000000000000, 1.000000000000000000, 0.0000000000000000000 ) ) ;
#27 = CARTESIAN_POINT ( 'NONE',  ( -5.009326287108706300E-010, -16.99999999650043500, 0.0000000000000000000 ) ) ;
#28 = AXIS2_PLACEMENT_3D ( 'NONE', #27, #26, #180 ) ;
#29 = CIRCLE ( 'NONE', #28, 10.00000000000000000 ) ;
#30 = DIRECTION ( 'NONE',  ( 0.0000000000000000000, 0.0000000000000000000, 1.000000000000000000 ) ) ;
#31 = DIRECTION ( 'NONE',  ( 0.0000000000000000000, 1.000000000000000000, 0.0000000000000000000 ) ) ;
#32 = CARTESIAN_POINT ( 'NONE',  ( 1.499999999499068500, -16.99999999650043500, 0.0000000000000000000 ) ) ;
#33 = AXIS2_PLACEMENT_3D ( 'NONE', #32, #31, #30 ) ;
#34 = PLANE ( 'NONE',  #33 ) ;
#35 = FACE_BOUND ( 'NONE', #270, .T. ) ;
#36 = FACE_OUTER_BOUND ( 'NONE', #115, .T. ) ;
#37 = CARTESIAN_POINT ( 'NONE',  ( -5.009326287108706300E-010, 3.499565220943523500E-009, 3.500000000000000000 ) ) ;
#38 = DIRECTION ( 'NONE',  ( 0.0000000000000000000, 0.0000000000000000000, 1.000000000000000000 ) ) ;
#39 = DIRECTION ( 'NONE',  ( 0.0000000000000000000, 1.000000000000000000, 0.0000000000000000000 ) ) ;
#40 = CARTESIAN_POINT ( 'NONE',  ( -5.009326287108706300E-010, 3.499565220943523500E-009, 0.0000000000000000000 ) ) ;
#41 = AXIS2_PLACEMENT_3D ( 'NONE', #40, #39, #38 ) ;
#42 = CIRCLE ( 'NONE', #41, 3.500000000000000000 ) ;
#43 = DIRECTION ( 'NONE',  ( 0.0000000000000000000, 1.000000000000000000, 0.0000000000000000000 ) ) ;
#44 = VECTOR ( 'NONE', #43, 1000.000000000000000 ) ;
#45 = CARTESIAN_POINT ( 'NONE',  ( -5.009326287108706300E-010, 2.412507003500041800, 3.500000000000000400 ) ) ;
#46 = LINE ( 'NONE', #45, #44 ) ;
#47 = DIRECTION ( 'NONE',  ( 0.0000000000000000000, 0.0000000000000000000, 1.000000000000000000 ) ) ;
#48 = AXIS2_PLACEMENT_3D ( 'NONE', #215, #216, #47 ) ;
#49 = TOROIDAL_SURFACE ( 'NONE', #48, 6.636303513091790200, 0.9999999999999995600 ) ;
#50 = CARTESIAN_POINT ( 'NONE',  ( -5.009324450199175600E-010, -7.999999996500434900, -1.500000000000000200 ) ) ;
#51 = DIRECTION ( 'NONE',  ( 0.0000000000000000000, 1.000000000000000000, 0.0000000000000000000 ) ) ;
#52 = VECTOR ( 'NONE', #51, 1000.000000000000000 ) ;
#53 = CARTESIAN_POINT ( 'NONE',  ( -5.009324450199175600E-010, 2.412507003500041800, -1.500000000000000700 ) ) ;
#54 = LINE ( 'NONE', #53, #52 ) ;
#55 = DIRECTION ( 'NONE',  ( 0.0000000000000000000, 1.000000000000000000, 0.0000000000000000000 ) ) ;
#56 = VECTOR ( 'NONE', #55, 1000.000000000000000 ) ;
#57 = CARTESIAN_POINT ( 'NONE',  ( -5.009322000986467900E-010, 2.412507003500041800, -3.500000000000000400 ) ) ;
#58 = LINE ( 'NONE', #57, #56 ) ;
#59 = CARTESIAN_POINT ( 'NONE',  ( -5.009322000986467900E-010, 3.499565220943523500E-009, -3.500000000000000000 ) ) ;
#60 = CARTESIAN_POINT ( 'NONE',  ( -5.009326287108706300E-010, -7.999999996500434900, 3.500000000000000400 ) ) ;
#61 = DIRECTION ( 'NONE',  ( 0.0000000000000000000, 0.0000000000000000000, 1.000000000000000000 ) ) ;
#62 = DIRECTION ( 'NONE',  ( 0.0000000000000000000, 1.000000000000000000, 0.0000000000000000000 ) ) ;
#63 = AXIS2_PLACEMENT_3D ( 'NONE', #189, #62, #61 ) ;
#64 = CIRCLE ( 'NONE', #63, 3.500000000000000400 ) ;
#65 = EDGE_CURVE ( 'NONE', #73, #71, #258, .T. ) ;
#66 = ADVANCED_FACE ( 'NONE', ( #253, #252 ), #251, .F. ) ;
#67 = ORIENTED_EDGE ( 'NONE', *, *, #68, .F. ) ;
#68 = EDGE_CURVE ( 'NONE', #8, #71, #246, .T. ) ;
#69 = ADVANCED_FACE ( 'NONE', ( #235 ), #234, .T. ) ;
#70 = ORIENTED_EDGE ( 'NONE', *, *, #75, .T. ) ;
#71 = VERTEX_POINT ( 'NONE', #229 ) ;
#72 = EDGE_CURVE ( 'NONE', #11, #73, #228, .T. ) ;
#73 = VERTEX_POINT ( 'NONE', #223 ) ;
#74 = ORIENTED_EDGE ( 'NONE', *, *, #75, .F. ) ;
#75 = EDGE_CURVE ( 'NONE', #71, #73, #221, .T. ) ;
#76 = ORIENTED_EDGE ( 'NONE', *, *, #72, .T. ) ;
#77 = ADVANCED_FACE ( 'NONE', ( #222 ), #49, .T. ) ;
#78 = EDGE_CURVE ( 'NONE', #14, #84, #46, .T. ) ;
#79 = ORIENTED_EDGE ( 'NONE', *, *, #7, .T. ) ;
#80 = ORIENTED_EDGE ( 'NONE', *, *, #78, .F. ) ;
#81 = EDGE_LOOP ( 'NONE', ( #79, #76, #74, #67 ) ) ;
#82 = EDGE_CURVE ( 'NONE', #17, #84, #42, .T. ) ;
#83 = ORIENTED_EDGE ( 'NONE', *, *, #82, .T. ) ;
#84 = VERTEX_POINT ( 'NONE', #37 ) ;
#85 = CARTESIAN_POINT ( 'NONE',  ( -5.009326287108706300E-010, -16.99999999650043500, -10.00000000000000000 ) ) ;
#86 = DIRECTION ( 'NONE',  ( 0.0000000000000000000, 0.0000000000000000000, 1.000000000000000000 ) ) ;
#87 = DIRECTION ( 'NONE',  ( 0.0000000000000000000, 1.000000000000000000, 0.0000000000000000000 ) ) ;
#88 = CARTESIAN_POINT ( 'NONE',  ( -5.009326287108706300E-010, -16.99999999650043500, 0.0000000000000000000 ) ) ;
#89 = AXIS2_PLACEMENT_3D ( 'NONE', #88, #87, #86 ) ;
#90 = CIRCLE ( 'NONE', #89, 10.00000000000000000 ) ;
#91 = CARTESIAN_POINT ( 'NONE',  ( -5.009326287108706300E-010, -16.99999999650043500, 1.500000000000001100 ) ) ;
#92 = DIRECTION ( 'NONE',  ( 0.0000000000000000000, 0.0000000000000000000, 1.000000000000000000 ) ) ;
#93 = DIRECTION ( 'NONE',  ( 0.0000000000000000000, 1.000000000000000000, 0.0000000000000000000 ) ) ;
#94 = CARTESIAN_POINT ( 'NONE',  ( -5.009326287108706300E-010, -16.99999999650043500, 0.0000000000000000000 ) ) ;
#95 = AXIS2_PLACEMENT_3D ( 'NONE', #94, #93, #92 ) ;
#96 = CIRCLE ( 'NONE', #95, 1.500000000000001100 ) ;
#97 = DIRECTION ( 'NONE',  ( 0.0000000000000000000, 0.0000000000000000000, 1.000000000000000000 ) ) ;
#98 = DIRECTION ( 'NONE',  ( 0.0000000000000000000, 1.000000000000000000, 0.0000000000000000000 ) ) ;
#99 = CARTESIAN_POINT ( 'NONE',  ( -5.009326287108706300E-010, 3.499565220943523500E-009, 0.0000000000000000000 ) ) ;
#100 = AXIS2_PLACEMENT_3D ( 'NONE', #99, #98, #97 ) ;
#101 = CIRCLE ( 'NONE', #100, 3.500000000000000000 ) ;
#102 = DIRECTION ( 'NONE',  ( 0.0000000000000000000, 0.0000000000000000000, 1.000000000000000000 ) ) ;
#103 = DIRECTION ( 'NONE',  ( 0.0000000000000000000, 1.000000000000000000, 0.0000000000000000000 ) ) ;
#104 = AXIS2_PLACEMENT_3D ( 'NONE', #110, #103, #102 ) ;
#105 = CIRCLE ( 'NONE', #104, 7.625662648456642300 ) ;
#106 = DIRECTION ( 'NONE',  ( 0.0000000000000000000, 0.0000000000000000000, 1.000000000000000000 ) ) ;
#107 = DIRECTION ( 'NONE',  ( 0.0000000000000000000, 1.000000000000000000, 0.0000000000000000000 ) ) ;
#108 = CARTESIAN_POINT ( 'NONE',  ( -5.009326287108706300E-010, 2.412507003500041800, 0.0000000000000000000 ) ) ;
#109 = AXIS2_PLACEMENT_3D ( 'NONE', #108, #107, #106 ) ;
#110 = CARTESIAN_POINT ( 'NONE',  ( -5.009326287108706300E-010, -0.8545060060056036700, 0.0000000000000000000 ) ) ;
#111 = CYLINDRICAL_SURFACE ( 'NONE', #109, 3.500000000000000400 ) ;
#112 = FACE_OUTER_BOUND ( 'NONE', #138, .T. ) ;
#113 = DIRECTION ( 'NONE',  ( 0.0000000000000000000, 0.0000000000000000000, 1.000000000000000000 ) ) ;
#114 = ADVANCED_FACE ( 'NONE', ( #36, #35 ), #34, .F. ) ;
#115 = EDGE_LOOP ( 'NONE', ( #116, #119 ) ) ;
#116 = ORIENTED_EDGE ( 'NONE', *, *, #118, .F. ) ;
#117 = ORIENTED_EDGE ( 'NONE', *, *, #133, .T. ) ;
#118 = EDGE_CURVE ( 'NONE', #185, #1, #29, .T. ) ;
#119 = ORIENTED_EDGE ( 'NONE', *, *, #184, .F. ) ;
#120 = ORIENTED_EDGE ( 'NONE', *, *, #128, .T. ) ;
#121 = ORIENTED_EDGE ( 'NONE', *, *, #137, .T. ) ;
#122 = ORIENTED_EDGE ( 'NONE', *, *, #241, .T. ) ;
#123 = ORIENTED_EDGE ( 'NONE', *, *, #13, .T. ) ;
#124 = ADVANCED_FACE ( 'NONE', ( #179 ), #178, .F. ) ;
#125 = EDGE_LOOP ( 'NONE', ( #126, #127, #122, #117 ) ) ;
#126 = ORIENTED_EDGE ( 'NONE', *, *, #21, .F. ) ;
#127 = ORIENTED_EDGE ( 'NONE', *, *, #128, .F. ) ;
#128 = EDGE_CURVE ( 'NONE', #183, #245, #172, .T. ) ;
#129 = EDGE_LOOP ( 'NONE', ( #121, #123 ) ) ;
#130 = ADVANCED_FACE ( 'NONE', ( #168, #167 ), #166, .F. ) ;
#131 = EDGE_LOOP ( 'NONE', ( #132, #140 ) ) ;
#132 = ORIENTED_EDGE ( 'NONE', *, *, #133, .F. ) ;
#133 = EDGE_CURVE ( 'NONE', #25, #22, #161, .T. ) ;
#134 = ORIENTED_EDGE ( 'NONE', *, *, #78, .T. ) ;
#135 = ORIENTED_EDGE ( 'NONE', *, *, #150, .T. ) ;
#136 = ORIENTED_EDGE ( 'NONE', *, *, #137, .F. ) ;
#137 = EDGE_CURVE ( 'NONE', #14, #9, #156, .T. ) ;
#138 = EDGE_LOOP ( 'NONE', ( #141, #136, #134, #135 ) ) ;
#139 = ADVANCED_FACE ( 'NONE', ( #112 ), #111, .F. ) ;
#140 = ORIENTED_EDGE ( 'NONE', *, *, #24, .F. ) ;
#141 = ORIENTED_EDGE ( 'NONE', *, *, #18, .F. ) ;
#142 = ORIENTED_EDGE ( 'NONE', *, *, #65, .T. ) ;
#143 = EDGE_LOOP ( 'NONE', ( #70, #142 ) ) ;
#144 = ORIENTED_EDGE ( 'NONE', *, *, #72, .F. ) ;
#145 = ORIENTED_EDGE ( 'NONE', *, *, #146, .T. ) ;
#146 = EDGE_CURVE ( 'NONE', #11, #8, #105, .T. ) ;
#147 = ORIENTED_EDGE ( 'NONE', *, *, #65, .F. ) ;
#148 = EDGE_LOOP ( 'NONE', ( #149, #151 ) ) ;
#149 = ORIENTED_EDGE ( 'NONE', *, *, #150, .F. ) ;
#150 = EDGE_CURVE ( 'NONE', #84, #17, #101, .T. ) ;
#151 = ORIENTED_EDGE ( 'NONE', *, *, #82, .F. ) ;
#152 = ORIENTED_EDGE ( 'NONE', *, *, #68, .T. ) ;
#153 = DIRECTION ( 'NONE',  ( 0.0000000000000000000, 1.000000000000000000, 0.0000000000000000000 ) ) ;
#154 = CARTESIAN_POINT ( 'NONE',  ( -5.009326287108706300E-010, -7.999999996500434900, 0.0000000000000000000 ) ) ;
#155 = AXIS2_PLACEMENT_3D ( 'NONE', #154, #153, #113 ) ;
#156 = CIRCLE ( 'NONE', #155, 3.500000000000000400 ) ;
#157 = DIRECTION ( 'NONE',  ( 0.0000000000000000000, 0.0000000000000000000, 1.000000000000000000 ) ) ;
#158 = DIRECTION ( 'NONE',  ( 0.0000000000000000000, 1.000000000000000000, 0.0000000000000000000 ) ) ;
#159 = CARTESIAN_POINT ( 'NONE',  ( -5.009326287108706300E-010, -7.999999996500434900, 0.0000000000000000000 ) ) ;
#160 = AXIS2_PLACEMENT_3D ( 'NONE', #159, #158, #157 ) ;
#161 = CIRCLE ( 'NONE', #160, 1.500000000000000200 ) ;
#162 = DIRECTION ( 'NONE',  ( 0.0000000000000000000, 0.0000000000000000000, -1.000000000000000000 ) ) ;
#163 = DIRECTION ( 'NONE',  ( 0.0000000000000000000, -1.000000000000000000, 0.0000000000000000000 ) ) ;
#164 = CARTESIAN_POINT ( 'NONE',  ( 3.499999999499067800, -7.999999996500434900, 0.0000000000000000000 ) ) ;
#165 = AXIS2_PLACEMENT_3D ( 'NONE', #164, #163, #162 ) ;
#166 = PLANE ( 'NONE',  #165 ) ;
#167 = FACE_OUTER_BOUND ( 'NONE', #129, .T. ) ;
#168 = FACE_BOUND ( 'NONE', #131, .T. ) ;
#169 = DIRECTION ( 'NONE',  ( 0.0000000000000000000, 0.0000000000000000000, 1.000000000000000000 ) ) ;
#170 = DIRECTION ( 'NONE',  ( 0.0000000000000000000, 1.000000000000000000, 0.0000000000000000000 ) ) ;
#171 = AXIS2_PLACEMENT_3D ( 'NONE', #177, #170, #169 ) ;
#172 = CIRCLE ( 'NONE', #171, 1.500000000000001100 ) ;
#173 = DIRECTION ( 'NONE',  ( 0.0000000000000000000, 0.0000000000000000000, 1.000000000000000000 ) ) ;
#174 = DIRECTION ( 'NONE',  ( 0.0000000000000000000, 1.000000000000000000, 0.0000000000000000000 ) ) ;
#175 = CARTESIAN_POINT ( 'NONE',  ( -5.009326287108706300E-010, 2.412507003500041800, 0.0000000000000000000 ) ) ;
#176 = AXIS2_PLACEMENT_3D ( 'NONE', #175, #174, #173 ) ;
#177 = CARTESIAN_POINT ( 'NONE',  ( -5.009326287108706300E-010, -16.99999999650043500, 0.0000000000000000000 ) ) ;
#178 = CYLINDRICAL_SURFACE ( 'NONE', #176, 1.500000000000000700 ) ;
#179 = FACE_OUTER_BOUND ( 'NONE', #125, .T. ) ;
#180 = DIRECTION ( 'NONE',  ( 0.0000000000000000000, 0.0000000000000000000, 1.000000000000000000 ) ) ;
#181 = ORIENTED_EDGE ( 'NONE', *, *, #182, .F. ) ;
#182 = EDGE_CURVE ( 'NONE', #245, #183, #96, .T. ) ;
#183 = VERTEX_POINT ( 'NONE', #91 ) ;
#184 = EDGE_CURVE ( 'NONE', #1, #185, #90, .T. ) ;
#185 = VERTEX_POINT ( 'NONE', #85 ) ;
#186 = ORIENTED_EDGE ( 'NONE', *, *, #184, .T. ) ;
#187 = ORIENTED_EDGE ( 'NONE', *, *, #188, .F. ) ;
#188 = EDGE_CURVE ( 'NONE', #11, #185, #317, .T. ) ;
#189 = CARTESIAN_POINT ( 'NONE',  ( -5.009326287108706300E-010, -7.999999996500434900, 0.0000000000000000000 ) ) ;
#190 = DIRECTION ( 'NONE',  ( 0.0000000000000000000, 0.0000000000000000000, -1.000000000000000000 ) ) ;
#191 = DIRECTION ( 'NONE',  ( 0.0000000000000000000, -1.000000000000000000, 0.0000000000000000000 ) ) ;
#192 = AXIS2_PLACEMENT_3D ( 'NONE', #194, #191, #190 ) ;
#193 = CONICAL_SURFACE ( 'NONE', #192, 10.00000000000000000, 0.1460122577112754100 ) ;
#194 = CARTESIAN_POINT ( 'NONE',  ( -5.009326287108706300E-010, -16.99999999650043500, 0.0000000000000000000 ) ) ;
#195 = FACE_OUTER_BOUND ( 'NONE', #15, .T. ) ;
#196 = CARTESIAN_POINT ( 'NONE',  ( -5.009316948673775600E-010, -0.8545060060056036700, -7.625662648456642300 ) ) ;
#197 = CARTESIAN_POINT ( 'NONE',  ( -5.009322000986467900E-010, -7.999999996500434900, -3.500000000000000400 ) ) ;
#198 = CARTESIAN_POINT ( 'NONE',  ( -5.009326287108706300E-010, -0.8545060060056036700, 7.625662648456642300 ) ) ;
#199 = DIRECTION ( 'NONE',  ( 0.0000000000000000000, 0.0000000000000000000, 1.000000000000000000 ) ) ;
#200 = DIRECTION ( 'NONE',  ( 0.0000000000000000000, 1.000000000000000000, 0.0000000000000000000 ) ) ;
#201 = AXIS2_PLACEMENT_3D ( 'NONE', #208, #200, #199 ) ;
#202 = CIRCLE ( 'NONE', #201, 7.625662648456642300 ) ;
#203 = DIRECTION ( 'NONE',  ( 0.0000000000000000000, 0.0000000000000000000, 1.000000000000000000 ) ) ;
#204 = DIRECTION ( 'NONE',  ( 0.0000000000000000000, 1.000000000000000000, 0.0000000000000000000 ) ) ;
#205 = CARTESIAN_POINT ( 'NONE',  ( -5.009326287108706300E-010, 2.412507003500041800, 0.0000000000000000000 ) ) ;
#206 = AXIS2_PLACEMENT_3D ( 'NONE', #205, #204, #203 ) ;
#207 = CYLINDRICAL_SURFACE ( 'NONE', #206, 1.500000000000000700 ) ;
#208 = CARTESIAN_POINT ( 'NONE',  ( -5.009326287108706300E-010, -0.8545060060056036700, 0.0000000000000000000 ) ) ;
#209 = FACE_OUTER_BOUND ( 'NONE', #3, .T. ) ;
#210 = DIRECTION ( 'NONE',  ( 1.781728652029430300E-017, -0.9893591353648532000, 0.1454939904948313600 ) ) ;
#211 = VECTOR ( 'NONE', #210, 1000.000000000000000 ) ;
#212 = CARTESIAN_POINT ( 'NONE',  ( -5.009314041045168100E-010, -16.99999999650043500, 10.00000000000000000 ) ) ;
#213 = LINE ( 'NONE', #212, #211 ) ;
#214 = CARTESIAN_POINT ( 'NONE',  ( -5.009314041045168100E-010, -16.99999999650043500, 10.00000000000000000 ) ) ;
#215 = CARTESIAN_POINT ( 'NONE',  ( -5.009326287108706300E-010, -0.9999999965004348100, 0.0000000000000000000 ) ) ;
#216 = DIRECTION ( 'NONE',  ( 0.0000000000000000000, 1.000000000000000000, 0.0000000000000000000 ) ) ;
#217 = DIRECTION ( 'NONE',  ( 0.0000000000000000000, 0.0000000000000000000, 1.000000000000000000 ) ) ;
#218 = DIRECTION ( 'NONE',  ( 0.0000000000000000000, 1.000000000000000000, 0.0000000000000000000 ) ) ;
#219 = CARTESIAN_POINT ( 'NONE',  ( -5.009326287108706300E-010, 3.499565220943523500E-009, 0.0000000000000000000 ) ) ;
#220 = AXIS2_PLACEMENT_3D ( 'NONE', #219, #218, #217 ) ;
#221 = CIRCLE ( 'NONE', #220, 6.636303513091790200 ) ;
#222 = FACE_OUTER_BOUND ( 'NONE', #81, .T. ) ;
#223 = CARTESIAN_POINT ( 'NONE',  ( -5.009317554461516600E-010, 3.499565220943523500E-009, -6.636303513091790200 ) ) ;
#224 = DIRECTION ( 'NONE',  ( 1.224606353612350900E-016, 0.0000000000000000000, -1.000000000000000000 ) ) ;
#225 = DIRECTION ( 'NONE',  ( 1.000000000000000000, 0.0000000000000000000, 1.224606353822377300E-016 ) ) ;
#226 = CARTESIAN_POINT ( 'NONE',  ( -5.009318160249258600E-010, -0.9999999965004348100, -6.636303513091790200 ) ) ;
#227 = AXIS2_PLACEMENT_3D ( 'NONE', #226, #225, #224 ) ;
#228 = CIRCLE ( 'NONE', #227, 1.000000000000000000 ) ;
#229 = CARTESIAN_POINT ( 'NONE',  ( -5.009326287108706300E-010, 3.499565220943523500E-009, 6.636303513091790200 ) ) ;
#230 = DIRECTION ( 'NONE',  ( 0.0000000000000000000, 0.0000000000000000000, 1.000000000000000000 ) ) ;
#231 = DIRECTION ( 'NONE',  ( 0.0000000000000000000, 1.000000000000000000, 0.0000000000000000000 ) ) ;
#232 = CARTESIAN_POINT ( 'NONE',  ( -5.009326287108706300E-010, -0.9999999965004348100, 0.0000000000000000000 ) ) ;
#233 = AXIS2_PLACEMENT_3D ( 'NONE', #232, #231, #230 ) ;
#234 = TOROIDAL_SURFACE ( 'NONE', #233, 6.636303513091790200, 0.9999999999999995600 ) ;
#235 = FACE_OUTER_BOUND ( 'NONE', #16, .T. ) ;
#236 = DIRECTION ( 'NONE',  ( 0.0000000000000000000, 0.0000000000000000000, 1.000000000000000000 ) ) ;
#237 = DIRECTION ( 'NONE',  ( -1.000000000000000000, 0.0000000000000000000, 0.0000000000000000000 ) ) ;
#238 = CARTESIAN_POINT ( 'NONE',  ( -5.009326287108706300E-010, -0.9999999965004348100, 6.636303513091790200 ) ) ;
#239 = AXIS2_PLACEMENT_3D ( 'NONE', #238, #237, #236 ) ;
#240 = ORIENTED_EDGE ( 'NONE', *, *, #241, .F. ) ;
#241 = EDGE_CURVE ( 'NONE', #183, #25, #295, .T. ) ;
#242 = ADVANCED_FACE ( 'NONE', ( #315 ), #318, .F. ) ;
#243 = EDGE_LOOP ( 'NONE', ( #244, #19, #83, #80 ) ) ;
#244 = ORIENTED_EDGE ( 'NONE', *, *, #13, .F. ) ;
#245 = VERTEX_POINT ( 'NONE', #319 ) ;
#246 = CIRCLE ( 'NONE', #239, 1.000000000000000000 ) ;
#247 = DIRECTION ( 'NONE',  ( 0.0000000000000000000, 0.0000000000000000000, -1.000000000000000000 ) ) ;
#248 = DIRECTION ( 'NONE',  ( 0.0000000000000000000, -1.000000000000000000, 0.0000000000000000000 ) ) ;
#249 = CARTESIAN_POINT ( 'NONE',  ( 6.636303512590857600, 3.499565220943523500E-009, 0.0000000000000000000 ) ) ;
#250 = AXIS2_PLACEMENT_3D ( 'NONE', #249, #248, #247 ) ;
#251 = PLANE ( 'NONE',  #250 ) ;
#252 = FACE_OUTER_BOUND ( 'NONE', #143, .T. ) ;
#253 = FACE_BOUND ( 'NONE', #148, .T. ) ;
#254 = DIRECTION ( 'NONE',  ( 0.0000000000000000000, 0.0000000000000000000, 1.000000000000000000 ) ) ;
#255 = DIRECTION ( 'NONE',  ( 0.0000000000000000000, 1.000000000000000000, 0.0000000000000000000 ) ) ;
#256 = CARTESIAN_POINT ( 'NONE',  ( -5.009326287108706300E-010, 3.499565220943523500E-009, 0.0000000000000000000 ) ) ;
#257 = AXIS2_PLACEMENT_3D ( 'NONE', #256, #255, #254 ) ;
#258 = CIRCLE ( 'NONE', #257, 6.636303513091790200 ) ;
#259 = CARTESIAN_POINT ( 'NONE',  ( -5.009326287108706300E-010, -7.999999996500434900, 1.500000000000000200 ) ) ;
#260 = DIRECTION ( 'NONE',  ( 0.0000000000000000000, 0.0000000000000000000, 1.000000000000000000 ) ) ;
#261 = DIRECTION ( 'NONE',  ( 0.0000000000000000000, 1.000000000000000000, 0.0000000000000000000 ) ) ;
#262 = CARTESIAN_POINT ( 'NONE',  ( -5.009326287108706300E-010, -7.999999996500434900, 0.0000000000000000000 ) ) ;
#263 = AXIS2_PLACEMENT_3D ( 'NONE', #262, #261, #260 ) ;
#264 = CIRCLE ( 'NONE', #263, 1.500000000000000200 ) ;
#265 = ORIENTED_EDGE ( 'NONE', *, *, #182, .T. ) ;
#266 = ADVANCED_FACE ( 'NONE', ( #285 ), #296, .T. ) ;
#267 = ORIENTED_EDGE ( 'NONE', *, *, #2, .F. ) ;
#268 = ORIENTED_EDGE ( 'NONE', *, *, #146, .F. ) ;
#269 = EDGE_LOOP ( 'NONE', ( #267, #268, #271, #272 ) ) ;
#270 = EDGE_LOOP ( 'NONE', ( #120, #265 ) ) ;
#271 = ORIENTED_EDGE ( 'NONE', *, *, #188, .T. ) ;
#272 = ORIENTED_EDGE ( 'NONE', *, *, #118, .T. ) ;
#273 = CLOSED_SHELL ( 'NONE', ( #12, #4, #242, #77, #69, #66, #139, #130, #124, #114, #266 ) ) ;
#274 = CC_DESIGN_PERSON_AND_ORGANIZATION_ASSIGNMENT ( #276, #275, ( #279 ) ) ;
#275 = PERSON_AND_ORGANIZATION_ROLE ( 'design_owner' ) ;
#276 = PERSON_AND_ORGANIZATION ( #278, #277 ) ;
#277 = ORGANIZATION ( 'UNSPECIFIED', 'UNSPECIFIED', '' ) ;
#278 = PERSON ( 'UNSPECIFIED', 'UNSPECIFIED', 'UNSPECIFIED', ('UNSPECIFIED'), ('UNSPECIFIED'), ('UNSPECIFIED') ) ;
#279 = PRODUCT ( 'C-30-RK-2017-gray', 'C-30-RK-2017-gray', '', ( #280 ) ) ;
#280 = MECHANICAL_CONTEXT ( 'NONE', #282, 'mechanical' ) ;
#281 = APPLICATION_PROTOCOL_DEFINITION ( 'international standard', 'config_control_design', 1994, #282 ) ;
#282 = APPLICATION_CONTEXT ( 'configuration controlled 3d designs of mechanical parts and assemblies' ) ;
#283 = UNCERTAINTY_MEASURE_WITH_UNIT (LENGTH_MEASURE( 1.000000000000000100E-005 ), #330, 'distance_accuracy_value', 'NONE');
#284 =( NAMED_UNIT ( * ) SI_UNIT ( $, .STERADIAN. ) SOLID_ANGLE_UNIT ( ) );
#285 = FACE_OUTER_BOUND ( 'NONE', #269, .T. ) ;
#286 = VECTOR ( 'NONE', #320, 1000.000000000000000 ) ;
#287 = SHAPE_DEFINITION_REPRESENTATION ( #289, #288 ) ;
#288 = ADVANCED_BREP_SHAPE_REPRESENTATION ( 'C-30-RK-2017-gray', ( #10, #335 ), #336 ) ;
#289 = PRODUCT_DEFINITION_SHAPE ( 'NONE', 'NONE',  #378 ) ;
#290 = PRODUCT_RELATED_PRODUCT_CATEGORY ( 'detail', '', ( #279 ) ) ;
#291 = CC_DESIGN_SECURITY_CLASSIFICATION ( #338, ( #357 ) ) ;
#292 = CC_DESIGN_APPROVAL ( #304, ( #338 ) ) ;
#293 = APPROVAL_DATE_TIME ( #294, #304 ) ;
#294 = DATE_AND_TIME ( #299, #300 ) ;
#295 = LINE ( 'NONE', #323, #322 ) ;
#296 = CONICAL_SURFACE ( 'NONE', #326, 10.00000000000000000, 0.1460122577112754100 ) ;
#297 = DIRECTION ( 'NONE',  ( 0.0000000000000000000, 0.0000000000000000000, 1.000000000000000000 ) ) ;
#298 = DIRECTION ( 'NONE',  ( 0.0000000000000000000, 1.000000000000000000, 0.0000000000000000000 ) ) ;
#299 = CALENDAR_DATE ( 2009, 29, 6 ) ;
#300 = LOCAL_TIME ( 11, 42, 13.00000000000000000, #301 ) ;
#301 = COORDINATED_UNIVERSAL_TIME_OFFSET ( 9, 0, .AHEAD. ) ;
#302 = APPROVAL_PERSON_ORGANIZATION ( #306, #304, #303 ) ;
#303 = APPROVAL_ROLE ( '' ) ;
#304 = APPROVAL ( #305, 'UNSPECIFIED' ) ;
#305 = APPROVAL_STATUS ( 'not_yet_approved' ) ;
#306 = PERSON_AND_ORGANIZATION ( #278, #277 ) ;
#307 = CC_DESIGN_DATE_AND_TIME_ASSIGNMENT ( #309, #308, ( #338 ) ) ;
#308 = DATE_TIME_ROLE ( 'classification_date' ) ;
#309 = DATE_AND_TIME ( #310, #311 ) ;
#310 = CALENDAR_DATE ( 2009, 29, 6 ) ;
#311 = LOCAL_TIME ( 11, 42, 13.00000000000000000, #312 ) ;
#312 = COORDINATED_UNIVERSAL_TIME_OFFSET ( 9, 0, .AHEAD. ) ;
#313 = CC_DESIGN_PERSON_AND_ORGANIZATION_ASSIGNMENT ( #337, #314, ( #338 ) ) ;
#314 = PERSON_AND_ORGANIZATION_ROLE ( 'classification_officer' ) ;
#315 = FACE_OUTER_BOUND ( 'NONE', #243, .T. ) ;
#316 = DIRECTION ( 'NONE',  ( 0.0000000000000000000, 1.000000000000000000, 0.0000000000000000000 ) ) ;
#317 = LINE ( 'NONE', #331, #286 ) ;
#318 = CYLINDRICAL_SURFACE ( 'NONE', #321, 3.500000000000000400 ) ;
#319 = CARTESIAN_POINT ( 'NONE',  ( -5.009324450199175600E-010, -16.99999999650043500, -1.500000000000001100 ) ) ;
#320 = DIRECTION ( 'NONE',  ( 0.0000000000000000000, -0.9893591353648532000, -0.1454939904948313600 ) ) ;
#321 = AXIS2_PLACEMENT_3D ( 'NONE', #328, #298, #297 ) ;
#322 = VECTOR ( 'NONE', #316, 1000.000000000000000 ) ;
#323 = CARTESIAN_POINT ( 'NONE',  ( -5.009326287108706300E-010, 2.412507003500041800, 1.500000000000000700 ) ) ;
#324 = DIRECTION ( 'NONE',  ( 0.0000000000000000000, -1.000000000000000000, 0.0000000000000000000 ) ) ;
#325 = CARTESIAN_POINT ( 'NONE',  ( -5.009326287108706300E-010, -16.99999999650043500, 0.0000000000000000000 ) ) ;
#326 = AXIS2_PLACEMENT_3D ( 'NONE', #325, #324, #332 ) ;
#327 = CARTESIAN_POINT ( 'NONE',  ( 0.0000000000000000000, 0.0000000000000000000, 0.0000000000000000000 ) ) ;
#328 = CARTESIAN_POINT ( 'NONE',  ( -5.009326287108706300E-010, 2.412507003500041800, 0.0000000000000000000 ) ) ;
#329 =( NAMED_UNIT ( * ) PLANE_ANGLE_UNIT ( ) SI_UNIT ( $, .RADIAN. ) );
#330 =( LENGTH_UNIT ( ) NAMED_UNIT ( * ) SI_UNIT ( .MILLI., .METRE. ) );
#331 = CARTESIAN_POINT ( 'NONE',  ( -5.009326287108706300E-010, -16.99999999650043500, -10.00000000000000000 ) ) ;
#332 = DIRECTION ( 'NONE',  ( 0.0000000000000000000, 0.0000000000000000000, -1.000000000000000000 ) ) ;
#333 = DIRECTION ( 'NONE',  ( 1.000000000000000000, 0.0000000000000000000, 0.0000000000000000000 ) ) ;
#334 = DIRECTION ( 'NONE',  ( 0.0000000000000000000, 0.0000000000000000000, 1.000000000000000000 ) ) ;
#335 = AXIS2_PLACEMENT_3D ( 'NONE', #327, #334, #333 ) ;
#336 =( GEOMETRIC_REPRESENTATION_CONTEXT ( 3 ) GLOBAL_UNCERTAINTY_ASSIGNED_CONTEXT ( ( #283 ) ) GLOBAL_UNIT_ASSIGNED_CONTEXT ( ( #330, #329, #284 ) ) REPRESENTATION_CONTEXT ( 'NONE', 'WORKASPACE' ) );
#337 = PERSON_AND_ORGANIZATION ( #278, #277 ) ;
#338 = SECURITY_CLASSIFICATION ( '', '', #339 ) ;
#339 = SECURITY_CLASSIFICATION_LEVEL ( 'unclassified' ) ;
#340 = CC_DESIGN_PERSON_AND_ORGANIZATION_ASSIGNMENT ( #342, #341, ( #357 ) ) ;
#341 = PERSON_AND_ORGANIZATION_ROLE ( 'design_supplier' ) ;
#342 = PERSON_AND_ORGANIZATION ( #278, #277 ) ;
#343 = CC_DESIGN_PERSON_AND_ORGANIZATION_ASSIGNMENT ( #345, #344, ( #357 ) ) ;
#344 = PERSON_AND_ORGANIZATION_ROLE ( 'creator' ) ;
#345 = PERSON_AND_ORGANIZATION ( #278, #277 ) ;
#346 = CC_DESIGN_APPROVAL ( #354, ( #357 ) ) ;
#347 = APPROVAL_DATE_TIME ( #348, #354 ) ;
#348 = DATE_AND_TIME ( #349, #350 ) ;
#349 = CALENDAR_DATE ( 2009, 29, 6 ) ;
#350 = LOCAL_TIME ( 11, 42, 13.00000000000000000, #351 ) ;
#351 = COORDINATED_UNIVERSAL_TIME_OFFSET ( 9, 0, .AHEAD. ) ;
#352 = APPROVAL_PERSON_ORGANIZATION ( #356, #354, #353 ) ;
#353 = APPROVAL_ROLE ( '' ) ;
#354 = APPROVAL ( #355, 'UNSPECIFIED' ) ;
#355 = APPROVAL_STATUS ( 'not_yet_approved' ) ;
#356 = PERSON_AND_ORGANIZATION ( #278, #277 ) ;
#357 = PRODUCT_DEFINITION_FORMATION_WITH_SPECIFIED_SOURCE ( 'ANY', '', #279, .NOT_KNOWN. ) ;
#358 = CC_DESIGN_DATE_AND_TIME_ASSIGNMENT ( #360, #359, ( #378 ) ) ;
#359 = DATE_TIME_ROLE ( 'creation_date' ) ;
#360 = DATE_AND_TIME ( #361, #362 ) ;
#361 = CALENDAR_DATE ( 2009, 29, 6 ) ;
#362 = LOCAL_TIME ( 11, 42, 13.00000000000000000, #363 ) ;
#363 = COORDINATED_UNIVERSAL_TIME_OFFSET ( 9, 0, .AHEAD. ) ;
#364 = CC_DESIGN_PERSON_AND_ORGANIZATION_ASSIGNMENT ( #366, #365, ( #378 ) ) ;
#365 = PERSON_AND_ORGANIZATION_ROLE ( 'creator' ) ;
#366 = PERSON_AND_ORGANIZATION ( #278, #277 ) ;
#367 = CC_DESIGN_APPROVAL ( #375, ( #378 ) ) ;
#368 = APPROVAL_DATE_TIME ( #369, #375 ) ;
#369 = DATE_AND_TIME ( #370, #371 ) ;
#370 = CALENDAR_DATE ( 2009, 29, 6 ) ;
#371 = LOCAL_TIME ( 11, 42, 13.00000000000000000, #372 ) ;
#372 = COORDINATED_UNIVERSAL_TIME_OFFSET ( 9, 0, .AHEAD. ) ;
#373 = APPROVAL_PERSON_ORGANIZATION ( #377, #375, #374 ) ;
#374 = APPROVAL_ROLE ( '' ) ;
#375 = APPROVAL ( #376, 'UNSPECIFIED' ) ;
#376 = APPROVAL_STATUS ( 'not_yet_approved' ) ;
#377 = PERSON_AND_ORGANIZATION ( #278, #277 ) ;
#378 = PRODUCT_DEFINITION ( 'UNKNOWN', '', #357, #379 ) ;
#379 = DESIGN_CONTEXT ( 'detailed design', #381, 'design' ) ;
#380 = APPLICATION_PROTOCOL_DEFINITION ( 'international standard', 'config_control_design', 1994, #381 ) ;
#381 = APPLICATION_CONTEXT ( 'configuration controlled 3d designs of mechanical parts and assemblies' ) ;
ENDSEC;
END-ISO-10303-21;
