ISO-10303-21;
HEADER;
FILE_DESCRIPTION (( 'STEP AP203' ),
    '1' );
FILE_NAME ('C-30-RK-2017.STEP',
    '2009-06-26T07:50:09',
    ( '11sw' ),
    ( '^LQ»¢®ïÐ' ),
    'SwSTEP 2.0',
    'SolidWorks 2007',
    '' );
FILE_SCHEMA (( 'CONFIG_CONTROL_DESIGN' ));
ENDSEC;

DATA;
#1 = ORIENTED_EDGE ( 'NONE', *, *, #71, .F. ) ;
#2 = ADVANCED_FACE ( 'NONE', ( #201 ), #275, .F. ) ;
#3 = EDGE_LOOP ( 'NONE', ( #1, #11, #13, #14 ) ) ;
#4 = ORIENTED_EDGE ( 'NONE', *, *, #66, .T. ) ;
#5 = ORIENTED_EDGE ( 'NONE', *, *, #57, .T. ) ;
#6 = EDGE_LOOP ( 'NONE', ( #4, #5 ) ) ;
#7 = ORIENTED_EDGE ( 'NONE', *, *, #9, .F. ) ;
#8 = ORIENTED_EDGE ( 'NONE', *, *, #52, .F. ) ;
#9 = EDGE_CURVE ( 'NONE', #53, #72, #292, .T. ) ;
#10 = EDGE_LOOP ( 'NONE', ( #7, #8 ) ) ;
#11 = ORIENTED_EDGE ( 'NONE', *, *, #12, .F. ) ;
#12 = EDGE_CURVE ( 'NONE', #80, #79, #291, .T. ) ;
#13 = ORIENTED_EDGE ( 'NONE', *, *, #60, .T. ) ;
#14 = ORIENTED_EDGE ( 'NONE', *, *, #9, .T. ) ;
#15 = ADVANCED_FACE ( 'NONE', ( #209, #208 ), #216, .F. ) ;
#16 = EDGE_LOOP ( 'NONE', ( #17, #19 ) ) ;
#17 = ORIENTED_EDGE ( 'NONE', *, *, #18, .F. ) ;
#18 = EDGE_CURVE ( 'NONE', #91, #98, #274, .T. ) ;
#19 = ORIENTED_EDGE ( 'NONE', *, *, #83, .F. ) ;
#20 = EDGE_LOOP ( 'NONE', ( #21, #22 ) ) ;
#21 = ORIENTED_EDGE ( 'NONE', *, *, #12, .T. ) ;
#22 = ORIENTED_EDGE ( 'NONE', *, *, #69, .T. ) ;
#23 = ADVANCED_FACE ( 'NONE', ( #270 ), #269, .F. ) ;
#24 = EDGE_LOOP ( 'NONE', ( #25, #26, #28, #29 ) ) ;
#25 = ORIENTED_EDGE ( 'NONE', *, *, #95, .F. ) ;
#26 = ORIENTED_EDGE ( 'NONE', *, *, #27, .F. ) ;
#27 = EDGE_CURVE ( 'NONE', #97, #100, #206, .T. ) ;
#28 = ORIENTED_EDGE ( 'NONE', *, *, #77, .T. ) ;
#29 = ORIENTED_EDGE ( 'NONE', *, *, #18, .T. ) ;
#30 = ADVANCED_FACE ( 'NONE', ( #285, #284 ), #228, .F. ) ;
#31 = EDGE_LOOP ( 'NONE', ( #32, #34 ) ) ;
#32 = ORIENTED_EDGE ( 'NONE', *, *, #33, .F. ) ;
#33 = EDGE_CURVE ( 'NONE', #82, #92, #222, .T. ) ;
#34 = ORIENTED_EDGE ( 'NONE', *, *, #89, .F. ) ;
#35 = EDGE_LOOP ( 'NONE', ( #36, #37 ) ) ;
#36 = ORIENTED_EDGE ( 'NONE', *, *, #27, .T. ) ;
#37 = ORIENTED_EDGE ( 'NONE', *, *, #96, .T. ) ;
#38 = ADVANCED_FACE ( 'NONE', ( #223 ), #263, .T. ) ;
#39 = EDGE_LOOP ( 'NONE', ( #40, #41, #42, #43 ) ) ;
#40 = ORIENTED_EDGE ( 'NONE', *, *, #88, .F. ) ;
#41 = ORIENTED_EDGE ( 'NONE', *, *, #50, .F. ) ;
#42 = ORIENTED_EDGE ( 'NONE', *, *, #86, .T. ) ;
#43 = ORIENTED_EDGE ( 'NONE', *, *, #33, .T. ) ;
#44 = CLOSED_SHELL ( 'NONE', ( #107, #84, #74, #54, #47, #58, #2, #15, #23, #30, #38 ) ) ;
#45 = ORIENTED_EDGE ( 'NONE', *, *, #46, .F. ) ;
#46 = EDGE_CURVE ( 'NONE', #104, #67, #259, .T. ) ;
#47 = ADVANCED_FACE ( 'NONE', ( #255 ), #254, .T. ) ;
#48 = ORIENTED_EDGE ( 'NONE', *, *, #63, .F. ) ;
#49 = ORIENTED_EDGE ( 'NONE', *, *, #50, .T. ) ;
#50 = EDGE_CURVE ( 'NONE', #101, #104, #248, .T. ) ;
#51 = ORIENTED_EDGE ( 'NONE', *, *, #46, .T. ) ;
#52 = EDGE_CURVE ( 'NONE', #72, #53, #244, .T. ) ;
#53 = VERTEX_POINT ( 'NONE', #239 ) ;
#54 = ADVANCED_FACE ( 'NONE', ( #238 ), #237, .T. ) ;
#55 = EDGE_LOOP ( 'NONE', ( #61, #62, #65, #45 ) ) ;
#56 = ORIENTED_EDGE ( 'NONE', *, *, #57, .F. ) ;
#57 = EDGE_CURVE ( 'NONE', #64, #67, #136, .T. ) ;
#58 = ADVANCED_FACE ( 'NONE', ( #131, #130 ), #129, .F. ) ;
#59 = ORIENTED_EDGE ( 'NONE', *, *, #60, .F. ) ;
#60 = EDGE_CURVE ( 'NONE', #80, #53, #124, .T. ) ;
#61 = ORIENTED_EDGE ( 'NONE', *, *, #103, .T. ) ;
#62 = ORIENTED_EDGE ( 'NONE', *, *, #63, .T. ) ;
#63 = EDGE_CURVE ( 'NONE', #101, #64, #120, .T. ) ;
#64 = VERTEX_POINT ( 'NONE', #115 ) ;
#65 = ORIENTED_EDGE ( 'NONE', *, *, #66, .F. ) ;
#66 = EDGE_CURVE ( 'NONE', #67, #64, #114, .T. ) ;
#67 = VERTEX_POINT ( 'NONE', #109 ) ;
#68 = EDGE_LOOP ( 'NONE', ( #48, #49, #51, #56 ) ) ;
#69 = EDGE_CURVE ( 'NONE', #79, #80, #108, .T. ) ;
#70 = ORIENTED_EDGE ( 'NONE', *, *, #71, .T. ) ;
#71 = EDGE_CURVE ( 'NONE', #79, #72, #171, .T. ) ;
#72 = VERTEX_POINT ( 'NONE', #163 ) ;
#73 = ORIENTED_EDGE ( 'NONE', *, *, #52, .T. ) ;
#74 = ADVANCED_FACE ( 'NONE', ( #162 ), #161, .F. ) ;
#75 = ORIENTED_EDGE ( 'NONE', *, *, #69, .F. ) ;
#76 = ORIENTED_EDGE ( 'NONE', *, *, #77, .F. ) ;
#77 = EDGE_CURVE ( 'NONE', #97, #91, #156, .T. ) ;
#78 = EDGE_LOOP ( 'NONE', ( #75, #70, #73, #59 ) ) ;
#79 = VERTEX_POINT ( 'NONE', #152 ) ;
#80 = VERTEX_POINT ( 'NONE', #151 ) ;
#81 = ORIENTED_EDGE ( 'NONE', *, *, #89, .T. ) ;
#82 = VERTEX_POINT ( 'NONE', #150 ) ;
#83 = EDGE_CURVE ( 'NONE', #98, #91, #149, .T. ) ;
#84 = ADVANCED_FACE ( 'NONE', ( #144 ), #143, .F. ) ;
#85 = EDGE_LOOP ( 'NONE', ( #99, #94, #90, #76 ) ) ;
#86 = EDGE_CURVE ( 'NONE', #101, #82, #199, .T. ) ;
#87 = ORIENTED_EDGE ( 'NONE', *, *, #86, .F. ) ;
#88 = EDGE_CURVE ( 'NONE', #104, #92, #195, .T. ) ;
#89 = EDGE_CURVE ( 'NONE', #92, #82, #191, .T. ) ;
#90 = ORIENTED_EDGE ( 'NONE', *, *, #83, .T. ) ;
#91 = VERTEX_POINT ( 'NONE', #186 ) ;
#92 = VERTEX_POINT ( 'NONE', #185 ) ;
#93 = ORIENTED_EDGE ( 'NONE', *, *, #88, .T. ) ;
#94 = ORIENTED_EDGE ( 'NONE', *, *, #95, .T. ) ;
#95 = EDGE_CURVE ( 'NONE', #100, #98, #184, .T. ) ;
#96 = EDGE_CURVE ( 'NONE', #100, #97, #180, .T. ) ;
#97 = VERTEX_POINT ( 'NONE', #175 ) ;
#98 = VERTEX_POINT ( 'NONE', #174 ) ;
#99 = ORIENTED_EDGE ( 'NONE', *, *, #96, .F. ) ;
#100 = VERTEX_POINT ( 'NONE', #173 ) ;
#101 = VERTEX_POINT ( 'NONE', #172 ) ;
#102 = MANIFOLD_SOLID_BREP ( 'NONE', #44 ) ;
#103 = EDGE_CURVE ( 'NONE', #104, #101, #283, .T. ) ;
#104 = VERTEX_POINT ( 'NONE', #278 ) ;
#105 = ORIENTED_EDGE ( 'NONE', *, *, #103, .F. ) ;
#106 = EDGE_LOOP ( 'NONE', ( #105, #93, #81, #87 ) ) ;
#107 = ADVANCED_FACE ( 'NONE', ( #277 ), #300, .T. ) ;
#108 = CIRCLE ( 'NONE', #170, 3.500000000000000400 ) ;
#109 = CARTESIAN_POINT ( 'NONE',  ( -5.009326287108706300E-010, 3.499565220943523500E-009, 6.636303513091790200 ) ) ;
#110 = DIRECTION ( 'NONE',  ( 0.0000000000000000000, 0.0000000000000000000, 1.000000000000000000 ) ) ;
#111 = DIRECTION ( 'NONE',  ( 0.0000000000000000000, 1.000000000000000000, 0.0000000000000000000 ) ) ;
#112 = CARTESIAN_POINT ( 'NONE',  ( -5.009326287108706300E-010, 3.499565220943523500E-009, 0.0000000000000000000 ) ) ;
#113 = AXIS2_PLACEMENT_3D ( 'NONE', #112, #111, #110 ) ;
#114 = CIRCLE ( 'NONE', #113, 6.636303513091790200 ) ;
#115 = CARTESIAN_POINT ( 'NONE',  ( -5.009317554461516600E-010, 3.499565220943523500E-009, -6.636303513091790200 ) ) ;
#116 = DIRECTION ( 'NONE',  ( 1.224606353612350900E-016, 0.0000000000000000000, -1.000000000000000000 ) ) ;
#117 = DIRECTION ( 'NONE',  ( 1.000000000000000000, 0.0000000000000000000, 1.224606353822377300E-016 ) ) ;
#118 = CARTESIAN_POINT ( 'NONE',  ( -5.009318160249258600E-010, -0.9999999965004348100, -6.636303513091790200 ) ) ;
#119 = AXIS2_PLACEMENT_3D ( 'NONE', #118, #117, #116 ) ;
#120 = CIRCLE ( 'NONE', #119, 1.000000000000000000 ) ;
#121 = DIRECTION ( 'NONE',  ( 0.0000000000000000000, 1.000000000000000000, 0.0000000000000000000 ) ) ;
#122 = VECTOR ( 'NONE', #121, 1000.000000000000000 ) ;
#123 = CARTESIAN_POINT ( 'NONE',  ( -5.009326287108706300E-010, 2.412507003500041800, 3.500000000000000400 ) ) ;
#124 = LINE ( 'NONE', #123, #122 ) ;
#125 = DIRECTION ( 'NONE',  ( 0.0000000000000000000, 0.0000000000000000000, -1.000000000000000000 ) ) ;
#126 = DIRECTION ( 'NONE',  ( 0.0000000000000000000, -1.000000000000000000, 0.0000000000000000000 ) ) ;
#127 = CARTESIAN_POINT ( 'NONE',  ( 6.636303512590857600, 3.499565220943523500E-009, 0.0000000000000000000 ) ) ;
#128 = AXIS2_PLACEMENT_3D ( 'NONE', #127, #126, #125 ) ;
#129 = PLANE ( 'NONE',  #128 ) ;
#130 = FACE_OUTER_BOUND ( 'NONE', #6, .T. ) ;
#131 = FACE_BOUND ( 'NONE', #10, .T. ) ;
#132 = DIRECTION ( 'NONE',  ( 0.0000000000000000000, 0.0000000000000000000, 1.000000000000000000 ) ) ;
#133 = DIRECTION ( 'NONE',  ( 0.0000000000000000000, 1.000000000000000000, 0.0000000000000000000 ) ) ;
#134 = CARTESIAN_POINT ( 'NONE',  ( -5.009326287108706300E-010, 3.499565220943523500E-009, 0.0000000000000000000 ) ) ;
#135 = AXIS2_PLACEMENT_3D ( 'NONE', #134, #133, #132 ) ;
#136 = CIRCLE ( 'NONE', #135, 6.636303513091790200 ) ;
#137 = DIRECTION ( 'NONE',  ( 0.0000000000000000000, 0.0000000000000000000, 1.000000000000000000 ) ) ;
#138 = DIRECTION ( 'NONE',  ( 0.0000000000000000000, 1.000000000000000000, 0.0000000000000000000 ) ) ;
#139 = DIRECTION ( 'NONE',  ( 0.0000000000000000000, 0.0000000000000000000, 1.000000000000000000 ) ) ;
#140 = DIRECTION ( 'NONE',  ( 0.0000000000000000000, 1.000000000000000000, 0.0000000000000000000 ) ) ;
#141 = CARTESIAN_POINT ( 'NONE',  ( -5.009326287108706300E-010, 2.412507003500041800, 0.0000000000000000000 ) ) ;
#142 = AXIS2_PLACEMENT_3D ( 'NONE', #141, #140, #139 ) ;
#143 = CYLINDRICAL_SURFACE ( 'NONE', #142, 1.500000000000000700 ) ;
#144 = FACE_OUTER_BOUND ( 'NONE', #85, .T. ) ;
#145 = DIRECTION ( 'NONE',  ( 0.0000000000000000000, 0.0000000000000000000, 1.000000000000000000 ) ) ;
#146 = DIRECTION ( 'NONE',  ( 0.0000000000000000000, 1.000000000000000000, 0.0000000000000000000 ) ) ;
#147 = CARTESIAN_POINT ( 'NONE',  ( -5.009326287108706300E-010, -7.999999996500434900, 0.0000000000000000000 ) ) ;
#148 = AXIS2_PLACEMENT_3D ( 'NONE', #147, #146, #145 ) ;
#149 = CIRCLE ( 'NONE', #148, 1.500000000000000200 ) ;
#150 = CARTESIAN_POINT ( 'NONE',  ( -5.009326287108706300E-010, -16.99999999650043500, -10.00000000000000000 ) ) ;
#151 = CARTESIAN_POINT ( 'NONE',  ( -5.009326287108706300E-010, -7.999999996500434900, 3.500000000000000400 ) ) ;
#152 = CARTESIAN_POINT ( 'NONE',  ( -5.009322000986467900E-010, -7.999999996500434900, -3.500000000000000400 ) ) ;
#153 = DIRECTION ( 'NONE',  ( 0.0000000000000000000, 1.000000000000000000, 0.0000000000000000000 ) ) ;
#154 = VECTOR ( 'NONE', #153, 1000.000000000000000 ) ;
#155 = CARTESIAN_POINT ( 'NONE',  ( -5.009326287108706300E-010, 2.412507003500041800, 1.500000000000000700 ) ) ;
#156 = LINE ( 'NONE', #155, #154 ) ;
#157 = DIRECTION ( 'NONE',  ( 0.0000000000000000000, 0.0000000000000000000, 1.000000000000000000 ) ) ;
#158 = DIRECTION ( 'NONE',  ( 0.0000000000000000000, 1.000000000000000000, 0.0000000000000000000 ) ) ;
#159 = CARTESIAN_POINT ( 'NONE',  ( -5.009326287108706300E-010, 2.412507003500041800, 0.0000000000000000000 ) ) ;
#160 = AXIS2_PLACEMENT_3D ( 'NONE', #159, #158, #157 ) ;
#161 = CYLINDRICAL_SURFACE ( 'NONE', #160, 3.500000000000000400 ) ;
#162 = FACE_OUTER_BOUND ( 'NONE', #78, .T. ) ;
#163 = CARTESIAN_POINT ( 'NONE',  ( -5.009322000986467900E-010, 3.499565220943523500E-009, -3.500000000000000000 ) ) ;
#164 = DIRECTION ( 'NONE',  ( 0.0000000000000000000, 1.000000000000000000, 0.0000000000000000000 ) ) ;
#165 = VECTOR ( 'NONE', #164, 1000.000000000000000 ) ;
#166 = CARTESIAN_POINT ( 'NONE',  ( -5.009322000986467900E-010, 2.412507003500041800, -3.500000000000000400 ) ) ;
#167 = DIRECTION ( 'NONE',  ( 0.0000000000000000000, 0.0000000000000000000, 1.000000000000000000 ) ) ;
#168 = DIRECTION ( 'NONE',  ( 0.0000000000000000000, 1.000000000000000000, 0.0000000000000000000 ) ) ;
#169 = CARTESIAN_POINT ( 'NONE',  ( -5.009326287108706300E-010, -7.999999996500434900, 0.0000000000000000000 ) ) ;
#170 = AXIS2_PLACEMENT_3D ( 'NONE', #169, #168, #167 ) ;
#171 = LINE ( 'NONE', #166, #165 ) ;
#172 = CARTESIAN_POINT ( 'NONE',  ( -5.009316948673775600E-010, -0.8545060060056036700, -7.625662648456642300 ) ) ;
#173 = CARTESIAN_POINT ( 'NONE',  ( -5.009324450199175600E-010, -16.99999999650043500, -1.500000000000001100 ) ) ;
#174 = CARTESIAN_POINT ( 'NONE',  ( -5.009324450199175600E-010, -7.999999996500434900, -1.500000000000000200 ) ) ;
#175 = CARTESIAN_POINT ( 'NONE',  ( -5.009326287108706300E-010, -16.99999999650043500, 1.500000000000001100 ) ) ;
#176 = DIRECTION ( 'NONE',  ( 0.0000000000000000000, 0.0000000000000000000, 1.000000000000000000 ) ) ;
#177 = DIRECTION ( 'NONE',  ( 0.0000000000000000000, 1.000000000000000000, 0.0000000000000000000 ) ) ;
#178 = CARTESIAN_POINT ( 'NONE',  ( -5.009326287108706300E-010, -16.99999999650043500, 0.0000000000000000000 ) ) ;
#179 = AXIS2_PLACEMENT_3D ( 'NONE', #178, #177, #176 ) ;
#180 = CIRCLE ( 'NONE', #179, 1.500000000000001100 ) ;
#181 = DIRECTION ( 'NONE',  ( 0.0000000000000000000, 1.000000000000000000, 0.0000000000000000000 ) ) ;
#182 = VECTOR ( 'NONE', #181, 1000.000000000000000 ) ;
#183 = CARTESIAN_POINT ( 'NONE',  ( -5.009324450199175600E-010, 2.412507003500041800, -1.500000000000000700 ) ) ;
#184 = LINE ( 'NONE', #183, #182 ) ;
#185 = CARTESIAN_POINT ( 'NONE',  ( -5.009314041045168100E-010, -16.99999999650043500, 10.00000000000000000 ) ) ;
#186 = CARTESIAN_POINT ( 'NONE',  ( -5.009326287108706300E-010, -7.999999996500434900, 1.500000000000000200 ) ) ;
#187 = DIRECTION ( 'NONE',  ( 0.0000000000000000000, 0.0000000000000000000, 1.000000000000000000 ) ) ;
#188 = DIRECTION ( 'NONE',  ( 0.0000000000000000000, 1.000000000000000000, 0.0000000000000000000 ) ) ;
#189 = CARTESIAN_POINT ( 'NONE',  ( -5.009326287108706300E-010, -16.99999999650043500, 0.0000000000000000000 ) ) ;
#190 = AXIS2_PLACEMENT_3D ( 'NONE', #189, #188, #187 ) ;
#191 = CIRCLE ( 'NONE', #190, 10.00000000000000000 ) ;
#192 = DIRECTION ( 'NONE',  ( 1.781728652029430600E-017, -0.9893591353648533100, 0.1454939904948313900 ) ) ;
#193 = VECTOR ( 'NONE', #192, 999.9999999999998900 ) ;
#194 = CARTESIAN_POINT ( 'NONE',  ( -5.009314041045168100E-010, -16.99999999650043500, 10.00000000000000000 ) ) ;
#195 = LINE ( 'NONE', #194, #193 ) ;
#196 = DIRECTION ( 'NONE',  ( 0.0000000000000000000, -0.9893591353648533100, -0.1454939904948313900 ) ) ;
#197 = VECTOR ( 'NONE', #196, 999.9999999999998900 ) ;
#198 = CARTESIAN_POINT ( 'NONE',  ( -5.009326287108706300E-010, -16.99999999650043500, -10.00000000000000000 ) ) ;
#199 = LINE ( 'NONE', #198, #197 ) ;
#200 = AXIS2_PLACEMENT_3D ( 'NONE', #233, #230, #232 ) ;
#201 = FACE_OUTER_BOUND ( 'NONE', #3, .T. ) ;
#202 = DIRECTION ( 'NONE',  ( 0.0000000000000000000, 0.0000000000000000000, 1.000000000000000000 ) ) ;
#203 = DIRECTION ( 'NONE',  ( 0.0000000000000000000, 0.0000000000000000000, 1.000000000000000000 ) ) ;
#204 = DIRECTION ( 'NONE',  ( 0.0000000000000000000, 1.000000000000000000, 0.0000000000000000000 ) ) ;
#205 = CARTESIAN_POINT ( 'NONE',  ( -5.009326287108706300E-010, 2.412507003500041800, 0.0000000000000000000 ) ) ;
#206 = CIRCLE ( 'NONE', #289, 1.500000000000001100 ) ;
#207 = AXIS2_PLACEMENT_3D ( 'NONE', #205, #204, #203 ) ;
#208 = FACE_OUTER_BOUND ( 'NONE', #20, .T. ) ;
#209 = FACE_BOUND ( 'NONE', #16, .T. ) ;
#210 = DIRECTION ( 'NONE',  ( 0.0000000000000000000, 0.0000000000000000000, 1.000000000000000000 ) ) ;
#211 = AXIS2_PLACEMENT_3D ( 'NONE', #290, #293, #210 ) ;
#212 = DIRECTION ( 'NONE',  ( 0.0000000000000000000, 0.0000000000000000000, -1.000000000000000000 ) ) ;
#213 = DIRECTION ( 'NONE',  ( 0.0000000000000000000, -1.000000000000000000, 0.0000000000000000000 ) ) ;
#214 = CARTESIAN_POINT ( 'NONE',  ( 3.499999999499067800, -7.999999996500434900, 0.0000000000000000000 ) ) ;
#215 = AXIS2_PLACEMENT_3D ( 'NONE', #214, #213, #212 ) ;
#216 = PLANE ( 'NONE',  #215 ) ;
#217 = CARTESIAN_POINT ( 'NONE',  ( -5.009326287108706300E-010, -7.999999996500434900, 0.0000000000000000000 ) ) ;
#218 = DIRECTION ( 'NONE',  ( 0.0000000000000000000, 0.0000000000000000000, 1.000000000000000000 ) ) ;
#219 = DIRECTION ( 'NONE',  ( 0.0000000000000000000, 1.000000000000000000, 0.0000000000000000000 ) ) ;
#220 = CARTESIAN_POINT ( 'NONE',  ( -5.009326287108706300E-010, -16.99999999650043500, 0.0000000000000000000 ) ) ;
#221 = AXIS2_PLACEMENT_3D ( 'NONE', #220, #219, #218 ) ;
#222 = CIRCLE ( 'NONE', #221, 10.00000000000000000 ) ;
#223 = FACE_OUTER_BOUND ( 'NONE', #39, .T. ) ;
#224 = DIRECTION ( 'NONE',  ( 0.0000000000000000000, 0.0000000000000000000, 1.000000000000000000 ) ) ;
#225 = DIRECTION ( 'NONE',  ( 0.0000000000000000000, 1.000000000000000000, 0.0000000000000000000 ) ) ;
#226 = CARTESIAN_POINT ( 'NONE',  ( 1.499999999499068500, -16.99999999650043500, 0.0000000000000000000 ) ) ;
#227 = AXIS2_PLACEMENT_3D ( 'NONE', #226, #225, #224 ) ;
#228 = PLANE ( 'NONE',  #227 ) ;
#229 = CARTESIAN_POINT ( 'NONE',  ( -5.009326287108706300E-010, 3.499565220943523500E-009, 0.0000000000000000000 ) ) ;
#230 = DIRECTION ( 'NONE',  ( 0.0000000000000000000, 1.000000000000000000, 0.0000000000000000000 ) ) ;
#231 = DIRECTION ( 'NONE',  ( 0.0000000000000000000, 1.000000000000000000, 0.0000000000000000000 ) ) ;
#232 = DIRECTION ( 'NONE',  ( 0.0000000000000000000, 0.0000000000000000000, 1.000000000000000000 ) ) ;
#233 = CARTESIAN_POINT ( 'NONE',  ( -5.009326287108706300E-010, 2.412507003500041800, 0.0000000000000000000 ) ) ;
#234 =( LENGTH_UNIT ( ) NAMED_UNIT ( * ) SI_UNIT ( .MILLI., .METRE. ) );
#235 = CARTESIAN_POINT ( 'NONE',  ( -5.009326287108706300E-010, -0.9999999965004348100, 0.0000000000000000000 ) ) ;
#236 = AXIS2_PLACEMENT_3D ( 'NONE', #235, #138, #137 ) ;
#237 = TOROIDAL_SURFACE ( 'NONE', #236, 6.636303513091790200, 0.9999999999999995600 ) ;
#238 = FACE_OUTER_BOUND ( 'NONE', #55, .T. ) ;
#239 = CARTESIAN_POINT ( 'NONE',  ( -5.009326287108706300E-010, 3.499565220943523500E-009, 3.500000000000000000 ) ) ;
#240 = DIRECTION ( 'NONE',  ( 0.0000000000000000000, 0.0000000000000000000, 1.000000000000000000 ) ) ;
#241 = DIRECTION ( 'NONE',  ( 0.0000000000000000000, 1.000000000000000000, 0.0000000000000000000 ) ) ;
#242 = CARTESIAN_POINT ( 'NONE',  ( -5.009326287108706300E-010, 3.499565220943523500E-009, 0.0000000000000000000 ) ) ;
#243 = AXIS2_PLACEMENT_3D ( 'NONE', #242, #241, #240 ) ;
#244 = CIRCLE ( 'NONE', #243, 3.500000000000000000 ) ;
#245 = DIRECTION ( 'NONE',  ( 0.0000000000000000000, 0.0000000000000000000, 1.000000000000000000 ) ) ;
#246 = DIRECTION ( 'NONE',  ( 0.0000000000000000000, 1.000000000000000000, 0.0000000000000000000 ) ) ;
#247 = AXIS2_PLACEMENT_3D ( 'NONE', #253, #246, #245 ) ;
#248 = CIRCLE ( 'NONE', #247, 7.625662648456642300 ) ;
#249 = DIRECTION ( 'NONE',  ( 0.0000000000000000000, 0.0000000000000000000, 1.000000000000000000 ) ) ;
#250 = DIRECTION ( 'NONE',  ( 0.0000000000000000000, 1.000000000000000000, 0.0000000000000000000 ) ) ;
#251 = CARTESIAN_POINT ( 'NONE',  ( -5.009326287108706300E-010, -0.9999999965004348100, 0.0000000000000000000 ) ) ;
#252 = AXIS2_PLACEMENT_3D ( 'NONE', #251, #250, #249 ) ;
#253 = CARTESIAN_POINT ( 'NONE',  ( -5.009326287108706300E-010, -0.8545060060056036700, 0.0000000000000000000 ) ) ;
#254 = TOROIDAL_SURFACE ( 'NONE', #252, 6.636303513091790200, 0.9999999999999995600 ) ;
#255 = FACE_OUTER_BOUND ( 'NONE', #68, .T. ) ;
#256 = DIRECTION ( 'NONE',  ( 0.0000000000000000000, 0.0000000000000000000, 1.000000000000000000 ) ) ;
#257 = DIRECTION ( 'NONE',  ( -1.000000000000000000, 0.0000000000000000000, 0.0000000000000000000 ) ) ;
#258 = AXIS2_PLACEMENT_3D ( 'NONE', #264, #257, #256 ) ;
#259 = CIRCLE ( 'NONE', #258, 1.000000000000000000 ) ;
#260 = DIRECTION ( 'NONE',  ( 0.0000000000000000000, 0.0000000000000000000, -1.000000000000000000 ) ) ;
#261 = DIRECTION ( 'NONE',  ( 0.0000000000000000000, -1.000000000000000000, 0.0000000000000000000 ) ) ;
#262 = AXIS2_PLACEMENT_3D ( 'NONE', #265, #261, #260 ) ;
#263 = CONICAL_SURFACE ( 'NONE', #262, 10.00000000000000000, 0.1460122577112754100 ) ;
#264 = CARTESIAN_POINT ( 'NONE',  ( -5.009326287108706300E-010, -0.9999999965004348100, 6.636303513091790200 ) ) ;
#265 = CARTESIAN_POINT ( 'NONE',  ( -5.009326287108706300E-010, -16.99999999650043500, 0.0000000000000000000 ) ) ;
#266 = ADVANCED_BREP_SHAPE_REPRESENTATION ( 'C-30-RK-2017', ( #102, #303 ), #267 ) ;
#267 =( GEOMETRIC_REPRESENTATION_CONTEXT ( 3 ) GLOBAL_UNCERTAINTY_ASSIGNED_CONTEXT ( ( #294 ) ) GLOBAL_UNIT_ASSIGNED_CONTEXT ( ( #234, #296, #295 ) ) REPRESENTATION_CONTEXT ( 'NONE', 'WORKASPACE' ) );
#268 = AXIS2_PLACEMENT_3D ( 'NONE', #229, #231, #202 ) ;
#269 = CYLINDRICAL_SURFACE ( 'NONE', #207, 1.500000000000000700 ) ;
#270 = FACE_OUTER_BOUND ( 'NONE', #24, .T. ) ;
#271 = DIRECTION ( 'NONE',  ( 0.0000000000000000000, 0.0000000000000000000, 1.000000000000000000 ) ) ;
#272 = DIRECTION ( 'NONE',  ( 0.0000000000000000000, 1.000000000000000000, 0.0000000000000000000 ) ) ;
#273 = AXIS2_PLACEMENT_3D ( 'NONE', #217, #272, #271 ) ;
#274 = CIRCLE ( 'NONE', #273, 1.500000000000000200 ) ;
#275 = CYLINDRICAL_SURFACE ( 'NONE', #200, 3.500000000000000400 ) ;
#276 = CARTESIAN_POINT ( 'NONE',  ( -5.009326287108706300E-010, -16.99999999650043500, 0.0000000000000000000 ) ) ;
#277 = FACE_OUTER_BOUND ( 'NONE', #106, .T. ) ;
#278 = CARTESIAN_POINT ( 'NONE',  ( -5.009326287108706300E-010, -0.8545060060056036700, 7.625662648456642300 ) ) ;
#279 = DIRECTION ( 'NONE',  ( 0.0000000000000000000, 0.0000000000000000000, 1.000000000000000000 ) ) ;
#280 = DIRECTION ( 'NONE',  ( 0.0000000000000000000, 1.000000000000000000, 0.0000000000000000000 ) ) ;
#281 = CARTESIAN_POINT ( 'NONE',  ( -5.009326287108706300E-010, -0.8545060060056036700, 0.0000000000000000000 ) ) ;
#282 = AXIS2_PLACEMENT_3D ( 'NONE', #281, #280, #279 ) ;
#283 = CIRCLE ( 'NONE', #282, 7.625662648456642300 ) ;
#284 = FACE_BOUND ( 'NONE', #35, .T. ) ;
#285 = FACE_OUTER_BOUND ( 'NONE', #31, .T. ) ;
#286 = DIRECTION ( 'NONE',  ( 0.0000000000000000000, 0.0000000000000000000, 1.000000000000000000 ) ) ;
#287 = DIRECTION ( 'NONE',  ( 0.0000000000000000000, 1.000000000000000000, 0.0000000000000000000 ) ) ;
#288 = CARTESIAN_POINT ( 'NONE',  ( -5.009326287108706300E-010, -16.99999999650043500, 0.0000000000000000000 ) ) ;
#289 = AXIS2_PLACEMENT_3D ( 'NONE', #288, #287, #286 ) ;
#290 = CARTESIAN_POINT ( 'NONE',  ( -5.009326287108706300E-010, -7.999999996500434900, 0.0000000000000000000 ) ) ;
#291 = CIRCLE ( 'NONE', #211, 3.500000000000000400 ) ;
#292 = CIRCLE ( 'NONE', #268, 3.500000000000000000 ) ;
#293 = DIRECTION ( 'NONE',  ( 0.0000000000000000000, 1.000000000000000000, 0.0000000000000000000 ) ) ;
#294 = UNCERTAINTY_MEASURE_WITH_UNIT (LENGTH_MEASURE( 1.000000000000000100E-005 ), #234, 'distance_accuracy_value', 'NONE');
#295 =( NAMED_UNIT ( * ) SI_UNIT ( $, .STERADIAN. ) SOLID_ANGLE_UNIT ( ) );
#296 =( NAMED_UNIT ( * ) PLANE_ANGLE_UNIT ( ) SI_UNIT ( $, .RADIAN. ) );
#297 = DIRECTION ( 'NONE',  ( 0.0000000000000000000, 0.0000000000000000000, -1.000000000000000000 ) ) ;
#298 = DIRECTION ( 'NONE',  ( 0.0000000000000000000, -1.000000000000000000, 0.0000000000000000000 ) ) ;
#299 = AXIS2_PLACEMENT_3D ( 'NONE', #276, #298, #297 ) ;
#300 = CONICAL_SURFACE ( 'NONE', #299, 10.00000000000000000, 0.1460122577112754100 ) ;
#301 = DIRECTION ( 'NONE',  ( 0.0000000000000000000, 0.0000000000000000000, 1.000000000000000000 ) ) ;
#302 = CARTESIAN_POINT ( 'NONE',  ( 0.0000000000000000000, 0.0000000000000000000, 0.0000000000000000000 ) ) ;
#303 = AXIS2_PLACEMENT_3D ( 'NONE', #302, #301, #381 ) ;
#304 = PRODUCT_DEFINITION_SHAPE ( 'NONE', 'NONE',  #367 ) ;
#305 = PRODUCT_RELATED_PRODUCT_CATEGORY ( 'detail', '', ( #376 ) ) ;
#306 = CC_DESIGN_SECURITY_CLASSIFICATION ( #327, ( #346 ) ) ;
#307 = CC_DESIGN_APPROVAL ( #315, ( #327 ) ) ;
#308 = APPROVAL_DATE_TIME ( #309, #315 ) ;
#309 = DATE_AND_TIME ( #310, #311 ) ;
#310 = CALENDAR_DATE ( 2009, 26, 6 ) ;
#311 = LOCAL_TIME ( 16, 50, 9.000000000000000000, #312 ) ;
#312 = COORDINATED_UNIVERSAL_TIME_OFFSET ( 9, 0, .AHEAD. ) ;
#313 = APPROVAL_PERSON_ORGANIZATION ( #317, #315, #314 ) ;
#314 = APPROVAL_ROLE ( '' ) ;
#315 = APPROVAL ( #316, 'UNSPECIFIED' ) ;
#316 = APPROVAL_STATUS ( 'not_yet_approved' ) ;
#317 = PERSON_AND_ORGANIZATION ( #375, #374 ) ;
#318 = CC_DESIGN_DATE_AND_TIME_ASSIGNMENT ( #320, #319, ( #327 ) ) ;
#319 = DATE_TIME_ROLE ( 'classification_date' ) ;
#320 = DATE_AND_TIME ( #321, #322 ) ;
#321 = CALENDAR_DATE ( 2009, 26, 6 ) ;
#322 = LOCAL_TIME ( 16, 50, 9.000000000000000000, #323 ) ;
#323 = COORDINATED_UNIVERSAL_TIME_OFFSET ( 9, 0, .AHEAD. ) ;
#324 = CC_DESIGN_PERSON_AND_ORGANIZATION_ASSIGNMENT ( #326, #325, ( #327 ) ) ;
#325 = PERSON_AND_ORGANIZATION_ROLE ( 'classification_officer' ) ;
#326 = PERSON_AND_ORGANIZATION ( #375, #374 ) ;
#327 = SECURITY_CLASSIFICATION ( '', '', #328 ) ;
#328 = SECURITY_CLASSIFICATION_LEVEL ( 'unclassified' ) ;
#329 = CC_DESIGN_PERSON_AND_ORGANIZATION_ASSIGNMENT ( #331, #330, ( #346 ) ) ;
#330 = PERSON_AND_ORGANIZATION_ROLE ( 'design_supplier' ) ;
#331 = PERSON_AND_ORGANIZATION ( #375, #374 ) ;
#332 = CC_DESIGN_PERSON_AND_ORGANIZATION_ASSIGNMENT ( #334, #333, ( #346 ) ) ;
#333 = PERSON_AND_ORGANIZATION_ROLE ( 'creator' ) ;
#334 = PERSON_AND_ORGANIZATION ( #375, #374 ) ;
#335 = CC_DESIGN_APPROVAL ( #343, ( #346 ) ) ;
#336 = APPROVAL_DATE_TIME ( #337, #343 ) ;
#337 = DATE_AND_TIME ( #338, #339 ) ;
#338 = CALENDAR_DATE ( 2009, 26, 6 ) ;
#339 = LOCAL_TIME ( 16, 50, 9.000000000000000000, #340 ) ;
#340 = COORDINATED_UNIVERSAL_TIME_OFFSET ( 9, 0, .AHEAD. ) ;
#341 = APPROVAL_PERSON_ORGANIZATION ( #345, #343, #342 ) ;
#342 = APPROVAL_ROLE ( '' ) ;
#343 = APPROVAL ( #344, 'UNSPECIFIED' ) ;
#344 = APPROVAL_STATUS ( 'not_yet_approved' ) ;
#345 = PERSON_AND_ORGANIZATION ( #375, #374 ) ;
#346 = PRODUCT_DEFINITION_FORMATION_WITH_SPECIFIED_SOURCE ( 'ANY', '', #376, .NOT_KNOWN. ) ;
#347 = CC_DESIGN_DATE_AND_TIME_ASSIGNMENT ( #349, #348, ( #367 ) ) ;
#348 = DATE_TIME_ROLE ( 'creation_date' ) ;
#349 = DATE_AND_TIME ( #350, #351 ) ;
#350 = CALENDAR_DATE ( 2009, 26, 6 ) ;
#351 = LOCAL_TIME ( 16, 50, 9.000000000000000000, #352 ) ;
#352 = COORDINATED_UNIVERSAL_TIME_OFFSET ( 9, 0, .AHEAD. ) ;
#353 = CC_DESIGN_PERSON_AND_ORGANIZATION_ASSIGNMENT ( #355, #354, ( #367 ) ) ;
#354 = PERSON_AND_ORGANIZATION_ROLE ( 'creator' ) ;
#355 = PERSON_AND_ORGANIZATION ( #375, #374 ) ;
#356 = CC_DESIGN_APPROVAL ( #364, ( #367 ) ) ;
#357 = APPROVAL_DATE_TIME ( #358, #364 ) ;
#358 = DATE_AND_TIME ( #359, #360 ) ;
#359 = CALENDAR_DATE ( 2009, 26, 6 ) ;
#360 = LOCAL_TIME ( 16, 50, 9.000000000000000000, #361 ) ;
#361 = COORDINATED_UNIVERSAL_TIME_OFFSET ( 9, 0, .AHEAD. ) ;
#362 = APPROVAL_PERSON_ORGANIZATION ( #366, #364, #363 ) ;
#363 = APPROVAL_ROLE ( '' ) ;
#364 = APPROVAL ( #365, 'UNSPECIFIED' ) ;
#365 = APPROVAL_STATUS ( 'not_yet_approved' ) ;
#366 = PERSON_AND_ORGANIZATION ( #375, #374 ) ;
#367 = PRODUCT_DEFINITION ( 'UNKNOWN', '', #346, #368 ) ;
#368 = DESIGN_CONTEXT ( 'detailed design', #370, 'design' ) ;
#369 = APPLICATION_PROTOCOL_DEFINITION ( 'international standard', 'config_control_design', 1994, #370 ) ;
#370 = APPLICATION_CONTEXT ( 'configuration controlled 3d designs of mechanical parts and assemblies' ) ;
#371 = CC_DESIGN_PERSON_AND_ORGANIZATION_ASSIGNMENT ( #373, #372, ( #376 ) ) ;
#372 = PERSON_AND_ORGANIZATION_ROLE ( 'design_owner' ) ;
#373 = PERSON_AND_ORGANIZATION ( #375, #374 ) ;
#374 = ORGANIZATION ( 'UNSPECIFIED', 'UNSPECIFIED', '' ) ;
#375 = PERSON ( 'UNSPECIFIED', 'UNSPECIFIED', 'UNSPECIFIED', ('UNSPECIFIED'), ('UNSPECIFIED'), ('UNSPECIFIED') ) ;
#376 = PRODUCT ( 'C-30-RK-2017', 'C-30-RK-2017', '', ( #377 ) ) ;
#377 = MECHANICAL_CONTEXT ( 'NONE', #379, 'mechanical' ) ;
#378 = APPLICATION_PROTOCOL_DEFINITION ( 'international standard', 'config_control_design', 1994, #379 ) ;
#379 = APPLICATION_CONTEXT ( 'configuration controlled 3d designs of mechanical parts and assemblies' ) ;
#380 = SHAPE_DEFINITION_REPRESENTATION ( #304, #266 ) ;
#381 = DIRECTION ( 'NONE',  ( 1.000000000000000000, 0.0000000000000000000, 0.0000000000000000000 ) ) ;
ENDSEC;
END-ISO-10303-21;
