ISO-10303-21;
HEADER;
FILE_DESCRIPTION (( 'STEP AP203' ),
    '1' );
FILE_NAME ('C-30-RK-20-gray.STEP',
    '2009-06-29T01:32:33',
    ( '11sw' ),
    ( '^LQ»¢®ïÐ' ),
    'SwSTEP 2.0',
    'SolidWorks 2007',
    '' );
FILE_SCHEMA (( 'CONFIG_CONTROL_DESIGN' ));
ENDSEC;

DATA;
#1 = MANIFOLD_SOLID_BREP ( 'NONE', #33 ) ;
#2 = EDGE_LOOP ( 'NONE', ( #15, #148, #129, #118 ) ) ;
#3 = ORIENTED_EDGE ( 'NONE', *, *, #56, .T. ) ;
#4 = VERTEX_POINT ( 'NONE', #121 ) ;
#5 = ORIENTED_EDGE ( 'NONE', *, *, #59, .T. ) ;
#6 = ORIENTED_EDGE ( 'NONE', *, *, #56, .F. ) ;
#7 = ORIENTED_EDGE ( 'NONE', *, *, #25, .F. ) ;
#8 = ORIENTED_EDGE ( 'NONE', *, *, #39, .T. ) ;
#9 = EDGE_CURVE ( 'NONE', #147, #55, #84, .T. ) ;
#10 = ORIENTED_EDGE ( 'NONE', *, *, #39, .F. ) ;
#11 = ADVANCED_FACE ( 'NONE', ( #83 ), #73, .F. ) ;
#12 = ORIENTED_EDGE ( 'NONE', *, *, #20, .F. ) ;
#13 = ORIENTED_EDGE ( 'NONE', *, *, #102, .T. ) ;
#14 = ADVANCED_FACE ( 'NONE', ( #74 ), #128, .T. ) ;
#15 = ORIENTED_EDGE ( 'NONE', *, *, #149, .F. ) ;
#16 = EDGE_CURVE ( 'NONE', #57, #18, #124, .T. ) ;
#17 = VERTEX_POINT ( 'NONE', #87 ) ;
#18 = VERTEX_POINT ( 'NONE', #86 ) ;
#19 = ORIENTED_EDGE ( 'NONE', *, *, #142, .F. ) ;
#20 = EDGE_CURVE ( 'NONE', #66, #17, #78, .T. ) ;
#21 = ORIENTED_EDGE ( 'NONE', *, *, #132, .F. ) ;
#22 = ORIENTED_EDGE ( 'NONE', *, *, #9, .F. ) ;
#23 = ORIENTED_EDGE ( 'NONE', *, *, #63, .T. ) ;
#24 = ORIENTED_EDGE ( 'NONE', *, *, #46, .F. ) ;
#25 = EDGE_CURVE ( 'NONE', #4, #68, #96, .T. ) ;
#26 = ORIENTED_EDGE ( 'NONE', *, *, #130, .F. ) ;
#27 = ORIENTED_EDGE ( 'NONE', *, *, #16, .F. ) ;
#28 = EDGE_LOOP ( 'NONE', ( #8, #5 ) ) ;
#29 = ADVANCED_FACE ( 'NONE', ( #110 ), #120, .F. ) ;
#30 = EDGE_LOOP ( 'NONE', ( #6, #7, #42, #43 ) ) ;
#31 = ADVANCED_FACE ( 'NONE', ( #94 ), #165, .T. ) ;
#32 = EDGE_LOOP ( 'NONE', ( #21, #22, #44, #45 ) ) ;
#33 = CLOSED_SHELL ( 'NONE', ( #14, #133, #52, #140, #109, #116, #11, #51, #29, #36, #31 ) ) ;
#34 = EDGE_CURVE ( 'NONE', #131, #54, #166, .T. ) ;
#35 = EDGE_LOOP ( 'NONE', ( #38, #23 ) ) ;
#36 = ADVANCED_FACE ( 'NONE', ( #162, #161 ), #156, .F. ) ;
#37 = EDGE_LOOP ( 'NONE', ( #49, #26 ) ) ;
#38 = ORIENTED_EDGE ( 'NONE', *, *, #25, .T. ) ;
#39 = EDGE_CURVE ( 'NONE', #60, #66, #198, .T. ) ;
#40 = EDGE_LOOP ( 'NONE', ( #12, #10, #48, #50 ) ) ;
#41 = ORIENTED_EDGE ( 'NONE', *, *, #106, .T. ) ;
#42 = ORIENTED_EDGE ( 'NONE', *, *, #61, .T. ) ;
#43 = ORIENTED_EDGE ( 'NONE', *, *, #46, .T. ) ;
#44 = ORIENTED_EDGE ( 'NONE', *, *, #119, .T. ) ;
#45 = ORIENTED_EDGE ( 'NONE', *, *, #34, .T. ) ;
#46 = EDGE_CURVE ( 'NONE', #18, #57, #176, .T. ) ;
#47 = EDGE_LOOP ( 'NONE', ( #24, #27 ) ) ;
#48 = ORIENTED_EDGE ( 'NONE', *, *, #142, .T. ) ;
#49 = ORIENTED_EDGE ( 'NONE', *, *, #34, .F. ) ;
#50 = ORIENTED_EDGE ( 'NONE', *, *, #99, .T. ) ;
#51 = ADVANCED_FACE ( 'NONE', ( #195, #220 ), #185, .F. ) ;
#52 = ADVANCED_FACE ( 'NONE', ( #183 ), #171, .F. ) ;
#53 = ORIENTED_EDGE ( 'NONE', *, *, #20, .T. ) ;
#54 = VERTEX_POINT ( 'NONE', #182 ) ;
#55 = VERTEX_POINT ( 'NONE', #177 ) ;
#56 = EDGE_CURVE ( 'NONE', #68, #57, #170, .T. ) ;
#57 = VERTEX_POINT ( 'NONE', #203 ) ;
#58 = ORIENTED_EDGE ( 'NONE', *, *, #16, .T. ) ;
#59 = EDGE_CURVE ( 'NONE', #66, #60, #202, .T. ) ;
#60 = VERTEX_POINT ( 'NONE', #191 ) ;
#61 = EDGE_CURVE ( 'NONE', #4, #18, #190, .T. ) ;
#62 = ORIENTED_EDGE ( 'NONE', *, *, #63, .F. ) ;
#63 = EDGE_CURVE ( 'NONE', #68, #4, #186, .T. ) ;
#64 = ORIENTED_EDGE ( 'NONE', *, *, #65, .T. ) ;
#65 = EDGE_CURVE ( 'NONE', #17, #143, #246, .T. ) ;
#66 = VERTEX_POINT ( 'NONE', #241 ) ;
#67 = ORIENTED_EDGE ( 'NONE', *, *, #61, .F. ) ;
#68 = VERTEX_POINT ( 'NONE', #240 ) ;
#69 = AXIS2_PLACEMENT_3D ( 'NONE', #127, #126, #125 ) ;
#70 = DIRECTION ( 'NONE',  ( 0.0000000000000000000, 0.0000000000000000000, 1.000000000000000000 ) ) ;
#71 = DIRECTION ( 'NONE',  ( 0.0000000000000000000, 1.000000000000000000, 0.0000000000000000000 ) ) ;
#72 = AXIS2_PLACEMENT_3D ( 'NONE', #79, #71, #70 ) ;
#73 = CYLINDRICAL_SURFACE ( 'NONE', #72, 3.500000000000000400 ) ;
#74 = FACE_OUTER_BOUND ( 'NONE', #2, .T. ) ;
#75 = DIRECTION ( 'NONE',  ( 0.0000000000000000000, 1.000000000000000000, 0.0000000000000000000 ) ) ;
#76 = VECTOR ( 'NONE', #75, 1000.000000000000000 ) ;
#77 = CARTESIAN_POINT ( 'NONE',  ( -5.009322000986467900E-010, 2.412507003500041800, -3.500000000000000400 ) ) ;
#78 = LINE ( 'NONE', #77, #76 ) ;
#79 = CARTESIAN_POINT ( 'NONE',  ( -5.009326287108706300E-010, 2.412507003500041800, 0.0000000000000000000 ) ) ;
#80 = DIRECTION ( 'NONE',  ( 0.0000000000000000000, 0.0000000000000000000, 1.000000000000000000 ) ) ;
#81 = DIRECTION ( 'NONE',  ( 0.0000000000000000000, 1.000000000000000000, 0.0000000000000000000 ) ) ;
#82 = AXIS2_PLACEMENT_3D ( 'NONE', #85, #81, #80 ) ;
#83 = FACE_OUTER_BOUND ( 'NONE', #40, .T. ) ;
#84 = CIRCLE ( 'NONE', #82, 8.174083544311386600 ) ;
#85 = CARTESIAN_POINT ( 'NONE',  ( -5.009326287108706300E-010, -1.044501262368737500, 0.0000000000000000000 ) ) ;
#86 = CARTESIAN_POINT ( 'NONE',  ( -5.009326287108706300E-010, -6.999999996500434000, 2.000000000000000000 ) ) ;
#87 = CARTESIAN_POINT ( 'NONE',  ( -5.009322000986467900E-010, 3.499565220943523500E-009, -3.500000000000000000 ) ) ;
#88 = DIRECTION ( 'NONE',  ( 0.0000000000000000000, 0.0000000000000000000, 1.000000000000000000 ) ) ;
#89 = DIRECTION ( 'NONE',  ( 0.0000000000000000000, 1.000000000000000000, 0.0000000000000000000 ) ) ;
#90 = DIRECTION ( 'NONE',  ( 0.0000000000000000000, 0.0000000000000000000, -1.000000000000000000 ) ) ;
#91 = DIRECTION ( 'NONE',  ( 0.0000000000000000000, 0.0000000000000000000, 1.000000000000000000 ) ) ;
#92 = DIRECTION ( 'NONE',  ( 0.0000000000000000000, 1.000000000000000000, 0.0000000000000000000 ) ) ;
#93 = AXIS2_PLACEMENT_3D ( 'NONE', #97, #92, #91 ) ;
#94 = FACE_OUTER_BOUND ( 'NONE', #32, .T. ) ;
#95 = AXIS2_PLACEMENT_3D ( 'NONE', #113, #112, #111 ) ;
#96 = CIRCLE ( 'NONE', #95, 2.000000000000000900 ) ;
#97 = CARTESIAN_POINT ( 'NONE',  ( -5.009326287108706300E-010, 2.412507003500041800, 0.0000000000000000000 ) ) ;
#98 = ORIENTED_EDGE ( 'NONE', *, *, #99, .F. ) ;
#99 = EDGE_CURVE ( 'NONE', #143, #17, #238, .T. ) ;
#100 = ORIENTED_EDGE ( 'NONE', *, *, #65, .F. ) ;
#101 = EDGE_LOOP ( 'NONE', ( #41, #13 ) ) ;
#102 = EDGE_CURVE ( 'NONE', #135, #137, #233, .T. ) ;
#103 = ORIENTED_EDGE ( 'NONE', *, *, #108, .T. ) ;
#104 = ORIENTED_EDGE ( 'NONE', *, *, #102, .F. ) ;
#105 = ORIENTED_EDGE ( 'NONE', *, *, #9, .T. ) ;
#106 = EDGE_CURVE ( 'NONE', #137, #135, #228, .T. ) ;
#107 = ORIENTED_EDGE ( 'NONE', *, *, #108, .F. ) ;
#108 = EDGE_CURVE ( 'NONE', #55, #137, #219, .T. ) ;
#109 = ADVANCED_FACE ( 'NONE', ( #215 ), #214, .T. ) ;
#110 = FACE_OUTER_BOUND ( 'NONE', #30, .T. ) ;
#111 = DIRECTION ( 'NONE',  ( 0.0000000000000000000, 0.0000000000000000000, 1.000000000000000000 ) ) ;
#112 = DIRECTION ( 'NONE',  ( 0.0000000000000000000, 1.000000000000000000, 0.0000000000000000000 ) ) ;
#113 = CARTESIAN_POINT ( 'NONE',  ( -5.009326287108706300E-010, -11.99999999650043500, 0.0000000000000000000 ) ) ;
#114 = EDGE_LOOP ( 'NONE', ( #115, #53, #64, #19 ) ) ;
#115 = ORIENTED_EDGE ( 'NONE', *, *, #59, .F. ) ;
#116 = ADVANCED_FACE ( 'NONE', ( #208, #207 ), #213, .F. ) ;
#117 = EDGE_LOOP ( 'NONE', ( #98, #100 ) ) ;
#118 = ORIENTED_EDGE ( 'NONE', *, *, #119, .F. ) ;
#119 = EDGE_CURVE ( 'NONE', #147, #131, #380, .T. ) ;
#120 = CYLINDRICAL_SURFACE ( 'NONE', #93, 2.000000000000000400 ) ;
#121 = CARTESIAN_POINT ( 'NONE',  ( -5.009326287108706300E-010, -11.99999999650043500, 2.000000000000000900 ) ) ;
#122 = CARTESIAN_POINT ( 'NONE',  ( -5.009326287108706300E-010, -6.999999996500434000, 0.0000000000000000000 ) ) ;
#123 = AXIS2_PLACEMENT_3D ( 'NONE', #122, #89, #88 ) ;
#124 = CIRCLE ( 'NONE', #123, 2.000000000000000000 ) ;
#125 = DIRECTION ( 'NONE',  ( 0.0000000000000000000, 0.0000000000000000000, -1.000000000000000000 ) ) ;
#126 = DIRECTION ( 'NONE',  ( 0.0000000000000000000, -1.000000000000000000, 0.0000000000000000000 ) ) ;
#127 = CARTESIAN_POINT ( 'NONE',  ( -5.009326287108706300E-010, -11.99999999650043500, 0.0000000000000000000 ) ) ;
#128 = CONICAL_SURFACE ( 'NONE', #69, 10.00000000000000000, 0.1651486774146266900 ) ;
#129 = ORIENTED_EDGE ( 'NONE', *, *, #130, .T. ) ;
#130 = EDGE_CURVE ( 'NONE', #54, #131, #339, .T. ) ;
#131 = VERTEX_POINT ( 'NONE', #280 ) ;
#132 = EDGE_CURVE ( 'NONE', #55, #54, #363, .T. ) ;
#133 = ADVANCED_FACE ( 'NONE', ( #357 ), #276, .F. ) ;
#134 = EDGE_LOOP ( 'NONE', ( #62, #3, #58, #67 ) ) ;
#135 = VERTEX_POINT ( 'NONE', #277 ) ;
#136 = EDGE_CURVE ( 'NONE', #147, #135, #273, .T. ) ;
#137 = VERTEX_POINT ( 'NONE', #268 ) ;
#138 = ORIENTED_EDGE ( 'NONE', *, *, #136, .T. ) ;
#139 = ORIENTED_EDGE ( 'NONE', *, *, #149, .T. ) ;
#140 = ADVANCED_FACE ( 'NONE', ( #284 ), #281, .T. ) ;
#141 = EDGE_LOOP ( 'NONE', ( #139, #138, #146, #107 ) ) ;
#142 = EDGE_CURVE ( 'NONE', #60, #143, #282, .T. ) ;
#143 = VERTEX_POINT ( 'NONE', #345 ) ;
#144 = EDGE_LOOP ( 'NONE', ( #145, #105, #103, #104 ) ) ;
#145 = ORIENTED_EDGE ( 'NONE', *, *, #136, .F. ) ;
#146 = ORIENTED_EDGE ( 'NONE', *, *, #106, .F. ) ;
#147 = VERTEX_POINT ( 'NONE', #346 ) ;
#148 = ORIENTED_EDGE ( 'NONE', *, *, #132, .T. ) ;
#149 = EDGE_CURVE ( 'NONE', #55, #147, #295, .T. ) ;
#150 = DIRECTION ( 'NONE',  ( 0.0000000000000000000, 0.0000000000000000000, 1.000000000000000000 ) ) ;
#151 = DIRECTION ( 'NONE',  ( 0.0000000000000000000, 1.000000000000000000, 0.0000000000000000000 ) ) ;
#152 = CARTESIAN_POINT ( 'NONE',  ( -5.009326287108706300E-010, -11.99999999650043500, 0.0000000000000000000 ) ) ;
#153 = AXIS2_PLACEMENT_3D ( 'NONE', #152, #151, #150 ) ;
#154 = CARTESIAN_POINT ( 'NONE',  ( 1.999999999499068300, -11.99999999650043500, 0.0000000000000000000 ) ) ;
#155 = AXIS2_PLACEMENT_3D ( 'NONE', #154, #164, #163 ) ;
#156 = PLANE ( 'NONE',  #155 ) ;
#157 = DIRECTION ( 'NONE',  ( 0.0000000000000000000, 0.0000000000000000000, -1.000000000000000000 ) ) ;
#158 = DIRECTION ( 'NONE',  ( 0.0000000000000000000, -1.000000000000000000, 0.0000000000000000000 ) ) ;
#159 = AXIS2_PLACEMENT_3D ( 'NONE', #160, #158, #157 ) ;
#160 = CARTESIAN_POINT ( 'NONE',  ( -5.009326287108706300E-010, -11.99999999650043500, 0.0000000000000000000 ) ) ;
#161 = FACE_BOUND ( 'NONE', #35, .T. ) ;
#162 = FACE_OUTER_BOUND ( 'NONE', #37, .T. ) ;
#163 = DIRECTION ( 'NONE',  ( 0.0000000000000000000, 0.0000000000000000000, 1.000000000000000000 ) ) ;
#164 = DIRECTION ( 'NONE',  ( 0.0000000000000000000, 1.000000000000000000, 0.0000000000000000000 ) ) ;
#165 = CONICAL_SURFACE ( 'NONE', #159, 10.00000000000000000, 0.1651486774146266900 ) ;
#166 = CIRCLE ( 'NONE', #153, 10.00000000000000000 ) ;
#167 = DIRECTION ( 'NONE',  ( 0.0000000000000000000, 1.000000000000000000, 0.0000000000000000000 ) ) ;
#168 = VECTOR ( 'NONE', #167, 1000.000000000000000 ) ;
#169 = CARTESIAN_POINT ( 'NONE',  ( -5.009323837895998700E-010, 2.412507003500041800, -2.000000000000000400 ) ) ;
#170 = LINE ( 'NONE', #169, #168 ) ;
#171 = CYLINDRICAL_SURFACE ( 'NONE', #181, 3.500000000000000400 ) ;
#172 = DIRECTION ( 'NONE',  ( 0.0000000000000000000, 0.0000000000000000000, -1.000000000000000000 ) ) ;
#173 = DIRECTION ( 'NONE',  ( 0.0000000000000000000, -1.000000000000000000, 0.0000000000000000000 ) ) ;
#174 = CARTESIAN_POINT ( 'NONE',  ( 3.499999999499067800, -6.999999996500434900, 0.0000000000000000000 ) ) ;
#175 = AXIS2_PLACEMENT_3D ( 'NONE', #174, #173, #172 ) ;
#176 = CIRCLE ( 'NONE', #194, 2.000000000000000000 ) ;
#177 = CARTESIAN_POINT ( 'NONE',  ( -5.009326287108706300E-010, -1.044501262368737500, 8.174083544311386600 ) ) ;
#178 = DIRECTION ( 'NONE',  ( 0.0000000000000000000, 0.0000000000000000000, 1.000000000000000000 ) ) ;
#179 = DIRECTION ( 'NONE',  ( 0.0000000000000000000, 1.000000000000000000, 0.0000000000000000000 ) ) ;
#180 = CARTESIAN_POINT ( 'NONE',  ( -5.009326287108706300E-010, 2.412507003500041800, 0.0000000000000000000 ) ) ;
#181 = AXIS2_PLACEMENT_3D ( 'NONE', #180, #179, #178 ) ;
#182 = CARTESIAN_POINT ( 'NONE',  ( -5.009314041045168100E-010, -11.99999999650043500, 10.00000000000000000 ) ) ;
#183 = FACE_OUTER_BOUND ( 'NONE', #114, .T. ) ;
#184 = CARTESIAN_POINT ( 'NONE',  ( -5.009326287108706300E-010, -6.999999996500434000, 0.0000000000000000000 ) ) ;
#185 = PLANE ( 'NONE',  #175 ) ;
#186 = CIRCLE ( 'NONE', #250, 2.000000000000000900 ) ;
#187 = DIRECTION ( 'NONE',  ( 0.0000000000000000000, 1.000000000000000000, 0.0000000000000000000 ) ) ;
#188 = VECTOR ( 'NONE', #187, 1000.000000000000000 ) ;
#189 = CARTESIAN_POINT ( 'NONE',  ( -5.009326287108706300E-010, 2.412507003500041800, 2.000000000000000400 ) ) ;
#190 = LINE ( 'NONE', #189, #188 ) ;
#191 = CARTESIAN_POINT ( 'NONE',  ( -5.009326287108706300E-010, -6.999999996500434000, 3.500000000000000400 ) ) ;
#192 = DIRECTION ( 'NONE',  ( 0.0000000000000000000, 0.0000000000000000000, 1.000000000000000000 ) ) ;
#193 = DIRECTION ( 'NONE',  ( 0.0000000000000000000, 1.000000000000000000, 0.0000000000000000000 ) ) ;
#194 = AXIS2_PLACEMENT_3D ( 'NONE', #184, #222, #221 ) ;
#195 = FACE_BOUND ( 'NONE', #47, .T. ) ;
#196 = DIRECTION ( 'NONE',  ( 0.0000000000000000000, 0.0000000000000000000, 1.000000000000000000 ) ) ;
#197 = CARTESIAN_POINT ( 'NONE',  ( -5.009326287108706300E-010, -6.999999996500434000, 0.0000000000000000000 ) ) ;
#198 = CIRCLE ( 'NONE', #223, 3.500000000000000400 ) ;
#199 = DIRECTION ( 'NONE',  ( 0.0000000000000000000, 1.000000000000000000, 0.0000000000000000000 ) ) ;
#200 = CARTESIAN_POINT ( 'NONE',  ( -5.009326287108706300E-010, -6.999999996500434000, 0.0000000000000000000 ) ) ;
#201 = AXIS2_PLACEMENT_3D ( 'NONE', #200, #199, #192 ) ;
#202 = CIRCLE ( 'NONE', #201, 3.500000000000000400 ) ;
#203 = CARTESIAN_POINT ( 'NONE',  ( -5.009323837895998700E-010, -6.999999996500434000, -2.000000000000000000 ) ) ;
#204 = DIRECTION ( 'NONE',  ( 0.0000000000000000000, -1.000000000000000000, 0.0000000000000000000 ) ) ;
#205 = CARTESIAN_POINT ( 'NONE',  ( 6.941091139020272700, 3.499565220943523500E-009, 0.0000000000000000000 ) ) ;
#206 = AXIS2_PLACEMENT_3D ( 'NONE', #205, #204, #90 ) ;
#207 = FACE_OUTER_BOUND ( 'NONE', #101, .T. ) ;
#208 = FACE_BOUND ( 'NONE', #117, .T. ) ;
#209 = DIRECTION ( 'NONE',  ( 0.0000000000000000000, 0.0000000000000000000, 1.000000000000000000 ) ) ;
#210 = DIRECTION ( 'NONE',  ( 0.0000000000000000000, 1.000000000000000000, 0.0000000000000000000 ) ) ;
#211 = CARTESIAN_POINT ( 'NONE',  ( -5.009326287108706300E-010, -1.249999996500434700, 0.0000000000000000000 ) ) ;
#212 = AXIS2_PLACEMENT_3D ( 'NONE', #211, #210, #209 ) ;
#213 = PLANE ( 'NONE',  #206 ) ;
#214 = TOROIDAL_SURFACE ( 'NONE', #212, 6.941091139521205400, 1.250000000000000700 ) ;
#215 = FACE_OUTER_BOUND ( 'NONE', #144, .T. ) ;
#216 = DIRECTION ( 'NONE',  ( 0.0000000000000000000, 0.0000000000000000000, 1.000000000000000000 ) ) ;
#217 = DIRECTION ( 'NONE',  ( -1.000000000000000000, 0.0000000000000000000, 0.0000000000000000000 ) ) ;
#218 = AXIS2_PLACEMENT_3D ( 'NONE', #229, #217, #216 ) ;
#219 = CIRCLE ( 'NONE', #218, 1.250000000000001100 ) ;
#220 = FACE_OUTER_BOUND ( 'NONE', #28, .T. ) ;
#221 = DIRECTION ( 'NONE',  ( 0.0000000000000000000, 0.0000000000000000000, 1.000000000000000000 ) ) ;
#222 = DIRECTION ( 'NONE',  ( 0.0000000000000000000, 1.000000000000000000, 0.0000000000000000000 ) ) ;
#223 = AXIS2_PLACEMENT_3D ( 'NONE', #197, #193, #196 ) ;
#224 = DIRECTION ( 'NONE',  ( 0.0000000000000000000, 0.0000000000000000000, 1.000000000000000000 ) ) ;
#225 = DIRECTION ( 'NONE',  ( 0.0000000000000000000, 1.000000000000000000, 0.0000000000000000000 ) ) ;
#226 = CARTESIAN_POINT ( 'NONE',  ( -5.009326287108706300E-010, 3.499565220943523500E-009, 0.0000000000000000000 ) ) ;
#227 = AXIS2_PLACEMENT_3D ( 'NONE', #226, #225, #224 ) ;
#228 = CIRCLE ( 'NONE', #227, 6.941091139521205400 ) ;
#229 = CARTESIAN_POINT ( 'NONE',  ( -5.009326287108706300E-010, -1.249999996500434700, 6.941091139521205400 ) ) ;
#230 = DIRECTION ( 'NONE',  ( 0.0000000000000000000, 0.0000000000000000000, 1.000000000000000000 ) ) ;
#231 = DIRECTION ( 'NONE',  ( 0.0000000000000000000, 1.000000000000000000, 0.0000000000000000000 ) ) ;
#232 = AXIS2_PLACEMENT_3D ( 'NONE', #239, #231, #230 ) ;
#233 = CIRCLE ( 'NONE', #232, 6.941091139521205400 ) ;
#234 = DIRECTION ( 'NONE',  ( 0.0000000000000000000, 0.0000000000000000000, 1.000000000000000000 ) ) ;
#235 = DIRECTION ( 'NONE',  ( 0.0000000000000000000, 1.000000000000000000, 0.0000000000000000000 ) ) ;
#236 = CARTESIAN_POINT ( 'NONE',  ( -5.009326287108706300E-010, 3.499565220943523500E-009, 0.0000000000000000000 ) ) ;
#237 = AXIS2_PLACEMENT_3D ( 'NONE', #236, #235, #234 ) ;
#238 = CIRCLE ( 'NONE', #237, 3.500000000000000000 ) ;
#239 = CARTESIAN_POINT ( 'NONE',  ( -5.009326287108706300E-010, 3.499565220943523500E-009, 0.0000000000000000000 ) ) ;
#240 = CARTESIAN_POINT ( 'NONE',  ( -5.009323837895998700E-010, -11.99999999650043500, -2.000000000000000900 ) ) ;
#241 = CARTESIAN_POINT ( 'NONE',  ( -5.009322000986467900E-010, -6.999999996500434000, -3.500000000000000400 ) ) ;
#242 = DIRECTION ( 'NONE',  ( 0.0000000000000000000, 0.0000000000000000000, 1.000000000000000000 ) ) ;
#243 = DIRECTION ( 'NONE',  ( 0.0000000000000000000, 1.000000000000000000, 0.0000000000000000000 ) ) ;
#244 = CARTESIAN_POINT ( 'NONE',  ( -5.009326287108706300E-010, 3.499565220943523500E-009, 0.0000000000000000000 ) ) ;
#245 = AXIS2_PLACEMENT_3D ( 'NONE', #244, #243, #242 ) ;
#246 = CIRCLE ( 'NONE', #245, 3.500000000000000000 ) ;
#247 = DIRECTION ( 'NONE',  ( 0.0000000000000000000, 0.0000000000000000000, 1.000000000000000000 ) ) ;
#248 = DIRECTION ( 'NONE',  ( 0.0000000000000000000, 1.000000000000000000, 0.0000000000000000000 ) ) ;
#249 = CARTESIAN_POINT ( 'NONE',  ( -5.009326287108706300E-010, -11.99999999650043500, 0.0000000000000000000 ) ) ;
#250 = AXIS2_PLACEMENT_3D ( 'NONE', #249, #248, #247 ) ;
#251 = PRODUCT_DEFINITION_SHAPE ( 'NONE', 'NONE',  #260 ) ;
#252 = CALENDAR_DATE ( 2009, 29, 6 ) ;
#253 = LOCAL_TIME ( 10, 32, 33.00000000000000000, #254 ) ;
#254 = COORDINATED_UNIVERSAL_TIME_OFFSET ( 9, 0, .AHEAD. ) ;
#255 = APPROVAL_PERSON_ORGANIZATION ( #259, #257, #256 ) ;
#256 = APPROVAL_ROLE ( '' ) ;
#257 = APPROVAL ( #258, 'UNSPECIFIED' ) ;
#258 = APPROVAL_STATUS ( 'not_yet_approved' ) ;
#259 = PERSON_AND_ORGANIZATION ( #350, #267 ) ;
#260 = PRODUCT_DEFINITION ( 'UNKNOWN', '', #367, #261 ) ;
#261 = DESIGN_CONTEXT ( 'detailed design', #263, 'design' ) ;
#262 = APPLICATION_PROTOCOL_DEFINITION ( 'international standard', 'config_control_design', 1994, #263 ) ;
#263 = APPLICATION_CONTEXT ( 'configuration controlled 3d designs of mechanical parts and assemblies' ) ;
#264 = CC_DESIGN_PERSON_AND_ORGANIZATION_ASSIGNMENT ( #266, #265, ( #351 ) ) ;
#265 = PERSON_AND_ORGANIZATION_ROLE ( 'design_owner' ) ;
#266 = PERSON_AND_ORGANIZATION ( #350, #267 ) ;
#267 = ORGANIZATION ( 'UNSPECIFIED', 'UNSPECIFIED', '' ) ;
#268 = CARTESIAN_POINT ( 'NONE',  ( -5.009326287108706300E-010, 3.499565220943523500E-009, 6.941091139521205400 ) ) ;
#269 = DIRECTION ( 'NONE',  ( 1.224606354016246700E-016, 0.0000000000000000000, -1.000000000000000000 ) ) ;
#270 = DIRECTION ( 'NONE',  ( 1.000000000000000000, 0.0000000000000000000, 1.224606353822377300E-016 ) ) ;
#271 = CARTESIAN_POINT ( 'NONE',  ( -5.009317787004394100E-010, -1.249999996500434700, -6.941091139521205400 ) ) ;
#272 = AXIS2_PLACEMENT_3D ( 'NONE', #271, #270, #269 ) ;
#273 = CIRCLE ( 'NONE', #272, 1.250000000000001100 ) ;
#274 = CARTESIAN_POINT ( 'NONE',  ( -5.009326287108706300E-010, 2.412507003500041800, 0.0000000000000000000 ) ) ;
#275 = AXIS2_PLACEMENT_3D ( 'NONE', #274, #362, #361 ) ;
#276 = CYLINDRICAL_SURFACE ( 'NONE', #275, 2.000000000000000400 ) ;
#277 = CARTESIAN_POINT ( 'NONE',  ( -5.009317032039227700E-010, 3.499565220943523500E-009, -6.941091139521205400 ) ) ;
#278 = CARTESIAN_POINT ( 'NONE',  ( -5.009326287108706300E-010, -11.99999999650043500, 0.0000000000000000000 ) ) ;
#279 = AXIS2_PLACEMENT_3D ( 'NONE', #278, #356, #355 ) ;
#280 = CARTESIAN_POINT ( 'NONE',  ( -5.009326287108706300E-010, -11.99999999650043500, -10.00000000000000000 ) ) ;
#281 = TOROIDAL_SURFACE ( 'NONE', #283, 6.941091139521205400, 1.250000000000000700 ) ;
#282 = LINE ( 'NONE', #349, #348 ) ;
#283 = AXIS2_PLACEMENT_3D ( 'NONE', #287, #286, #285 ) ;
#284 = FACE_OUTER_BOUND ( 'NONE', #141, .T. ) ;
#285 = DIRECTION ( 'NONE',  ( 0.0000000000000000000, 0.0000000000000000000, 1.000000000000000000 ) ) ;
#286 = DIRECTION ( 'NONE',  ( 0.0000000000000000000, 1.000000000000000000, 0.0000000000000000000 ) ) ;
#287 = CARTESIAN_POINT ( 'NONE',  ( -5.009326287108706300E-010, -1.249999996500434700, 0.0000000000000000000 ) ) ;
#288 = UNCERTAINTY_MEASURE_WITH_UNIT (LENGTH_MEASURE( 1.000000000000000100E-005 ), #381, 'distance_accuracy_value', 'NONE');
#289 =( NAMED_UNIT ( * ) SI_UNIT ( $, .STERADIAN. ) SOLID_ANGLE_UNIT ( ) );
#290 =( NAMED_UNIT ( * ) PLANE_ANGLE_UNIT ( ) SI_UNIT ( $, .RADIAN. ) );
#291 = DIRECTION ( 'NONE',  ( 0.0000000000000000000, 0.0000000000000000000, 1.000000000000000000 ) ) ;
#292 = DIRECTION ( 'NONE',  ( 0.0000000000000000000, 1.000000000000000000, 0.0000000000000000000 ) ) ;
#293 = CARTESIAN_POINT ( 'NONE',  ( -5.009326287108706300E-010, -1.044501262368737500, 0.0000000000000000000 ) ) ;
#294 = AXIS2_PLACEMENT_3D ( 'NONE', #293, #292, #291 ) ;
#295 = CIRCLE ( 'NONE', #294, 8.174083544311386600 ) ;
#296 = CARTESIAN_POINT ( 'NONE',  ( 0.0000000000000000000, 0.0000000000000000000, 0.0000000000000000000 ) ) ;
#297 = SHAPE_DEFINITION_REPRESENTATION ( #251, #343 ) ;
#298 = PRODUCT_RELATED_PRODUCT_CATEGORY ( 'detail', '', ( #351 ) ) ;
#299 = CC_DESIGN_SECURITY_CLASSIFICATION ( #320, ( #367 ) ) ;
#300 = CC_DESIGN_APPROVAL ( #308, ( #320 ) ) ;
#301 = APPROVAL_DATE_TIME ( #302, #308 ) ;
#302 = DATE_AND_TIME ( #303, #304 ) ;
#303 = CALENDAR_DATE ( 2009, 29, 6 ) ;
#304 = LOCAL_TIME ( 10, 32, 33.00000000000000000, #305 ) ;
#305 = COORDINATED_UNIVERSAL_TIME_OFFSET ( 9, 0, .AHEAD. ) ;
#306 = APPROVAL_PERSON_ORGANIZATION ( #310, #308, #307 ) ;
#307 = APPROVAL_ROLE ( '' ) ;
#308 = APPROVAL ( #309, 'UNSPECIFIED' ) ;
#309 = APPROVAL_STATUS ( 'not_yet_approved' ) ;
#310 = PERSON_AND_ORGANIZATION ( #350, #267 ) ;
#311 = CC_DESIGN_DATE_AND_TIME_ASSIGNMENT ( #313, #312, ( #320 ) ) ;
#312 = DATE_TIME_ROLE ( 'classification_date' ) ;
#313 = DATE_AND_TIME ( #314, #315 ) ;
#314 = CALENDAR_DATE ( 2009, 29, 6 ) ;
#315 = LOCAL_TIME ( 10, 32, 33.00000000000000000, #316 ) ;
#316 = COORDINATED_UNIVERSAL_TIME_OFFSET ( 9, 0, .AHEAD. ) ;
#317 = CC_DESIGN_PERSON_AND_ORGANIZATION_ASSIGNMENT ( #319, #318, ( #320 ) ) ;
#318 = PERSON_AND_ORGANIZATION_ROLE ( 'classification_officer' ) ;
#319 = PERSON_AND_ORGANIZATION ( #350, #267 ) ;
#320 = SECURITY_CLASSIFICATION ( '', '', #321 ) ;
#321 = SECURITY_CLASSIFICATION_LEVEL ( 'unclassified' ) ;
#322 = CC_DESIGN_PERSON_AND_ORGANIZATION_ASSIGNMENT ( #324, #323, ( #367 ) ) ;
#323 = PERSON_AND_ORGANIZATION_ROLE ( 'design_supplier' ) ;
#324 = PERSON_AND_ORGANIZATION ( #350, #267 ) ;
#325 = CC_DESIGN_PERSON_AND_ORGANIZATION_ASSIGNMENT ( #327, #326, ( #367 ) ) ;
#326 = PERSON_AND_ORGANIZATION_ROLE ( 'creator' ) ;
#327 = PERSON_AND_ORGANIZATION ( #350, #267 ) ;
#328 = CC_DESIGN_APPROVAL ( #364, ( #367 ) ) ;
#329 = APPROVAL_DATE_TIME ( #330, #364 ) ;
#330 = DATE_AND_TIME ( #331, #332 ) ;
#331 = CALENDAR_DATE ( 2009, 29, 6 ) ;
#332 = LOCAL_TIME ( 10, 32, 33.00000000000000000, #333 ) ;
#333 = COORDINATED_UNIVERSAL_TIME_OFFSET ( 9, 0, .AHEAD. ) ;
#334 = APPROVAL_PERSON_ORGANIZATION ( #366, #364, #335 ) ;
#335 = APPROVAL_ROLE ( '' ) ;
#336 = DIRECTION ( 'NONE',  ( 1.000000000000000000, 0.0000000000000000000, 0.0000000000000000000 ) ) ;
#337 = DIRECTION ( 'NONE',  ( 0.0000000000000000000, 0.0000000000000000000, 1.000000000000000000 ) ) ;
#338 = AXIS2_PLACEMENT_3D ( 'NONE', #296, #337, #336 ) ;
#339 = CIRCLE ( 'NONE', #279, 10.00000000000000000 ) ;
#340 = VECTOR ( 'NONE', #341, 1000.000000000000000 ) ;
#341 = DIRECTION ( 'NONE',  ( 0.0000000000000000000, -0.9863939238321437500, -0.1643989873053571000 ) ) ;
#342 = CARTESIAN_POINT ( 'NONE',  ( -5.009326287108706300E-010, -11.99999999650043500, -10.00000000000000000 ) ) ;
#343 = ADVANCED_BREP_SHAPE_REPRESENTATION ( 'C-30-RK-20-gray', ( #1, #338 ), #344 ) ;
#344 =( GEOMETRIC_REPRESENTATION_CONTEXT ( 3 ) GLOBAL_UNCERTAINTY_ASSIGNED_CONTEXT ( ( #288 ) ) GLOBAL_UNIT_ASSIGNED_CONTEXT ( ( #381, #290, #289 ) ) REPRESENTATION_CONTEXT ( 'NONE', 'WORKASPACE' ) );
#345 = CARTESIAN_POINT ( 'NONE',  ( -5.009326287108706300E-010, 3.499565220943523500E-009, 3.500000000000000000 ) ) ;
#346 = CARTESIAN_POINT ( 'NONE',  ( -5.009316277074060300E-010, -1.044501262368737500, -8.174083544311386600 ) ) ;
#347 = DIRECTION ( 'NONE',  ( 0.0000000000000000000, 1.000000000000000000, 0.0000000000000000000 ) ) ;
#348 = VECTOR ( 'NONE', #347, 1000.000000000000000 ) ;
#349 = CARTESIAN_POINT ( 'NONE',  ( -5.009326287108706300E-010, 2.412507003500041800, 3.500000000000000400 ) ) ;
#350 = PERSON ( 'UNSPECIFIED', 'UNSPECIFIED', 'UNSPECIFIED', ('UNSPECIFIED'), ('UNSPECIFIED'), ('UNSPECIFIED') ) ;
#351 = PRODUCT ( 'C-30-RK-20-gray', 'C-30-RK-20-gray', '', ( #352 ) ) ;
#352 = MECHANICAL_CONTEXT ( 'NONE', #354, 'mechanical' ) ;
#353 = APPLICATION_PROTOCOL_DEFINITION ( 'international standard', 'config_control_design', 1994, #354 ) ;
#354 = APPLICATION_CONTEXT ( 'configuration controlled 3d designs of mechanical parts and assemblies' ) ;
#355 = DIRECTION ( 'NONE',  ( 0.0000000000000000000, 0.0000000000000000000, 1.000000000000000000 ) ) ;
#356 = DIRECTION ( 'NONE',  ( 0.0000000000000000000, 1.000000000000000000, 0.0000000000000000000 ) ) ;
#357 = FACE_OUTER_BOUND ( 'NONE', #134, .T. ) ;
#358 = DIRECTION ( 'NONE',  ( 2.013240444161046400E-017, -0.9863939238321437500, 0.1643989873053571000 ) ) ;
#359 = VECTOR ( 'NONE', #358, 1000.000000000000000 ) ;
#360 = CARTESIAN_POINT ( 'NONE',  ( -5.009314041045168100E-010, -11.99999999650043500, 10.00000000000000000 ) ) ;
#361 = DIRECTION ( 'NONE',  ( 0.0000000000000000000, 0.0000000000000000000, 1.000000000000000000 ) ) ;
#362 = DIRECTION ( 'NONE',  ( 0.0000000000000000000, 1.000000000000000000, 0.0000000000000000000 ) ) ;
#363 = LINE ( 'NONE', #360, #359 ) ;
#364 = APPROVAL ( #365, 'UNSPECIFIED' ) ;
#365 = APPROVAL_STATUS ( 'not_yet_approved' ) ;
#366 = PERSON_AND_ORGANIZATION ( #350, #267 ) ;
#367 = PRODUCT_DEFINITION_FORMATION_WITH_SPECIFIED_SOURCE ( 'ANY', '', #351, .NOT_KNOWN. ) ;
#368 = CC_DESIGN_DATE_AND_TIME_ASSIGNMENT ( #370, #369, ( #260 ) ) ;
#369 = DATE_TIME_ROLE ( 'creation_date' ) ;
#370 = DATE_AND_TIME ( #371, #372 ) ;
#371 = CALENDAR_DATE ( 2009, 29, 6 ) ;
#372 = LOCAL_TIME ( 10, 32, 33.00000000000000000, #373 ) ;
#373 = COORDINATED_UNIVERSAL_TIME_OFFSET ( 9, 0, .AHEAD. ) ;
#374 = CC_DESIGN_PERSON_AND_ORGANIZATION_ASSIGNMENT ( #376, #375, ( #260 ) ) ;
#375 = PERSON_AND_ORGANIZATION_ROLE ( 'creator' ) ;
#376 = PERSON_AND_ORGANIZATION ( #350, #267 ) ;
#377 = CC_DESIGN_APPROVAL ( #257, ( #260 ) ) ;
#378 = APPROVAL_DATE_TIME ( #379, #257 ) ;
#379 = DATE_AND_TIME ( #252, #253 ) ;
#380 = LINE ( 'NONE', #342, #340 ) ;
#381 =( LENGTH_UNIT ( ) NAMED_UNIT ( * ) SI_UNIT ( .MILLI., .METRE. ) );
ENDSEC;
END-ISO-10303-21;
