ISO-10303-21;
HEADER;
FILE_DESCRIPTION (( 'STEP AP203' ),
    '1' );
FILE_NAME ('C-30-RK-18-ÃÞÌ«ÙÄ.STEP',
    '2009-06-29T01:31:05',
    ( '11sw' ),
    ( '^LQ»¢®ïÐ' ),
    'SwSTEP 2.0',
    'SolidWorks 2007',
    '' );
FILE_SCHEMA (( 'CONFIG_CONTROL_DESIGN' ));
ENDSEC;

DATA;
#1 = PRODUCT_DEFINITION_SHAPE ( 'NONE', 'NONE',  #35 ) ;
#2 = SHAPE_DEFINITION_REPRESENTATION ( #1, #186 ) ;
#3 = CC_DESIGN_SECURITY_CLASSIFICATION ( #363, ( #381 ) ) ;
#4 = PRODUCT_RELATED_PRODUCT_CATEGORY ( 'detail', '', ( #192 ) ) ;
#5 = DATE_AND_TIME ( #11, #12 ) ;
#6 = APPROVAL ( #7, 'UNSPECIFIED' ) ;
#7 = APPROVAL_STATUS ( 'not_yet_approved' ) ;
#8 = PERSON_AND_ORGANIZATION ( #191, #120 ) ;
#9 = CC_DESIGN_DATE_AND_TIME_ASSIGNMENT ( #5, #10, ( #363 ) ) ;
#10 = DATE_TIME_ROLE ( 'classification_date' ) ;
#11 = CALENDAR_DATE ( 2009, 29, 6 ) ;
#12 = LOCAL_TIME ( 10, 31, 5.000000000000000000, #13 ) ;
#13 = COORDINATED_UNIVERSAL_TIME_OFFSET ( 9, 0, .AHEAD. ) ;
#14 = CC_DESIGN_APPROVAL ( #6, ( #363 ) ) ;
#15 = APPROVAL_DATE_TIME ( #16, #6 ) ;
#16 = DATE_AND_TIME ( #17, #18 ) ;
#17 = CALENDAR_DATE ( 2009, 29, 6 ) ;
#18 = LOCAL_TIME ( 10, 31, 5.000000000000000000, #19 ) ;
#19 = COORDINATED_UNIVERSAL_TIME_OFFSET ( 9, 0, .AHEAD. ) ;
#20 = APPROVAL_PERSON_ORGANIZATION ( #8, #6, #21 ) ;
#21 = APPROVAL_ROLE ( '' ) ;
#22 = CARTESIAN_POINT ( 'NONE',  ( -5.009326287108706300E-010, -10.99999999650043500, 0.0000000000000000000 ) ) ;
#23 = APPROVAL_DATE_TIME ( #32, #30 ) ;
#24 = CC_DESIGN_APPROVAL ( #30, ( #35 ) ) ;
#25 = COORDINATED_UNIVERSAL_TIME_OFFSET ( 9, 0, .AHEAD. ) ;
#26 = DESIGN_CONTEXT ( 'detailed design', #122, 'design' ) ;
#27 = DIRECTION ( 'NONE',  ( 0.0000000000000000000, 0.0000000000000000000, 1.000000000000000000 ) ) ;
#28 = APPROVAL_PERSON_ORGANIZATION ( #29, #30, #36 ) ;
#29 = PERSON_AND_ORGANIZATION ( #191, #120 ) ;
#30 = APPROVAL ( #31, 'UNSPECIFIED' ) ;
#31 = APPROVAL_STATUS ( 'not_yet_approved' ) ;
#32 = DATE_AND_TIME ( #37, #34 ) ;
#33 = DIRECTION ( 'NONE',  ( 0.0000000000000000000, 1.000000000000000000, 0.0000000000000000000 ) ) ;
#34 = LOCAL_TIME ( 10, 31, 5.000000000000000000, #25 ) ;
#35 = PRODUCT_DEFINITION ( 'UNKNOWN', '', #381, #26 ) ;
#36 = APPROVAL_ROLE ( '' ) ;
#37 = CALENDAR_DATE ( 2009, 29, 6 ) ;
#38 = ORIENTED_EDGE ( 'NONE', *, *, #126, .F. ) ;
#39 = EDGE_LOOP ( 'NONE', ( #128, #132, #135, #138 ) ) ;
#40 = EDGE_LOOP ( 'NONE', ( #44, #45 ) ) ;
#41 = ORIENTED_EDGE ( 'NONE', *, *, #43, .F. ) ;
#42 = ORIENTED_EDGE ( 'NONE', *, *, #151, .F. ) ;
#43 = EDGE_CURVE ( 'NONE', #152, #149, #119, .T. ) ;
#44 = ORIENTED_EDGE ( 'NONE', *, *, #78, .T. ) ;
#45 = ORIENTED_EDGE ( 'NONE', *, *, #129, .T. ) ;
#46 = ADVANCED_FACE ( 'NONE', ( #203 ), #252, .T. ) ;
#47 = EDGE_LOOP ( 'NONE', ( #48, #49, #50, #51 ) ) ;
#48 = ORIENTED_EDGE ( 'NONE', *, *, #148, .F. ) ;
#49 = ORIENTED_EDGE ( 'NONE', *, *, #89, .F. ) ;
#50 = ORIENTED_EDGE ( 'NONE', *, *, #126, .T. ) ;
#51 = ORIENTED_EDGE ( 'NONE', *, *, #43, .T. ) ;
#52 = CLOSED_SHELL ( 'NONE', ( #141, #127, #117, #102, #91, #87, #54, #66, #74, #81, #46 ) ) ;
#53 = ORIENTED_EDGE ( 'NONE', *, *, #85, .T. ) ;
#54 = ADVANCED_FACE ( 'NONE', ( #253 ), #233, .F. ) ;
#55 = ORIENTED_EDGE ( 'NONE', *, *, #104, .F. ) ;
#56 = ORIENTED_EDGE ( 'NONE', *, *, #57, .F. ) ;
#57 = EDGE_CURVE ( 'NONE', #110, #112, #216, .T. ) ;
#58 = ORIENTED_EDGE ( 'NONE', *, *, #98, .T. ) ;
#59 = ORIENTED_EDGE ( 'NONE', *, *, #60, .F. ) ;
#60 = EDGE_CURVE ( 'NONE', #107, #108, #211, .T. ) ;
#61 = ORIENTED_EDGE ( 'NONE', *, *, #106, .F. ) ;
#62 = EDGE_LOOP ( 'NONE', ( #63, #53 ) ) ;
#63 = ORIENTED_EDGE ( 'NONE', *, *, #95, .T. ) ;
#64 = EDGE_LOOP ( 'NONE', ( #55, #56, #58, #65 ) ) ;
#65 = ORIENTED_EDGE ( 'NONE', *, *, #60, .T. ) ;
#66 = ADVANCED_FACE ( 'NONE', ( #206, #205 ), #231, .F. ) ;
#67 = EDGE_LOOP ( 'NONE', ( #68, #70 ) ) ;
#68 = ORIENTED_EDGE ( 'NONE', *, *, #69, .F. ) ;
#69 = EDGE_CURVE ( 'NONE', #137, #134, #226, .T. ) ;
#70 = ORIENTED_EDGE ( 'NONE', *, *, #136, .F. ) ;
#71 = EDGE_LOOP ( 'NONE', ( #72, #73 ) ) ;
#72 = ORIENTED_EDGE ( 'NONE', *, *, #57, .T. ) ;
#73 = ORIENTED_EDGE ( 'NONE', *, *, #109, .T. ) ;
#74 = ADVANCED_FACE ( 'NONE', ( #222 ), #221, .F. ) ;
#75 = EDGE_LOOP ( 'NONE', ( #76, #77, #79, #80 ) ) ;
#76 = ORIENTED_EDGE ( 'NONE', *, *, #133, .F. ) ;
#77 = ORIENTED_EDGE ( 'NONE', *, *, #78, .F. ) ;
#78 = EDGE_CURVE ( 'NONE', #131, #130, #202, .T. ) ;
#79 = ORIENTED_EDGE ( 'NONE', *, *, #139, .T. ) ;
#80 = ORIENTED_EDGE ( 'NONE', *, *, #69, .T. ) ;
#81 = ADVANCED_FACE ( 'NONE', ( #248, #247 ), #246, .F. ) ;
#82 = EDGE_LOOP ( 'NONE', ( #41, #42 ) ) ;
#83 = ORIENTED_EDGE ( 'NONE', *, *, #94, .T. ) ;
#84 = ORIENTED_EDGE ( 'NONE', *, *, #85, .F. ) ;
#85 = EDGE_CURVE ( 'NONE', #97, #113, #240, .T. ) ;
#86 = EDGE_LOOP ( 'NONE', ( #59, #61 ) ) ;
#87 = ADVANCED_FACE ( 'NONE', ( #241, #349 ), #348, .F. ) ;
#88 = ORIENTED_EDGE ( 'NONE', *, *, #89, .T. ) ;
#89 = EDGE_CURVE ( 'NONE', #146, #145, #343, .T. ) ;
#90 = ORIENTED_EDGE ( 'NONE', *, *, #100, .F. ) ;
#91 = ADVANCED_FACE ( 'NONE', ( #338 ), #337, .T. ) ;
#92 = EDGE_LOOP ( 'NONE', ( #90, #88, #83, #84 ) ) ;
#93 = ORIENTED_EDGE ( 'NONE', *, *, #94, .F. ) ;
#94 = EDGE_CURVE ( 'NONE', #145, #113, #331, .T. ) ;
#95 = EDGE_CURVE ( 'NONE', #113, #97, #327, .T. ) ;
#96 = ORIENTED_EDGE ( 'NONE', *, *, #95, .F. ) ;
#97 = VERTEX_POINT ( 'NONE', #322 ) ;
#98 = EDGE_CURVE ( 'NONE', #110, #107, #321, .T. ) ;
#99 = EDGE_LOOP ( 'NONE', ( #103, #101, #96, #93 ) ) ;
#100 = EDGE_CURVE ( 'NONE', #146, #97, #317, .T. ) ;
#101 = ORIENTED_EDGE ( 'NONE', *, *, #100, .T. ) ;
#102 = ADVANCED_FACE ( 'NONE', ( #312 ), #311, .T. ) ;
#103 = ORIENTED_EDGE ( 'NONE', *, *, #144, .T. ) ;
#104 = EDGE_CURVE ( 'NONE', #112, #108, #306, .T. ) ;
#105 = ORIENTED_EDGE ( 'NONE', *, *, #106, .T. ) ;
#106 = EDGE_CURVE ( 'NONE', #108, #107, #302, .T. ) ;
#107 = VERTEX_POINT ( 'NONE', #297 ) ;
#108 = VERTEX_POINT ( 'NONE', #296 ) ;
#109 = EDGE_CURVE ( 'NONE', #112, #110, #295, .T. ) ;
#110 = VERTEX_POINT ( 'NONE', #290 ) ;
#111 = ORIENTED_EDGE ( 'NONE', *, *, #104, .T. ) ;
#112 = VERTEX_POINT ( 'NONE', #289 ) ;
#113 = VERTEX_POINT ( 'NONE', #288 ) ;
#114 = ORIENTED_EDGE ( 'NONE', *, *, #109, .F. ) ;
#115 = ORIENTED_EDGE ( 'NONE', *, *, #98, .F. ) ;
#116 = EDGE_LOOP ( 'NONE', ( #114, #111, #105, #115 ) ) ;
#117 = ADVANCED_FACE ( 'NONE', ( #287 ), #286, .F. ) ;
#118 = AXIS2_PLACEMENT_3D ( 'NONE', #22, #33, #27 ) ;
#119 = CIRCLE ( 'NONE', #118, 9.000000000000000000 ) ;
#120 = ORGANIZATION ( 'UNSPECIFIED', 'UNSPECIFIED', '' ) ;
#121 = APPLICATION_PROTOCOL_DEFINITION ( 'international standard', 'config_control_design', 1994, #122 ) ;
#122 = APPLICATION_CONTEXT ( 'configuration controlled 3d designs of mechanical parts and assemblies' ) ;
#123 = CC_DESIGN_PERSON_AND_ORGANIZATION_ASSIGNMENT ( #125, #124, ( #192 ) ) ;
#124 = PERSON_AND_ORGANIZATION_ROLE ( 'design_owner' ) ;
#125 = PERSON_AND_ORGANIZATION ( #191, #120 ) ;
#126 = EDGE_CURVE ( 'NONE', #146, #152, #281, .T. ) ;
#127 = ADVANCED_FACE ( 'NONE', ( #277 ), #275, .F. ) ;
#128 = ORIENTED_EDGE ( 'NONE', *, *, #129, .F. ) ;
#129 = EDGE_CURVE ( 'NONE', #130, #131, #270, .T. ) ;
#130 = VERTEX_POINT ( 'NONE', #266 ) ;
#131 = VERTEX_POINT ( 'NONE', #265 ) ;
#132 = ORIENTED_EDGE ( 'NONE', *, *, #133, .T. ) ;
#133 = EDGE_CURVE ( 'NONE', #130, #134, #264, .T. ) ;
#134 = VERTEX_POINT ( 'NONE', #260 ) ;
#135 = ORIENTED_EDGE ( 'NONE', *, *, #136, .T. ) ;
#136 = EDGE_CURVE ( 'NONE', #134, #137, #259, .T. ) ;
#137 = VERTEX_POINT ( 'NONE', #254 ) ;
#138 = ORIENTED_EDGE ( 'NONE', *, *, #139, .F. ) ;
#139 = EDGE_CURVE ( 'NONE', #131, #137, #182, .T. ) ;
#140 = MANIFOLD_SOLID_BREP ( 'NONE', #52 ) ;
#141 = ADVANCED_FACE ( 'NONE', ( #178 ), #176, .T. ) ;
#142 = EDGE_LOOP ( 'NONE', ( #143, #147, #150, #38 ) ) ;
#143 = ORIENTED_EDGE ( 'NONE', *, *, #144, .F. ) ;
#144 = EDGE_CURVE ( 'NONE', #145, #146, #171, .T. ) ;
#145 = VERTEX_POINT ( 'NONE', #167 ) ;
#146 = VERTEX_POINT ( 'NONE', #166 ) ;
#147 = ORIENTED_EDGE ( 'NONE', *, *, #148, .T. ) ;
#148 = EDGE_CURVE ( 'NONE', #145, #149, #165, .T. ) ;
#149 = VERTEX_POINT ( 'NONE', #161 ) ;
#150 = ORIENTED_EDGE ( 'NONE', *, *, #151, .T. ) ;
#151 = EDGE_CURVE ( 'NONE', #149, #152, #160, .T. ) ;
#152 = VERTEX_POINT ( 'NONE', #155 ) ;
#153 =( LENGTH_UNIT ( ) NAMED_UNIT ( * ) SI_UNIT ( .MILLI., .METRE. ) );
#154 = CARTESIAN_POINT ( 'NONE',  ( 0.0000000000000000000, 0.0000000000000000000, 0.0000000000000000000 ) ) ;
#155 = CARTESIAN_POINT ( 'NONE',  ( -5.009326287108706300E-010, -10.99999999650043500, -9.000000000000000000 ) ) ;
#156 = DIRECTION ( 'NONE',  ( 0.0000000000000000000, 0.0000000000000000000, 1.000000000000000000 ) ) ;
#157 = DIRECTION ( 'NONE',  ( 0.0000000000000000000, 1.000000000000000000, 0.0000000000000000000 ) ) ;
#158 = CARTESIAN_POINT ( 'NONE',  ( -5.009326287108706300E-010, -10.99999999650043500, 0.0000000000000000000 ) ) ;
#159 = AXIS2_PLACEMENT_3D ( 'NONE', #158, #157, #156 ) ;
#160 = CIRCLE ( 'NONE', #159, 9.000000000000000000 ) ;
#161 = CARTESIAN_POINT ( 'NONE',  ( -5.009315265651521900E-010, -10.99999999650043500, 9.000000000000000000 ) ) ;
#162 = DIRECTION ( 'NONE',  ( 1.654604890017193000E-017, -0.9908301680442989100, 0.1351132047333134200 ) ) ;
#163 = VECTOR ( 'NONE', #162, 1000.000000000000100 ) ;
#164 = CARTESIAN_POINT ( 'NONE',  ( -5.009315265651521900E-010, -10.99999999650043500, 9.000000000000000000 ) ) ;
#165 = LINE ( 'NONE', #164, #163 ) ;
#166 = CARTESIAN_POINT ( 'NONE',  ( -5.009316958132071000E-010, -0.8648867917671275700, -7.617939108445457700 ) ) ;
#167 = CARTESIAN_POINT ( 'NONE',  ( -5.009326287108706300E-010, -0.8648867917671275700, 7.617939108445457700 ) ) ;
#168 = DIRECTION ( 'NONE',  ( 0.0000000000000000000, 0.0000000000000000000, 1.000000000000000000 ) ) ;
#169 = DIRECTION ( 'NONE',  ( 0.0000000000000000000, 1.000000000000000000, 0.0000000000000000000 ) ) ;
#170 = AXIS2_PLACEMENT_3D ( 'NONE', #177, #169, #168 ) ;
#171 = CIRCLE ( 'NONE', #170, 7.617939108445457700 ) ;
#172 = DIRECTION ( 'NONE',  ( 0.0000000000000000000, 0.0000000000000000000, -1.000000000000000000 ) ) ;
#173 = DIRECTION ( 'NONE',  ( 0.0000000000000000000, -1.000000000000000000, 0.0000000000000000000 ) ) ;
#174 = CARTESIAN_POINT ( 'NONE',  ( -5.009326287108706300E-010, -10.99999999650043500, 0.0000000000000000000 ) ) ;
#175 = AXIS2_PLACEMENT_3D ( 'NONE', #174, #173, #172 ) ;
#176 = CONICAL_SURFACE ( 'NONE', #175, 9.000000000000000000, 0.1355277139855006200 ) ;
#177 = CARTESIAN_POINT ( 'NONE',  ( -5.009326287108706300E-010, -0.8648867917671275700, 0.0000000000000000000 ) ) ;
#178 = FACE_OUTER_BOUND ( 'NONE', #142, .T. ) ;
#179 = DIRECTION ( 'NONE',  ( 0.0000000000000000000, 1.000000000000000000, 0.0000000000000000000 ) ) ;
#180 = VECTOR ( 'NONE', #179, 1000.000000000000000 ) ;
#181 = CARTESIAN_POINT ( 'NONE',  ( -5.009326287108706300E-010, 2.412507003500041800, 2.000000000000000000 ) ) ;
#182 = LINE ( 'NONE', #181, #180 ) ;
#183 = DIRECTION ( 'NONE',  ( 1.000000000000000000, 0.0000000000000000000, 0.0000000000000000000 ) ) ;
#184 = DIRECTION ( 'NONE',  ( 0.0000000000000000000, 0.0000000000000000000, 1.000000000000000000 ) ) ;
#185 = AXIS2_PLACEMENT_3D ( 'NONE', #154, #184, #183 ) ;
#186 = ADVANCED_BREP_SHAPE_REPRESENTATION ( 'C-30-RK-18-ÃÞÌ«ÙÄ', ( #140, #185 ), #187 ) ;
#187 =( GEOMETRIC_REPRESENTATION_CONTEXT ( 3 ) GLOBAL_UNCERTAINTY_ASSIGNED_CONTEXT ( ( #188 ) ) GLOBAL_UNIT_ASSIGNED_CONTEXT ( ( #153, #190, #189 ) ) REPRESENTATION_CONTEXT ( 'NONE', 'WORKASPACE' ) );
#188 = UNCERTAINTY_MEASURE_WITH_UNIT (LENGTH_MEASURE( 1.000000000000000100E-005 ), #153, 'distance_accuracy_value', 'NONE');
#189 =( NAMED_UNIT ( * ) SI_UNIT ( $, .STERADIAN. ) SOLID_ANGLE_UNIT ( ) );
#190 =( NAMED_UNIT ( * ) PLANE_ANGLE_UNIT ( ) SI_UNIT ( $, .RADIAN. ) );
#191 = PERSON ( 'UNSPECIFIED', 'UNSPECIFIED', 'UNSPECIFIED', ('UNSPECIFIED'), ('UNSPECIFIED'), ('UNSPECIFIED') ) ;
#192 = PRODUCT ( 'C-30-RK-18-ÃÞÌ«ÙÄ', 'C-30-RK-18-ÃÞÌ«ÙÄ', '', ( #193 ) ) ;
#193 = MECHANICAL_CONTEXT ( 'NONE', #195, 'mechanical' ) ;
#194 = APPLICATION_PROTOCOL_DEFINITION ( 'international standard', 'config_control_design', 1994, #195 ) ;
#195 = APPLICATION_CONTEXT ( 'configuration controlled 3d designs of mechanical parts and assemblies' ) ;
#196 = CARTESIAN_POINT ( 'NONE',  ( -5.009326287108706300E-010, -10.99999999650043500, 0.0000000000000000000 ) ) ;
#197 = AXIS2_PLACEMENT_3D ( 'NONE', #196, #250, #249 ) ;
#198 = DIRECTION ( 'NONE',  ( 0.0000000000000000000, 0.0000000000000000000, 1.000000000000000000 ) ) ;
#199 = DIRECTION ( 'NONE',  ( 0.0000000000000000000, 1.000000000000000000, 0.0000000000000000000 ) ) ;
#200 = CARTESIAN_POINT ( 'NONE',  ( -5.009326287108706300E-010, 2.412507003500041800, 0.0000000000000000000 ) ) ;
#201 = AXIS2_PLACEMENT_3D ( 'NONE', #200, #199, #198 ) ;
#202 = CIRCLE ( 'NONE', #197, 2.000000000000000400 ) ;
#203 = FACE_OUTER_BOUND ( 'NONE', #47, .T. ) ;
#204 = CARTESIAN_POINT ( 'NONE',  ( -5.009326287108706300E-010, -10.99999999650043500, 0.0000000000000000000 ) ) ;
#205 = FACE_OUTER_BOUND ( 'NONE', #71, .T. ) ;
#206 = FACE_BOUND ( 'NONE', #67, .T. ) ;
#207 = DIRECTION ( 'NONE',  ( 0.0000000000000000000, 0.0000000000000000000, 1.000000000000000000 ) ) ;
#208 = DIRECTION ( 'NONE',  ( 0.0000000000000000000, 1.000000000000000000, 0.0000000000000000000 ) ) ;
#209 = CARTESIAN_POINT ( 'NONE',  ( -5.009326287108706300E-010, 3.499565220943523500E-009, 0.0000000000000000000 ) ) ;
#210 = AXIS2_PLACEMENT_3D ( 'NONE', #209, #208, #207 ) ;
#211 = CIRCLE ( 'NONE', #210, 3.499999999999999600 ) ;
#212 = DIRECTION ( 'NONE',  ( 0.0000000000000000000, 0.0000000000000000000, 1.000000000000000000 ) ) ;
#213 = DIRECTION ( 'NONE',  ( 0.0000000000000000000, 1.000000000000000000, 0.0000000000000000000 ) ) ;
#214 = CARTESIAN_POINT ( 'NONE',  ( -5.009326287108706300E-010, -6.999999996500434000, 0.0000000000000000000 ) ) ;
#215 = AXIS2_PLACEMENT_3D ( 'NONE', #214, #213, #212 ) ;
#216 = CIRCLE ( 'NONE', #215, 3.500000000000000400 ) ;
#217 = DIRECTION ( 'NONE',  ( 0.0000000000000000000, 0.0000000000000000000, 1.000000000000000000 ) ) ;
#218 = DIRECTION ( 'NONE',  ( 0.0000000000000000000, 1.000000000000000000, 0.0000000000000000000 ) ) ;
#219 = CARTESIAN_POINT ( 'NONE',  ( -5.009326287108706300E-010, 2.412507003500041800, 0.0000000000000000000 ) ) ;
#220 = AXIS2_PLACEMENT_3D ( 'NONE', #219, #218, #217 ) ;
#221 = CYLINDRICAL_SURFACE ( 'NONE', #201, 2.000000000000000000 ) ;
#222 = FACE_OUTER_BOUND ( 'NONE', #75, .T. ) ;
#223 = DIRECTION ( 'NONE',  ( 0.0000000000000000000, 0.0000000000000000000, 1.000000000000000000 ) ) ;
#224 = DIRECTION ( 'NONE',  ( 0.0000000000000000000, 1.000000000000000000, 0.0000000000000000000 ) ) ;
#225 = AXIS2_PLACEMENT_3D ( 'NONE', #232, #224, #223 ) ;
#226 = CIRCLE ( 'NONE', #225, 2.000000000000000000 ) ;
#227 = DIRECTION ( 'NONE',  ( 0.0000000000000000000, 0.0000000000000000000, -1.000000000000000000 ) ) ;
#228 = DIRECTION ( 'NONE',  ( 0.0000000000000000000, -1.000000000000000000, 0.0000000000000000000 ) ) ;
#229 = CARTESIAN_POINT ( 'NONE',  ( 3.499999999499067800, -6.999999996500434900, 0.0000000000000000000 ) ) ;
#230 = AXIS2_PLACEMENT_3D ( 'NONE', #229, #228, #227 ) ;
#231 = PLANE ( 'NONE',  #230 ) ;
#232 = CARTESIAN_POINT ( 'NONE',  ( -5.009326287108706300E-010, -6.999999996500434000, 0.0000000000000000000 ) ) ;
#233 = CYLINDRICAL_SURFACE ( 'NONE', #220, 3.500000000000000000 ) ;
#234 = DIRECTION ( 'NONE',  ( 0.0000000000000000000, 0.0000000000000000000, -1.000000000000000000 ) ) ;
#235 = DIRECTION ( 'NONE',  ( 0.0000000000000000000, -1.000000000000000000, 0.0000000000000000000 ) ) ;
#236 = DIRECTION ( 'NONE',  ( 0.0000000000000000000, 0.0000000000000000000, 1.000000000000000000 ) ) ;
#237 = DIRECTION ( 'NONE',  ( 0.0000000000000000000, 1.000000000000000000, 0.0000000000000000000 ) ) ;
#238 = CARTESIAN_POINT ( 'NONE',  ( -5.009326287108706300E-010, 3.499565220943523500E-009, 0.0000000000000000000 ) ) ;
#239 = AXIS2_PLACEMENT_3D ( 'NONE', #238, #237, #236 ) ;
#240 = CIRCLE ( 'NONE', #239, 6.627108940401151400 ) ;
#241 = FACE_BOUND ( 'NONE', #86, .T. ) ;
#242 = DIRECTION ( 'NONE',  ( 0.0000000000000000000, 0.0000000000000000000, 1.000000000000000000 ) ) ;
#243 = DIRECTION ( 'NONE',  ( 0.0000000000000000000, 1.000000000000000000, 0.0000000000000000000 ) ) ;
#244 = CARTESIAN_POINT ( 'NONE',  ( 1.999999999499067800, -10.99999999650043500, 0.0000000000000000000 ) ) ;
#245 = AXIS2_PLACEMENT_3D ( 'NONE', #244, #243, #242 ) ;
#246 = PLANE ( 'NONE',  #245 ) ;
#247 = FACE_BOUND ( 'NONE', #40, .T. ) ;
#248 = FACE_OUTER_BOUND ( 'NONE', #82, .T. ) ;
#249 = DIRECTION ( 'NONE',  ( 0.0000000000000000000, 0.0000000000000000000, 1.000000000000000000 ) ) ;
#250 = DIRECTION ( 'NONE',  ( 0.0000000000000000000, 1.000000000000000000, 0.0000000000000000000 ) ) ;
#251 = AXIS2_PLACEMENT_3D ( 'NONE', #204, #235, #234 ) ;
#252 = CONICAL_SURFACE ( 'NONE', #251, 9.000000000000000000, 0.1355277139855006200 ) ;
#253 = FACE_OUTER_BOUND ( 'NONE', #64, .T. ) ;
#254 = CARTESIAN_POINT ( 'NONE',  ( -5.009326287108706300E-010, -6.999999996500434000, 2.000000000000000000 ) ) ;
#255 = DIRECTION ( 'NONE',  ( 0.0000000000000000000, 0.0000000000000000000, 1.000000000000000000 ) ) ;
#256 = DIRECTION ( 'NONE',  ( 0.0000000000000000000, 1.000000000000000000, 0.0000000000000000000 ) ) ;
#257 = CARTESIAN_POINT ( 'NONE',  ( -5.009326287108706300E-010, -6.999999996500434000, 0.0000000000000000000 ) ) ;
#258 = AXIS2_PLACEMENT_3D ( 'NONE', #257, #256, #255 ) ;
#259 = CIRCLE ( 'NONE', #258, 2.000000000000000000 ) ;
#260 = CARTESIAN_POINT ( 'NONE',  ( -5.009323837895998700E-010, -6.999999996500434000, -2.000000000000000000 ) ) ;
#261 = DIRECTION ( 'NONE',  ( 0.0000000000000000000, 1.000000000000000000, 0.0000000000000000000 ) ) ;
#262 = VECTOR ( 'NONE', #261, 1000.000000000000000 ) ;
#263 = CARTESIAN_POINT ( 'NONE',  ( -5.009323837895998700E-010, 2.412507003500041800, -2.000000000000000000 ) ) ;
#264 = LINE ( 'NONE', #263, #262 ) ;
#265 = CARTESIAN_POINT ( 'NONE',  ( -5.009326287108706300E-010, -10.99999999650043500, 2.000000000000000400 ) ) ;
#266 = CARTESIAN_POINT ( 'NONE',  ( -5.009323837895998700E-010, -10.99999999650043500, -2.000000000000000400 ) ) ;
#267 = DIRECTION ( 'NONE',  ( 0.0000000000000000000, 0.0000000000000000000, 1.000000000000000000 ) ) ;
#268 = DIRECTION ( 'NONE',  ( 0.0000000000000000000, 1.000000000000000000, 0.0000000000000000000 ) ) ;
#269 = AXIS2_PLACEMENT_3D ( 'NONE', #276, #268, #267 ) ;
#270 = CIRCLE ( 'NONE', #269, 2.000000000000000400 ) ;
#271 = DIRECTION ( 'NONE',  ( 0.0000000000000000000, 0.0000000000000000000, 1.000000000000000000 ) ) ;
#272 = DIRECTION ( 'NONE',  ( 0.0000000000000000000, 1.000000000000000000, 0.0000000000000000000 ) ) ;
#273 = CARTESIAN_POINT ( 'NONE',  ( -5.009326287108706300E-010, 2.412507003500041800, 0.0000000000000000000 ) ) ;
#274 = AXIS2_PLACEMENT_3D ( 'NONE', #273, #272, #271 ) ;
#275 = CYLINDRICAL_SURFACE ( 'NONE', #274, 2.000000000000000000 ) ;
#276 = CARTESIAN_POINT ( 'NONE',  ( -5.009326287108706300E-010, -10.99999999650043500, 0.0000000000000000000 ) ) ;
#277 = FACE_OUTER_BOUND ( 'NONE', #39, .T. ) ;
#278 = DIRECTION ( 'NONE',  ( 0.0000000000000000000, -0.9908301680442989100, -0.1351132047333134200 ) ) ;
#279 = VECTOR ( 'NONE', #278, 1000.000000000000100 ) ;
#280 = CARTESIAN_POINT ( 'NONE',  ( -5.009326287108706300E-010, -10.99999999650043500, -9.000000000000000000 ) ) ;
#281 = LINE ( 'NONE', #280, #279 ) ;
#282 = DIRECTION ( 'NONE',  ( 0.0000000000000000000, 0.0000000000000000000, 1.000000000000000000 ) ) ;
#283 = DIRECTION ( 'NONE',  ( 0.0000000000000000000, 1.000000000000000000, 0.0000000000000000000 ) ) ;
#284 = CARTESIAN_POINT ( 'NONE',  ( -5.009326287108706300E-010, 2.412507003500041800, 0.0000000000000000000 ) ) ;
#285 = AXIS2_PLACEMENT_3D ( 'NONE', #284, #283, #282 ) ;
#286 = CYLINDRICAL_SURFACE ( 'NONE', #285, 3.500000000000000000 ) ;
#287 = FACE_OUTER_BOUND ( 'NONE', #116, .T. ) ;
#288 = CARTESIAN_POINT ( 'NONE',  ( -5.009326287108706300E-010, 3.499565220943523500E-009, 6.627108940401151400 ) ) ;
#289 = CARTESIAN_POINT ( 'NONE',  ( -5.009322000986467900E-010, -6.999999996500434000, -3.500000000000000900 ) ) ;
#290 = CARTESIAN_POINT ( 'NONE',  ( -5.009326287108706300E-010, -6.999999996500434000, 3.500000000000000400 ) ) ;
#291 = DIRECTION ( 'NONE',  ( 0.0000000000000000000, 0.0000000000000000000, 1.000000000000000000 ) ) ;
#292 = DIRECTION ( 'NONE',  ( 0.0000000000000000000, 1.000000000000000000, 0.0000000000000000000 ) ) ;
#293 = CARTESIAN_POINT ( 'NONE',  ( -5.009326287108706300E-010, -6.999999996500434000, 0.0000000000000000000 ) ) ;
#294 = AXIS2_PLACEMENT_3D ( 'NONE', #293, #292, #291 ) ;
#295 = CIRCLE ( 'NONE', #294, 3.500000000000000400 ) ;
#296 = CARTESIAN_POINT ( 'NONE',  ( -5.009322000986467900E-010, 3.499565220943523500E-009, -3.499999999999999600 ) ) ;
#297 = CARTESIAN_POINT ( 'NONE',  ( -5.009326287108706300E-010, 3.499565220943523500E-009, 3.499999999999999600 ) ) ;
#298 = DIRECTION ( 'NONE',  ( 0.0000000000000000000, 0.0000000000000000000, 1.000000000000000000 ) ) ;
#299 = DIRECTION ( 'NONE',  ( 0.0000000000000000000, 1.000000000000000000, 0.0000000000000000000 ) ) ;
#300 = CARTESIAN_POINT ( 'NONE',  ( -5.009326287108706300E-010, 3.499565220943523500E-009, 0.0000000000000000000 ) ) ;
#301 = AXIS2_PLACEMENT_3D ( 'NONE', #300, #299, #298 ) ;
#302 = CIRCLE ( 'NONE', #301, 3.499999999999999600 ) ;
#303 = DIRECTION ( 'NONE',  ( 0.0000000000000000000, 1.000000000000000000, 0.0000000000000000000 ) ) ;
#304 = VECTOR ( 'NONE', #303, 1000.000000000000000 ) ;
#305 = CARTESIAN_POINT ( 'NONE',  ( -5.009322000986467900E-010, 2.412507003500041800, -3.500000000000000000 ) ) ;
#306 = LINE ( 'NONE', #305, #304 ) ;
#307 = DIRECTION ( 'NONE',  ( 0.0000000000000000000, 0.0000000000000000000, 1.000000000000000000 ) ) ;
#308 = DIRECTION ( 'NONE',  ( 0.0000000000000000000, 1.000000000000000000, 0.0000000000000000000 ) ) ;
#309 = CARTESIAN_POINT ( 'NONE',  ( -5.009326287108706300E-010, -0.9999999965004348100, 0.0000000000000000000 ) ) ;
#310 = AXIS2_PLACEMENT_3D ( 'NONE', #309, #308, #307 ) ;
#311 = TOROIDAL_SURFACE ( 'NONE', #310, 6.627108940401157600, 1.000000000000000400 ) ;
#312 = FACE_OUTER_BOUND ( 'NONE', #99, .T. ) ;
#313 = DIRECTION ( 'NONE',  ( 1.224606353612349900E-016, 0.0000000000000000000, -1.000000000000000000 ) ) ;
#314 = DIRECTION ( 'NONE',  ( 1.000000000000000000, 0.0000000000000000000, 1.224606353822377300E-016 ) ) ;
#315 = CARTESIAN_POINT ( 'NONE',  ( -5.009318171508990000E-010, -0.9999999965004348100, -6.627108940401157600 ) ) ;
#316 = AXIS2_PLACEMENT_3D ( 'NONE', #315, #314, #313 ) ;
#317 = CIRCLE ( 'NONE', #316, 1.000000000000000900 ) ;
#318 = DIRECTION ( 'NONE',  ( 0.0000000000000000000, 1.000000000000000000, 0.0000000000000000000 ) ) ;
#319 = VECTOR ( 'NONE', #318, 1000.000000000000000 ) ;
#320 = CARTESIAN_POINT ( 'NONE',  ( -5.009326287108706300E-010, 2.412507003500041800, 3.500000000000000000 ) ) ;
#321 = LINE ( 'NONE', #320, #319 ) ;
#322 = CARTESIAN_POINT ( 'NONE',  ( -5.009317564820530000E-010, 3.499565220943523500E-009, -6.627108940401151400 ) ) ;
#323 = DIRECTION ( 'NONE',  ( 0.0000000000000000000, 0.0000000000000000000, 1.000000000000000000 ) ) ;
#324 = DIRECTION ( 'NONE',  ( 0.0000000000000000000, 1.000000000000000000, 0.0000000000000000000 ) ) ;
#325 = CARTESIAN_POINT ( 'NONE',  ( -5.009326287108706300E-010, 3.499565220943523500E-009, 0.0000000000000000000 ) ) ;
#326 = AXIS2_PLACEMENT_3D ( 'NONE', #325, #324, #323 ) ;
#327 = CIRCLE ( 'NONE', #326, 6.627108940401151400 ) ;
#328 = DIRECTION ( 'NONE',  ( 0.0000000000000000000, 0.0000000000000000000, 1.000000000000000000 ) ) ;
#329 = DIRECTION ( 'NONE',  ( -1.000000000000000000, 0.0000000000000000000, 0.0000000000000000000 ) ) ;
#330 = AXIS2_PLACEMENT_3D ( 'NONE', #336, #329, #328 ) ;
#331 = CIRCLE ( 'NONE', #330, 1.000000000000000900 ) ;
#332 = DIRECTION ( 'NONE',  ( 0.0000000000000000000, 0.0000000000000000000, 1.000000000000000000 ) ) ;
#333 = DIRECTION ( 'NONE',  ( 0.0000000000000000000, 1.000000000000000000, 0.0000000000000000000 ) ) ;
#334 = CARTESIAN_POINT ( 'NONE',  ( -5.009326287108706300E-010, -0.9999999965004348100, 0.0000000000000000000 ) ) ;
#335 = AXIS2_PLACEMENT_3D ( 'NONE', #334, #333, #332 ) ;
#336 = CARTESIAN_POINT ( 'NONE',  ( -5.009326287108706300E-010, -0.9999999965004348100, 6.627108940401157600 ) ) ;
#337 = TOROIDAL_SURFACE ( 'NONE', #335, 6.627108940401157600, 1.000000000000000400 ) ;
#338 = FACE_OUTER_BOUND ( 'NONE', #92, .T. ) ;
#339 = DIRECTION ( 'NONE',  ( 0.0000000000000000000, 0.0000000000000000000, 1.000000000000000000 ) ) ;
#340 = DIRECTION ( 'NONE',  ( 0.0000000000000000000, 1.000000000000000000, 0.0000000000000000000 ) ) ;
#341 = CARTESIAN_POINT ( 'NONE',  ( -5.009326287108706300E-010, -0.8648867917671275700, 0.0000000000000000000 ) ) ;
#342 = AXIS2_PLACEMENT_3D ( 'NONE', #341, #340, #339 ) ;
#343 = CIRCLE ( 'NONE', #342, 7.617939108445457700 ) ;
#344 = DIRECTION ( 'NONE',  ( 0.0000000000000000000, 0.0000000000000000000, -1.000000000000000000 ) ) ;
#345 = DIRECTION ( 'NONE',  ( 0.0000000000000000000, -1.000000000000000000, 0.0000000000000000000 ) ) ;
#346 = CARTESIAN_POINT ( 'NONE',  ( 6.627108939900218800, 3.499565220943523500E-009, 0.0000000000000000000 ) ) ;
#347 = AXIS2_PLACEMENT_3D ( 'NONE', #346, #345, #344 ) ;
#348 = PLANE ( 'NONE',  #347 ) ;
#349 = FACE_OUTER_BOUND ( 'NONE', #62, .T. ) ;
#350 = PERSON_AND_ORGANIZATION_ROLE ( 'creator' ) ;
#351 = CC_DESIGN_PERSON_AND_ORGANIZATION_ASSIGNMENT ( #352, #350, ( #35 ) ) ;
#352 = PERSON_AND_ORGANIZATION ( #191, #120 ) ;
#353 = PERSON_AND_ORGANIZATION ( #191, #120 ) ;
#354 = CC_DESIGN_DATE_AND_TIME_ASSIGNMENT ( #356, #355, ( #35 ) ) ;
#355 = DATE_TIME_ROLE ( 'creation_date' ) ;
#356 = DATE_AND_TIME ( #357, #358 ) ;
#357 = CALENDAR_DATE ( 2009, 29, 6 ) ;
#358 = LOCAL_TIME ( 10, 31, 5.000000000000000000, #359 ) ;
#359 = COORDINATED_UNIVERSAL_TIME_OFFSET ( 9, 0, .AHEAD. ) ;
#360 = CC_DESIGN_PERSON_AND_ORGANIZATION_ASSIGNMENT ( #362, #361, ( #363 ) ) ;
#361 = PERSON_AND_ORGANIZATION_ROLE ( 'classification_officer' ) ;
#362 = PERSON_AND_ORGANIZATION ( #191, #120 ) ;
#363 = SECURITY_CLASSIFICATION ( '', '', #364 ) ;
#364 = SECURITY_CLASSIFICATION_LEVEL ( 'unclassified' ) ;
#365 = CC_DESIGN_PERSON_AND_ORGANIZATION_ASSIGNMENT ( #367, #366, ( #381 ) ) ;
#366 = PERSON_AND_ORGANIZATION_ROLE ( 'design_supplier' ) ;
#367 = PERSON_AND_ORGANIZATION ( #191, #120 ) ;
#368 = CC_DESIGN_PERSON_AND_ORGANIZATION_ASSIGNMENT ( #370, #369, ( #381 ) ) ;
#369 = PERSON_AND_ORGANIZATION_ROLE ( 'creator' ) ;
#370 = PERSON_AND_ORGANIZATION ( #191, #120 ) ;
#371 = CC_DESIGN_APPROVAL ( #379, ( #381 ) ) ;
#372 = APPROVAL_DATE_TIME ( #373, #379 ) ;
#373 = DATE_AND_TIME ( #374, #375 ) ;
#374 = CALENDAR_DATE ( 2009, 29, 6 ) ;
#375 = LOCAL_TIME ( 10, 31, 5.000000000000000000, #376 ) ;
#376 = COORDINATED_UNIVERSAL_TIME_OFFSET ( 9, 0, .AHEAD. ) ;
#377 = APPROVAL_PERSON_ORGANIZATION ( #353, #379, #378 ) ;
#378 = APPROVAL_ROLE ( '' ) ;
#379 = APPROVAL ( #380, 'UNSPECIFIED' ) ;
#380 = APPROVAL_STATUS ( 'not_yet_approved' ) ;
#381 = PRODUCT_DEFINITION_FORMATION_WITH_SPECIFIED_SOURCE ( 'ANY', '', #192, .NOT_KNOWN. ) ;
ENDSEC;
END-ISO-10303-21;
