ISO-10303-21;
HEADER;
FILE_DESCRIPTION (( 'STEP AP203' ),
    '1' );
FILE_NAME ('C-30-RK-18-gray.STEP',
    '2009-06-29T01:29:34',
    ( '11sw' ),
    ( '^LQ»¢®ïÐ' ),
    'SwSTEP 2.0',
    'SolidWorks 2007',
    '' );
FILE_SCHEMA (( 'CONFIG_CONTROL_DESIGN' ));
ENDSEC;

DATA;
#1 = EDGE_CURVE ( 'NONE', #93, #4, #123, .T. ) ;
#2 = VERTEX_POINT ( 'NONE', #124 ) ;
#3 = ORIENTED_EDGE ( 'NONE', *, *, #5, .T. ) ;
#4 = VERTEX_POINT ( 'NONE', #131 ) ;
#5 = EDGE_CURVE ( 'NONE', #4, #2, #126, .T. ) ;
#6 = ORIENTED_EDGE ( 'NONE', *, *, #55, .T. ) ;
#7 = ORIENTED_EDGE ( 'NONE', *, *, #8, .F. ) ;
#8 = EDGE_CURVE ( 'NONE', #2, #4, #109, .T. ) ;
#9 = ADVANCED_FACE ( 'NONE', ( #119, #118 ), #117, .F. ) ;
#10 = ORIENTED_EDGE ( 'NONE', *, *, #5, .F. ) ;
#11 = ORIENTED_EDGE ( 'NONE', *, *, #20, .F. ) ;
#12 = EDGE_LOOP ( 'NONE', ( #18, #24 ) ) ;
#13 = EDGE_LOOP ( 'NONE', ( #14, #26 ) ) ;
#14 = ORIENTED_EDGE ( 'NONE', *, *, #20, .T. ) ;
#15 = ORIENTED_EDGE ( 'NONE', *, *, #1, .F. ) ;
#16 = ADVANCED_FACE ( 'NONE', ( #112 ), #189, .F. ) ;
#17 = EDGE_LOOP ( 'NONE', ( #7, #10 ) ) ;
#18 = ORIENTED_EDGE ( 'NONE', *, *, #19, .F. ) ;
#19 = EDGE_CURVE ( 'NONE', #83, #73, #218, .T. ) ;
#20 = EDGE_CURVE ( 'NONE', #94, #93, #170, .T. ) ;
#21 = ORIENTED_EDGE ( 'NONE', *, *, #85, .T. ) ;
#22 = ORIENTED_EDGE ( 'NONE', *, *, #8, .T. ) ;
#23 = EDGE_LOOP ( 'NONE', ( #15, #11, #21, #22 ) ) ;
#24 = ORIENTED_EDGE ( 'NONE', *, *, #82, .F. ) ;
#25 = ORIENTED_EDGE ( 'NONE', *, *, #28, .T. ) ;
#26 = ORIENTED_EDGE ( 'NONE', *, *, #92, .T. ) ;
#27 = EDGE_LOOP ( 'NONE', ( #6, #25 ) ) ;
#28 = EDGE_CURVE ( 'NONE', #58, #65, #220, .T. ) ;
#29 = EDGE_CURVE ( 'NONE', #97, #99, #193, .T. ) ;
#30 = ORIENTED_EDGE ( 'NONE', *, *, #76, .F. ) ;
#31 = ORIENTED_EDGE ( 'NONE', *, *, #44, .T. ) ;
#32 = ORIENTED_EDGE ( 'NONE', *, *, #105, .T. ) ;
#33 = CLOSED_SHELL ( 'NONE', ( #89, #103, #80, #69, #56, #51, #16, #9, #36, #49, #40 ) ) ;
#34 = ORIENTED_EDGE ( 'NONE', *, *, #29, .T. ) ;
#35 = ORIENTED_EDGE ( 'NONE', *, *, #95, .T. ) ;
#36 = ADVANCED_FACE ( 'NONE', ( #228 ), #227, .F. ) ;
#37 = EDGE_LOOP ( 'NONE', ( #46, #38, #35, #48 ) ) ;
#38 = ORIENTED_EDGE ( 'NONE', *, *, #44, .F. ) ;
#39 = EDGE_LOOP ( 'NONE', ( #41, #42, #43, #34 ) ) ;
#40 = ADVANCED_FACE ( 'NONE', ( #206 ), #205, .T. ) ;
#41 = ORIENTED_EDGE ( 'NONE', *, *, #72, .F. ) ;
#42 = ORIENTED_EDGE ( 'NONE', *, *, #53, .F. ) ;
#43 = ORIENTED_EDGE ( 'NONE', *, *, #78, .T. ) ;
#44 = EDGE_CURVE ( 'NONE', #100, #74, #200, .T. ) ;
#45 = EDGE_LOOP ( 'NONE', ( #31, #32 ) ) ;
#46 = ORIENTED_EDGE ( 'NONE', *, *, #102, .F. ) ;
#47 = EDGE_LOOP ( 'NONE', ( #50, #30 ) ) ;
#48 = ORIENTED_EDGE ( 'NONE', *, *, #19, .T. ) ;
#49 = ADVANCED_FACE ( 'NONE', ( #196, #165 ), #164, .F. ) ;
#50 = ORIENTED_EDGE ( 'NONE', *, *, #29, .F. ) ;
#51 = ADVANCED_FACE ( 'NONE', ( #159, #158 ), #157, .F. ) ;
#52 = ORIENTED_EDGE ( 'NONE', *, *, #28, .F. ) ;
#53 = EDGE_CURVE ( 'NONE', #87, #86, #152, .T. ) ;
#54 = ORIENTED_EDGE ( 'NONE', *, *, #66, .F. ) ;
#55 = EDGE_CURVE ( 'NONE', #65, #58, #147, .T. ) ;
#56 = ADVANCED_FACE ( 'NONE', ( #142 ), #141, .T. ) ;
#57 = ORIENTED_EDGE ( 'NONE', *, *, #101, .T. ) ;
#58 = VERTEX_POINT ( 'NONE', #136 ) ;
#59 = EDGE_LOOP ( 'NONE', ( #57, #67, #63, #54 ) ) ;
#60 = ORIENTED_EDGE ( 'NONE', *, *, #53, .T. ) ;
#61 = ORIENTED_EDGE ( 'NONE', *, *, #66, .T. ) ;
#62 = ORIENTED_EDGE ( 'NONE', *, *, #68, .F. ) ;
#63 = ORIENTED_EDGE ( 'NONE', *, *, #55, .F. ) ;
#64 = EDGE_LOOP ( 'NONE', ( #62, #60, #61, #52 ) ) ;
#65 = VERTEX_POINT ( 'NONE', #135 ) ;
#66 = EDGE_CURVE ( 'NONE', #86, #65, #134, .T. ) ;
#67 = ORIENTED_EDGE ( 'NONE', *, *, #68, .T. ) ;
#68 = EDGE_CURVE ( 'NONE', #87, #58, #210, .T. ) ;
#69 = ADVANCED_FACE ( 'NONE', ( #187 ), #186, .T. ) ;
#70 = ORIENTED_EDGE ( 'NONE', *, *, #101, .F. ) ;
#71 = ORIENTED_EDGE ( 'NONE', *, *, #95, .F. ) ;
#72 = EDGE_CURVE ( 'NONE', #86, #99, #185, .T. ) ;
#73 = VERTEX_POINT ( 'NONE', #177 ) ;
#74 = VERTEX_POINT ( 'NONE', #176 ) ;
#75 = ORIENTED_EDGE ( 'NONE', *, *, #76, .T. ) ;
#76 = EDGE_CURVE ( 'NONE', #99, #97, #175, .T. ) ;
#77 = ORIENTED_EDGE ( 'NONE', *, *, #78, .F. ) ;
#78 = EDGE_CURVE ( 'NONE', #87, #97, #288, .T. ) ;
#79 = EDGE_LOOP ( 'NONE', ( #91, #88, #3, #96 ) ) ;
#80 = ADVANCED_FACE ( 'NONE', ( #331 ), #329, .F. ) ;
#81 = ORIENTED_EDGE ( 'NONE', *, *, #82, .T. ) ;
#82 = EDGE_CURVE ( 'NONE', #73, #83, #355, .T. ) ;
#83 = VERTEX_POINT ( 'NONE', #310 ) ;
#84 = ORIENTED_EDGE ( 'NONE', *, *, #102, .T. ) ;
#85 = EDGE_CURVE ( 'NONE', #94, #2, #336, .T. ) ;
#86 = VERTEX_POINT ( 'NONE', #332 ) ;
#87 = VERTEX_POINT ( 'NONE', #347 ) ;
#88 = ORIENTED_EDGE ( 'NONE', *, *, #1, .T. ) ;
#89 = ADVANCED_FACE ( 'NONE', ( #346 ), #309, .T. ) ;
#90 = EDGE_LOOP ( 'NONE', ( #70, #98, #75, #77 ) ) ;
#91 = ORIENTED_EDGE ( 'NONE', *, *, #92, .F. ) ;
#92 = EDGE_CURVE ( 'NONE', #93, #94, #305, .T. ) ;
#93 = VERTEX_POINT ( 'NONE', #340 ) ;
#94 = VERTEX_POINT ( 'NONE', #339 ) ;
#95 = EDGE_CURVE ( 'NONE', #100, #83, #354, .T. ) ;
#96 = ORIENTED_EDGE ( 'NONE', *, *, #85, .F. ) ;
#97 = VERTEX_POINT ( 'NONE', #350 ) ;
#98 = ORIENTED_EDGE ( 'NONE', *, *, #72, .T. ) ;
#99 = VERTEX_POINT ( 'NONE', #349 ) ;
#100 = VERTEX_POINT ( 'NONE', #348 ) ;
#101 = EDGE_CURVE ( 'NONE', #86, #87, #238, .T. ) ;
#102 = EDGE_CURVE ( 'NONE', #74, #73, #239, .T. ) ;
#103 = ADVANCED_FACE ( 'NONE', ( #327 ), #326, .F. ) ;
#104 = EDGE_LOOP ( 'NONE', ( #106, #84, #81, #71 ) ) ;
#105 = EDGE_CURVE ( 'NONE', #74, #100, #320, .T. ) ;
#106 = ORIENTED_EDGE ( 'NONE', *, *, #105, .F. ) ;
#107 = DIRECTION ( 'NONE',  ( 0.0000000000000000000, 1.000000000000000000, 0.0000000000000000000 ) ) ;
#108 = AXIS2_PLACEMENT_3D ( 'NONE', #127, #107, #120 ) ;
#109 = CIRCLE ( 'NONE', #108, 3.499999999999999600 ) ;
#110 = AXIS2_PLACEMENT_3D ( 'NONE', #111, #174, #330 ) ;
#111 = CARTESIAN_POINT ( 'NONE',  ( -5.009326287108706300E-010, -10.99999999650043500, 0.0000000000000000000 ) ) ;
#112 = FACE_OUTER_BOUND ( 'NONE', #23, .T. ) ;
#113 = DIRECTION ( 'NONE',  ( 0.0000000000000000000, 0.0000000000000000000, -1.000000000000000000 ) ) ;
#114 = DIRECTION ( 'NONE',  ( 0.0000000000000000000, -1.000000000000000000, 0.0000000000000000000 ) ) ;
#115 = CARTESIAN_POINT ( 'NONE',  ( 3.499999999499067800, -6.999999996500434900, 0.0000000000000000000 ) ) ;
#116 = AXIS2_PLACEMENT_3D ( 'NONE', #115, #114, #113 ) ;
#117 = PLANE ( 'NONE',  #116 ) ;
#118 = FACE_OUTER_BOUND ( 'NONE', #13, .T. ) ;
#119 = FACE_BOUND ( 'NONE', #12, .T. ) ;
#120 = DIRECTION ( 'NONE',  ( 0.0000000000000000000, 0.0000000000000000000, 1.000000000000000000 ) ) ;
#121 = VECTOR ( 'NONE', #132, 1000.000000000000000 ) ;
#122 = CARTESIAN_POINT ( 'NONE',  ( -5.009322000986467900E-010, 2.412507003500041800, -3.500000000000000000 ) ) ;
#123 = LINE ( 'NONE', #122, #121 ) ;
#124 = CARTESIAN_POINT ( 'NONE',  ( -5.009326287108706300E-010, 3.499565220943523500E-009, 3.499999999999999600 ) ) ;
#125 = AXIS2_PLACEMENT_3D ( 'NONE', #130, #129, #128 ) ;
#126 = CIRCLE ( 'NONE', #125, 3.499999999999999600 ) ;
#127 = CARTESIAN_POINT ( 'NONE',  ( -5.009326287108706300E-010, 3.499565220943523500E-009, 0.0000000000000000000 ) ) ;
#128 = DIRECTION ( 'NONE',  ( 0.0000000000000000000, 0.0000000000000000000, 1.000000000000000000 ) ) ;
#129 = DIRECTION ( 'NONE',  ( 0.0000000000000000000, 1.000000000000000000, 0.0000000000000000000 ) ) ;
#130 = CARTESIAN_POINT ( 'NONE',  ( -5.009326287108706300E-010, 3.499565220943523500E-009, 0.0000000000000000000 ) ) ;
#131 = CARTESIAN_POINT ( 'NONE',  ( -5.009322000986467900E-010, 3.499565220943523500E-009, -3.499999999999999600 ) ) ;
#132 = DIRECTION ( 'NONE',  ( 0.0000000000000000000, 1.000000000000000000, 0.0000000000000000000 ) ) ;
#133 = MANIFOLD_SOLID_BREP ( 'NONE', #33 ) ;
#134 = CIRCLE ( 'NONE', #214, 1.000000000000000900 ) ;
#135 = CARTESIAN_POINT ( 'NONE',  ( -5.009326287108706300E-010, 3.499565220943523500E-009, 6.627108940401151400 ) ) ;
#136 = CARTESIAN_POINT ( 'NONE',  ( -5.009317564820530000E-010, 3.499565220943523500E-009, -6.627108940401151400 ) ) ;
#137 = DIRECTION ( 'NONE',  ( 0.0000000000000000000, 0.0000000000000000000, 1.000000000000000000 ) ) ;
#138 = DIRECTION ( 'NONE',  ( 0.0000000000000000000, 1.000000000000000000, 0.0000000000000000000 ) ) ;
#139 = CARTESIAN_POINT ( 'NONE',  ( -5.009326287108706300E-010, -0.9999999965004348100, 0.0000000000000000000 ) ) ;
#140 = AXIS2_PLACEMENT_3D ( 'NONE', #139, #138, #137 ) ;
#141 = TOROIDAL_SURFACE ( 'NONE', #140, 6.627108940401157600, 1.000000000000000400 ) ;
#142 = FACE_OUTER_BOUND ( 'NONE', #64, .T. ) ;
#143 = DIRECTION ( 'NONE',  ( 0.0000000000000000000, 0.0000000000000000000, 1.000000000000000000 ) ) ;
#144 = DIRECTION ( 'NONE',  ( 0.0000000000000000000, 1.000000000000000000, 0.0000000000000000000 ) ) ;
#145 = CARTESIAN_POINT ( 'NONE',  ( -5.009326287108706300E-010, 3.499565220943523500E-009, 0.0000000000000000000 ) ) ;
#146 = AXIS2_PLACEMENT_3D ( 'NONE', #145, #144, #143 ) ;
#147 = CIRCLE ( 'NONE', #146, 6.627108940401151400 ) ;
#148 = DIRECTION ( 'NONE',  ( 0.0000000000000000000, 0.0000000000000000000, 1.000000000000000000 ) ) ;
#149 = DIRECTION ( 'NONE',  ( 0.0000000000000000000, 1.000000000000000000, 0.0000000000000000000 ) ) ;
#150 = CARTESIAN_POINT ( 'NONE',  ( -5.009326287108706300E-010, -0.8648867917671275700, 0.0000000000000000000 ) ) ;
#151 = AXIS2_PLACEMENT_3D ( 'NONE', #150, #149, #148 ) ;
#152 = CIRCLE ( 'NONE', #151, 7.617939108445457700 ) ;
#153 = DIRECTION ( 'NONE',  ( 0.0000000000000000000, 0.0000000000000000000, -1.000000000000000000 ) ) ;
#154 = DIRECTION ( 'NONE',  ( 0.0000000000000000000, -1.000000000000000000, 0.0000000000000000000 ) ) ;
#155 = CARTESIAN_POINT ( 'NONE',  ( 6.627108939900218800, 3.499565220943523500E-009, 0.0000000000000000000 ) ) ;
#156 = AXIS2_PLACEMENT_3D ( 'NONE', #155, #154, #153 ) ;
#157 = PLANE ( 'NONE',  #156 ) ;
#158 = FACE_OUTER_BOUND ( 'NONE', #27, .T. ) ;
#159 = FACE_BOUND ( 'NONE', #17, .T. ) ;
#160 = DIRECTION ( 'NONE',  ( 0.0000000000000000000, 0.0000000000000000000, 1.000000000000000000 ) ) ;
#161 = DIRECTION ( 'NONE',  ( 0.0000000000000000000, 1.000000000000000000, 0.0000000000000000000 ) ) ;
#162 = CARTESIAN_POINT ( 'NONE',  ( 1.999999999499067800, -10.99999999650043500, 0.0000000000000000000 ) ) ;
#163 = AXIS2_PLACEMENT_3D ( 'NONE', #162, #161, #160 ) ;
#164 = PLANE ( 'NONE',  #163 ) ;
#165 = FACE_BOUND ( 'NONE', #45, .T. ) ;
#166 = DIRECTION ( 'NONE',  ( 0.0000000000000000000, 0.0000000000000000000, 1.000000000000000000 ) ) ;
#167 = DIRECTION ( 'NONE',  ( 0.0000000000000000000, 1.000000000000000000, 0.0000000000000000000 ) ) ;
#168 = CARTESIAN_POINT ( 'NONE',  ( -5.009326287108706300E-010, 2.412507003500041800, 0.0000000000000000000 ) ) ;
#169 = AXIS2_PLACEMENT_3D ( 'NONE', #217, #222, #221 ) ;
#170 = CIRCLE ( 'NONE', #169, 3.500000000000000400 ) ;
#171 = CARTESIAN_POINT ( 'NONE',  ( -5.009326287108706300E-010, 3.499565220943523500E-009, 0.0000000000000000000 ) ) ;
#172 = DIRECTION ( 'NONE',  ( 0.0000000000000000000, 0.0000000000000000000, 1.000000000000000000 ) ) ;
#173 = DIRECTION ( 'NONE',  ( 0.0000000000000000000, 1.000000000000000000, 0.0000000000000000000 ) ) ;
#174 = DIRECTION ( 'NONE',  ( 0.0000000000000000000, 1.000000000000000000, 0.0000000000000000000 ) ) ;
#175 = CIRCLE ( 'NONE', #110, 9.000000000000000000 ) ;
#176 = CARTESIAN_POINT ( 'NONE',  ( -5.009323837895998700E-010, -10.99999999650043500, -2.000000000000000400 ) ) ;
#177 = CARTESIAN_POINT ( 'NONE',  ( -5.009323837895998700E-010, -6.999999996500434000, -2.000000000000000000 ) ) ;
#178 = DIRECTION ( 'NONE',  ( 1.654604890017193000E-017, -0.9908301680442989100, 0.1351132047333134200 ) ) ;
#179 = VECTOR ( 'NONE', #178, 1000.000000000000100 ) ;
#180 = CARTESIAN_POINT ( 'NONE',  ( -5.009315265651521900E-010, -10.99999999650043500, 9.000000000000000000 ) ) ;
#181 = DIRECTION ( 'NONE',  ( 0.0000000000000000000, 0.0000000000000000000, 1.000000000000000000 ) ) ;
#182 = DIRECTION ( 'NONE',  ( 0.0000000000000000000, 1.000000000000000000, 0.0000000000000000000 ) ) ;
#183 = CARTESIAN_POINT ( 'NONE',  ( -5.009326287108706300E-010, -0.9999999965004348100, 0.0000000000000000000 ) ) ;
#184 = AXIS2_PLACEMENT_3D ( 'NONE', #183, #182, #181 ) ;
#185 = LINE ( 'NONE', #180, #179 ) ;
#186 = TOROIDAL_SURFACE ( 'NONE', #184, 6.627108940401157600, 1.000000000000000400 ) ;
#187 = FACE_OUTER_BOUND ( 'NONE', #59, .T. ) ;
#188 = DIRECTION ( 'NONE',  ( 1.224606353612349900E-016, 0.0000000000000000000, -1.000000000000000000 ) ) ;
#189 = CYLINDRICAL_SURFACE ( 'NONE', #216, 3.500000000000000000 ) ;
#190 = DIRECTION ( 'NONE',  ( 0.0000000000000000000, 1.000000000000000000, 0.0000000000000000000 ) ) ;
#191 = CARTESIAN_POINT ( 'NONE',  ( -5.009326287108706300E-010, -10.99999999650043500, 0.0000000000000000000 ) ) ;
#192 = AXIS2_PLACEMENT_3D ( 'NONE', #191, #190, #229 ) ;
#193 = CIRCLE ( 'NONE', #192, 9.000000000000000000 ) ;
#194 = DIRECTION ( 'NONE',  ( 0.0000000000000000000, 0.0000000000000000000, 1.000000000000000000 ) ) ;
#195 = DIRECTION ( 'NONE',  ( 0.0000000000000000000, 1.000000000000000000, 0.0000000000000000000 ) ) ;
#196 = FACE_OUTER_BOUND ( 'NONE', #47, .T. ) ;
#197 = DIRECTION ( 'NONE',  ( 0.0000000000000000000, 0.0000000000000000000, 1.000000000000000000 ) ) ;
#198 = DIRECTION ( 'NONE',  ( 0.0000000000000000000, 1.000000000000000000, 0.0000000000000000000 ) ) ;
#199 = AXIS2_PLACEMENT_3D ( 'NONE', #204, #198, #197 ) ;
#200 = CIRCLE ( 'NONE', #199, 2.000000000000000400 ) ;
#201 = DIRECTION ( 'NONE',  ( 0.0000000000000000000, 0.0000000000000000000, -1.000000000000000000 ) ) ;
#202 = DIRECTION ( 'NONE',  ( 0.0000000000000000000, -1.000000000000000000, 0.0000000000000000000 ) ) ;
#203 = AXIS2_PLACEMENT_3D ( 'NONE', #226, #202, #201 ) ;
#204 = CARTESIAN_POINT ( 'NONE',  ( -5.009326287108706300E-010, -10.99999999650043500, 0.0000000000000000000 ) ) ;
#205 = CONICAL_SURFACE ( 'NONE', #203, 9.000000000000000000, 0.1355277139855006200 ) ;
#206 = FACE_OUTER_BOUND ( 'NONE', #39, .T. ) ;
#207 = DIRECTION ( 'NONE',  ( 0.0000000000000000000, 0.0000000000000000000, 1.000000000000000000 ) ) ;
#208 = DIRECTION ( 'NONE',  ( 1.000000000000000000, 0.0000000000000000000, 1.224606353822377300E-016 ) ) ;
#209 = AXIS2_PLACEMENT_3D ( 'NONE', #215, #208, #188 ) ;
#210 = CIRCLE ( 'NONE', #209, 1.000000000000000900 ) ;
#211 = DIRECTION ( 'NONE',  ( 0.0000000000000000000, 0.0000000000000000000, 1.000000000000000000 ) ) ;
#212 = DIRECTION ( 'NONE',  ( -1.000000000000000000, 0.0000000000000000000, 0.0000000000000000000 ) ) ;
#213 = CARTESIAN_POINT ( 'NONE',  ( -5.009326287108706300E-010, -0.9999999965004348100, 6.627108940401157600 ) ) ;
#214 = AXIS2_PLACEMENT_3D ( 'NONE', #213, #212, #211 ) ;
#215 = CARTESIAN_POINT ( 'NONE',  ( -5.009318171508990000E-010, -0.9999999965004348100, -6.627108940401157600 ) ) ;
#216 = AXIS2_PLACEMENT_3D ( 'NONE', #168, #167, #166 ) ;
#217 = CARTESIAN_POINT ( 'NONE',  ( -5.009326287108706300E-010, -6.999999996500434000, 0.0000000000000000000 ) ) ;
#218 = CIRCLE ( 'NONE', #231, 2.000000000000000000 ) ;
#219 = AXIS2_PLACEMENT_3D ( 'NONE', #171, #195, #194 ) ;
#220 = CIRCLE ( 'NONE', #219, 6.627108940401151400 ) ;
#221 = DIRECTION ( 'NONE',  ( 0.0000000000000000000, 0.0000000000000000000, 1.000000000000000000 ) ) ;
#222 = DIRECTION ( 'NONE',  ( 0.0000000000000000000, 1.000000000000000000, 0.0000000000000000000 ) ) ;
#223 = DIRECTION ( 'NONE',  ( 0.0000000000000000000, 1.000000000000000000, 0.0000000000000000000 ) ) ;
#224 = CARTESIAN_POINT ( 'NONE',  ( -5.009326287108706300E-010, 2.412507003500041800, 0.0000000000000000000 ) ) ;
#225 = AXIS2_PLACEMENT_3D ( 'NONE', #224, #223, #207 ) ;
#226 = CARTESIAN_POINT ( 'NONE',  ( -5.009326287108706300E-010, -10.99999999650043500, 0.0000000000000000000 ) ) ;
#227 = CYLINDRICAL_SURFACE ( 'NONE', #225, 2.000000000000000000 ) ;
#228 = FACE_OUTER_BOUND ( 'NONE', #37, .T. ) ;
#229 = DIRECTION ( 'NONE',  ( 0.0000000000000000000, 0.0000000000000000000, 1.000000000000000000 ) ) ;
#230 = CARTESIAN_POINT ( 'NONE',  ( -5.009326287108706300E-010, -6.999999996500434000, 0.0000000000000000000 ) ) ;
#231 = AXIS2_PLACEMENT_3D ( 'NONE', #230, #173, #172 ) ;
#232 = VECTOR ( 'NONE', #328, 1000.000000000000000 ) ;
#233 = CARTESIAN_POINT ( 'NONE',  ( -5.009323837895998700E-010, 2.412507003500041800, -2.000000000000000000 ) ) ;
#234 = DIRECTION ( 'NONE',  ( 0.0000000000000000000, 0.0000000000000000000, 1.000000000000000000 ) ) ;
#235 = DIRECTION ( 'NONE',  ( 0.0000000000000000000, 1.000000000000000000, 0.0000000000000000000 ) ) ;
#236 = CARTESIAN_POINT ( 'NONE',  ( -5.009326287108706300E-010, -0.8648867917671275700, 0.0000000000000000000 ) ) ;
#237 = AXIS2_PLACEMENT_3D ( 'NONE', #236, #235, #234 ) ;
#238 = CIRCLE ( 'NONE', #237, 7.617939108445457700 ) ;
#239 = LINE ( 'NONE', #233, #232 ) ;
#240 = DIRECTION ( 'NONE',  ( 1.000000000000000000, 0.0000000000000000000, 0.0000000000000000000 ) ) ;
#241 = DIRECTION ( 'NONE',  ( 0.0000000000000000000, 0.0000000000000000000, 1.000000000000000000 ) ) ;
#242 = AXIS2_PLACEMENT_3D ( 'NONE', #316, #241, #240 ) ;
#243 = DATE_AND_TIME ( #294, #295 ) ;
#244 = APPROVAL_PERSON_ORGANIZATION ( #248, #246, #245 ) ;
#245 = APPROVAL_ROLE ( '' ) ;
#246 = APPROVAL ( #247, 'UNSPECIFIED' ) ;
#247 = APPROVAL_STATUS ( 'not_yet_approved' ) ;
#248 = PERSON_AND_ORGANIZATION ( #377, #376 ) ;
#249 = CC_DESIGN_DATE_AND_TIME_ASSIGNMENT ( #251, #250, ( #258 ) ) ;
#250 = DATE_TIME_ROLE ( 'classification_date' ) ;
#251 = DATE_AND_TIME ( #252, #253 ) ;
#252 = CALENDAR_DATE ( 2009, 29, 6 ) ;
#253 = LOCAL_TIME ( 10, 29, 34.00000000000000000, #254 ) ;
#254 = COORDINATED_UNIVERSAL_TIME_OFFSET ( 9, 0, .AHEAD. ) ;
#255 = CC_DESIGN_PERSON_AND_ORGANIZATION_ASSIGNMENT ( #257, #256, ( #258 ) ) ;
#256 = PERSON_AND_ORGANIZATION_ROLE ( 'classification_officer' ) ;
#257 = PERSON_AND_ORGANIZATION ( #377, #376 ) ;
#258 = SECURITY_CLASSIFICATION ( '', '', #259 ) ;
#259 = SECURITY_CLASSIFICATION_LEVEL ( 'unclassified' ) ;
#260 = CC_DESIGN_PERSON_AND_ORGANIZATION_ASSIGNMENT ( #262, #261, ( #277 ) ) ;
#261 = PERSON_AND_ORGANIZATION_ROLE ( 'design_supplier' ) ;
#262 = PERSON_AND_ORGANIZATION ( #377, #376 ) ;
#263 = CC_DESIGN_PERSON_AND_ORGANIZATION_ASSIGNMENT ( #265, #264, ( #277 ) ) ;
#264 = PERSON_AND_ORGANIZATION_ROLE ( 'creator' ) ;
#265 = PERSON_AND_ORGANIZATION ( #377, #376 ) ;
#266 = CC_DESIGN_APPROVAL ( #274, ( #277 ) ) ;
#267 = APPROVAL_DATE_TIME ( #268, #274 ) ;
#268 = DATE_AND_TIME ( #269, #270 ) ;
#269 = CALENDAR_DATE ( 2009, 29, 6 ) ;
#270 = LOCAL_TIME ( 10, 29, 34.00000000000000000, #271 ) ;
#271 = COORDINATED_UNIVERSAL_TIME_OFFSET ( 9, 0, .AHEAD. ) ;
#272 = APPROVAL_PERSON_ORGANIZATION ( #276, #274, #273 ) ;
#273 = APPROVAL_ROLE ( '' ) ;
#274 = APPROVAL ( #275, 'UNSPECIFIED' ) ;
#275 = APPROVAL_STATUS ( 'not_yet_approved' ) ;
#276 = PERSON_AND_ORGANIZATION ( #377, #376 ) ;
#277 = PRODUCT_DEFINITION_FORMATION_WITH_SPECIFIED_SOURCE ( 'ANY', '', #378, .NOT_KNOWN. ) ;
#278 = CC_DESIGN_DATE_AND_TIME_ASSIGNMENT ( #280, #279, ( #369 ) ) ;
#279 = DATE_TIME_ROLE ( 'creation_date' ) ;
#280 = DATE_AND_TIME ( #281, #282 ) ;
#281 = CALENDAR_DATE ( 2009, 29, 6 ) ;
#282 = LOCAL_TIME ( 10, 29, 34.00000000000000000, #283 ) ;
#283 = COORDINATED_UNIVERSAL_TIME_OFFSET ( 9, 0, .AHEAD. ) ;
#284 = CC_DESIGN_PERSON_AND_ORGANIZATION_ASSIGNMENT ( #286, #285, ( #369 ) ) ;
#285 = PERSON_AND_ORGANIZATION_ROLE ( 'creator' ) ;
#286 = PERSON_AND_ORGANIZATION ( #377, #376 ) ;
#287 = CARTESIAN_POINT ( 'NONE',  ( -5.009326287108706300E-010, -10.99999999650043500, -9.000000000000000000 ) ) ;
#288 = LINE ( 'NONE', #287, #303 ) ;
#289 = PRODUCT_DEFINITION_SHAPE ( 'NONE', 'NONE',  #369 ) ;
#290 = PRODUCT_RELATED_PRODUCT_CATEGORY ( 'detail', '', ( #378 ) ) ;
#291 = CC_DESIGN_SECURITY_CLASSIFICATION ( #258, ( #277 ) ) ;
#292 = CC_DESIGN_APPROVAL ( #246, ( #258 ) ) ;
#293 = APPROVAL_DATE_TIME ( #243, #246 ) ;
#294 = CALENDAR_DATE ( 2009, 29, 6 ) ;
#295 = LOCAL_TIME ( 10, 29, 34.00000000000000000, #296 ) ;
#296 = COORDINATED_UNIVERSAL_TIME_OFFSET ( 9, 0, .AHEAD. ) ;
#297 = SHAPE_DEFINITION_REPRESENTATION ( #289, #298 ) ;
#298 = ADVANCED_BREP_SHAPE_REPRESENTATION ( 'C-30-RK-18-gray', ( #133, #242 ), #299 ) ;
#299 =( GEOMETRIC_REPRESENTATION_CONTEXT ( 3 ) GLOBAL_UNCERTAINTY_ASSIGNED_CONTEXT ( ( #300 ) ) GLOBAL_UNIT_ASSIGNED_CONTEXT ( ( #315, #314, #301 ) ) REPRESENTATION_CONTEXT ( 'NONE', 'WORKASPACE' ) );
#300 = UNCERTAINTY_MEASURE_WITH_UNIT (LENGTH_MEASURE( 1.000000000000000100E-005 ), #315, 'distance_accuracy_value', 'NONE');
#301 =( NAMED_UNIT ( * ) SI_UNIT ( $, .STERADIAN. ) SOLID_ANGLE_UNIT ( ) );
#302 = DIRECTION ( 'NONE',  ( 0.0000000000000000000, -0.9908301680442989100, -0.1351132047333134200 ) ) ;
#303 = VECTOR ( 'NONE', #302, 1000.000000000000100 ) ;
#304 = AXIS2_PLACEMENT_3D ( 'NONE', #343, #342, #341 ) ;
#305 = CIRCLE ( 'NONE', #304, 3.500000000000000400 ) ;
#306 = DIRECTION ( 'NONE',  ( 0.0000000000000000000, 0.0000000000000000000, -1.000000000000000000 ) ) ;
#307 = DIRECTION ( 'NONE',  ( 0.0000000000000000000, -1.000000000000000000, 0.0000000000000000000 ) ) ;
#308 = AXIS2_PLACEMENT_3D ( 'NONE', #345, #307, #306 ) ;
#309 = CONICAL_SURFACE ( 'NONE', #308, 9.000000000000000000, 0.1355277139855006200 ) ;
#310 = CARTESIAN_POINT ( 'NONE',  ( -5.009326287108706300E-010, -6.999999996500434000, 2.000000000000000000 ) ) ;
#311 = DIRECTION ( 'NONE',  ( 0.0000000000000000000, 0.0000000000000000000, 1.000000000000000000 ) ) ;
#312 = DIRECTION ( 'NONE',  ( 0.0000000000000000000, 1.000000000000000000, 0.0000000000000000000 ) ) ;
#313 = CARTESIAN_POINT ( 'NONE',  ( -5.009326287108706300E-010, -6.999999996500434000, 0.0000000000000000000 ) ) ;
#314 =( NAMED_UNIT ( * ) PLANE_ANGLE_UNIT ( ) SI_UNIT ( $, .RADIAN. ) );
#315 =( LENGTH_UNIT ( ) NAMED_UNIT ( * ) SI_UNIT ( .MILLI., .METRE. ) );
#316 = CARTESIAN_POINT ( 'NONE',  ( 0.0000000000000000000, 0.0000000000000000000, 0.0000000000000000000 ) ) ;
#317 = DIRECTION ( 'NONE',  ( 0.0000000000000000000, 0.0000000000000000000, 1.000000000000000000 ) ) ;
#318 = DIRECTION ( 'NONE',  ( 0.0000000000000000000, 1.000000000000000000, 0.0000000000000000000 ) ) ;
#319 = AXIS2_PLACEMENT_3D ( 'NONE', #325, #318, #317 ) ;
#320 = CIRCLE ( 'NONE', #319, 2.000000000000000400 ) ;
#321 = DIRECTION ( 'NONE',  ( 0.0000000000000000000, 0.0000000000000000000, 1.000000000000000000 ) ) ;
#322 = DIRECTION ( 'NONE',  ( 0.0000000000000000000, 1.000000000000000000, 0.0000000000000000000 ) ) ;
#323 = CARTESIAN_POINT ( 'NONE',  ( -5.009326287108706300E-010, 2.412507003500041800, 0.0000000000000000000 ) ) ;
#324 = AXIS2_PLACEMENT_3D ( 'NONE', #323, #322, #321 ) ;
#325 = CARTESIAN_POINT ( 'NONE',  ( -5.009326287108706300E-010, -10.99999999650043500, 0.0000000000000000000 ) ) ;
#326 = CYLINDRICAL_SURFACE ( 'NONE', #324, 2.000000000000000000 ) ;
#327 = FACE_OUTER_BOUND ( 'NONE', #104, .T. ) ;
#328 = DIRECTION ( 'NONE',  ( 0.0000000000000000000, 1.000000000000000000, 0.0000000000000000000 ) ) ;
#329 = CYLINDRICAL_SURFACE ( 'NONE', #338, 3.500000000000000000 ) ;
#330 = DIRECTION ( 'NONE',  ( 0.0000000000000000000, 0.0000000000000000000, 1.000000000000000000 ) ) ;
#331 = FACE_OUTER_BOUND ( 'NONE', #79, .T. ) ;
#332 = CARTESIAN_POINT ( 'NONE',  ( -5.009326287108706300E-010, -0.8648867917671275700, 7.617939108445457700 ) ) ;
#333 = DIRECTION ( 'NONE',  ( 0.0000000000000000000, 1.000000000000000000, 0.0000000000000000000 ) ) ;
#334 = VECTOR ( 'NONE', #333, 1000.000000000000000 ) ;
#335 = CARTESIAN_POINT ( 'NONE',  ( -5.009326287108706300E-010, 2.412507003500041800, 3.500000000000000000 ) ) ;
#336 = LINE ( 'NONE', #335, #334 ) ;
#337 = CARTESIAN_POINT ( 'NONE',  ( -5.009326287108706300E-010, 2.412507003500041800, 0.0000000000000000000 ) ) ;
#338 = AXIS2_PLACEMENT_3D ( 'NONE', #337, #357, #356 ) ;
#339 = CARTESIAN_POINT ( 'NONE',  ( -5.009326287108706300E-010, -6.999999996500434000, 3.500000000000000400 ) ) ;
#340 = CARTESIAN_POINT ( 'NONE',  ( -5.009322000986467900E-010, -6.999999996500434000, -3.500000000000000900 ) ) ;
#341 = DIRECTION ( 'NONE',  ( 0.0000000000000000000, 0.0000000000000000000, 1.000000000000000000 ) ) ;
#342 = DIRECTION ( 'NONE',  ( 0.0000000000000000000, 1.000000000000000000, 0.0000000000000000000 ) ) ;
#343 = CARTESIAN_POINT ( 'NONE',  ( -5.009326287108706300E-010, -6.999999996500434000, 0.0000000000000000000 ) ) ;
#344 = AXIS2_PLACEMENT_3D ( 'NONE', #313, #312, #311 ) ;
#345 = CARTESIAN_POINT ( 'NONE',  ( -5.009326287108706300E-010, -10.99999999650043500, 0.0000000000000000000 ) ) ;
#346 = FACE_OUTER_BOUND ( 'NONE', #90, .T. ) ;
#347 = CARTESIAN_POINT ( 'NONE',  ( -5.009316958132071000E-010, -0.8648867917671275700, -7.617939108445457700 ) ) ;
#348 = CARTESIAN_POINT ( 'NONE',  ( -5.009326287108706300E-010, -10.99999999650043500, 2.000000000000000400 ) ) ;
#349 = CARTESIAN_POINT ( 'NONE',  ( -5.009315265651521900E-010, -10.99999999650043500, 9.000000000000000000 ) ) ;
#350 = CARTESIAN_POINT ( 'NONE',  ( -5.009326287108706300E-010, -10.99999999650043500, -9.000000000000000000 ) ) ;
#351 = DIRECTION ( 'NONE',  ( 0.0000000000000000000, 1.000000000000000000, 0.0000000000000000000 ) ) ;
#352 = VECTOR ( 'NONE', #351, 1000.000000000000000 ) ;
#353 = CARTESIAN_POINT ( 'NONE',  ( -5.009326287108706300E-010, 2.412507003500041800, 2.000000000000000000 ) ) ;
#354 = LINE ( 'NONE', #353, #352 ) ;
#355 = CIRCLE ( 'NONE', #344, 2.000000000000000000 ) ;
#356 = DIRECTION ( 'NONE',  ( 0.0000000000000000000, 0.0000000000000000000, 1.000000000000000000 ) ) ;
#357 = DIRECTION ( 'NONE',  ( 0.0000000000000000000, 1.000000000000000000, 0.0000000000000000000 ) ) ;
#358 = CC_DESIGN_APPROVAL ( #366, ( #369 ) ) ;
#359 = APPROVAL_DATE_TIME ( #360, #366 ) ;
#360 = DATE_AND_TIME ( #361, #362 ) ;
#361 = CALENDAR_DATE ( 2009, 29, 6 ) ;
#362 = LOCAL_TIME ( 10, 29, 34.00000000000000000, #363 ) ;
#363 = COORDINATED_UNIVERSAL_TIME_OFFSET ( 9, 0, .AHEAD. ) ;
#364 = APPROVAL_PERSON_ORGANIZATION ( #368, #366, #365 ) ;
#365 = APPROVAL_ROLE ( '' ) ;
#366 = APPROVAL ( #367, 'UNSPECIFIED' ) ;
#367 = APPROVAL_STATUS ( 'not_yet_approved' ) ;
#368 = PERSON_AND_ORGANIZATION ( #377, #376 ) ;
#369 = PRODUCT_DEFINITION ( 'UNKNOWN', '', #277, #370 ) ;
#370 = DESIGN_CONTEXT ( 'detailed design', #372, 'design' ) ;
#371 = APPLICATION_PROTOCOL_DEFINITION ( 'international standard', 'config_control_design', 1994, #372 ) ;
#372 = APPLICATION_CONTEXT ( 'configuration controlled 3d designs of mechanical parts and assemblies' ) ;
#373 = CC_DESIGN_PERSON_AND_ORGANIZATION_ASSIGNMENT ( #375, #374, ( #378 ) ) ;
#374 = PERSON_AND_ORGANIZATION_ROLE ( 'design_owner' ) ;
#375 = PERSON_AND_ORGANIZATION ( #377, #376 ) ;
#376 = ORGANIZATION ( 'UNSPECIFIED', 'UNSPECIFIED', '' ) ;
#377 = PERSON ( 'UNSPECIFIED', 'UNSPECIFIED', 'UNSPECIFIED', ('UNSPECIFIED'), ('UNSPECIFIED'), ('UNSPECIFIED') ) ;
#378 = PRODUCT ( 'C-30-RK-18-gray', 'C-30-RK-18-gray', '', ( #379 ) ) ;
#379 = MECHANICAL_CONTEXT ( 'NONE', #381, 'mechanical' ) ;
#380 = APPLICATION_PROTOCOL_DEFINITION ( 'international standard', 'config_control_design', 1994, #381 ) ;
#381 = APPLICATION_CONTEXT ( 'configuration controlled 3d designs of mechanical parts and assemblies' ) ;
ENDSEC;
END-ISO-10303-21;
