ISO-10303-21;
HEADER;
FILE_DESCRIPTION (( 'STEP AP203' ),
    '1' );
FILE_NAME ('C-30-RK-18.STEP',
    '2009-06-26T04:30:07',
    ( '11sw' ),
    ( '^LQ»¢®ïÐ' ),
    'SwSTEP 2.0',
    'SolidWorks 2007',
    '' );
FILE_SCHEMA (( 'CONFIG_CONTROL_DESIGN' ));
ENDSEC;

DATA;
#1 = CARTESIAN_POINT ( 'NONE',  ( -5.009326287108706300E-010, -10.99999999650043500, 0.0000000000000000000 ) ) ;
#2 = FACE_OUTER_BOUND ( 'NONE', #5, .T. ) ;
#3 = MANIFOLD_SOLID_BREP ( 'NONE', #82 ) ;
#4 = ADVANCED_FACE ( 'NONE', ( #2 ), #57, .T. ) ;
#5 = EDGE_LOOP ( 'NONE', ( #6, #148, #140, #142 ) ) ;
#6 = ORIENTED_EDGE ( 'NONE', *, *, #7, .F. ) ;
#7 = EDGE_CURVE ( 'NONE', #8, #9, #53, .T. ) ;
#8 = VERTEX_POINT ( 'NONE', #48 ) ;
#9 = VERTEX_POINT ( 'NONE', #47 ) ;
#10 = EDGE_LOOP ( 'NONE', ( #11, #12, #14, #15 ) ) ;
#11 = ORIENTED_EDGE ( 'NONE', *, *, #115, .F. ) ;
#12 = ORIENTED_EDGE ( 'NONE', *, *, #13, .F. ) ;
#13 = EDGE_CURVE ( 'NONE', #113, #122, #46, .T. ) ;
#14 = ORIENTED_EDGE ( 'NONE', *, *, #112, .T. ) ;
#15 = ORIENTED_EDGE ( 'NONE', *, *, #90, .T. ) ;
#16 = ADVANCED_FACE ( 'NONE', ( #41, #40 ), #39, .F. ) ;
#17 = EDGE_LOOP ( 'NONE', ( #18, #20 ) ) ;
#18 = ORIENTED_EDGE ( 'NONE', *, *, #19, .F. ) ;
#19 = EDGE_CURVE ( 'NONE', #125, #139, #32, .T. ) ;
#20 = ORIENTED_EDGE ( 'NONE', *, *, #127, .F. ) ;
#21 = EDGE_LOOP ( 'NONE', ( #22, #23 ) ) ;
#22 = ORIENTED_EDGE ( 'NONE', *, *, #13, .T. ) ;
#23 = ORIENTED_EDGE ( 'NONE', *, *, #117, .T. ) ;
#24 = ADVANCED_FACE ( 'NONE', ( #169 ), #170, .F. ) ;
#25 = EDGE_LOOP ( 'NONE', ( #26, #64, #66, #67 ) ) ;
#26 = ORIENTED_EDGE ( 'NONE', *, *, #133, .F. ) ;
#27 = SECURITY_CLASSIFICATION ( '', '', #34 ) ;
#28 = DIRECTION ( 'NONE',  ( 0.0000000000000000000, 0.0000000000000000000, 1.000000000000000000 ) ) ;
#29 = DIRECTION ( 'NONE',  ( 0.0000000000000000000, 1.000000000000000000, 0.0000000000000000000 ) ) ;
#30 = CARTESIAN_POINT ( 'NONE',  ( -5.009326287108706300E-010, -6.999999996500434000, 0.0000000000000000000 ) ) ;
#31 = AXIS2_PLACEMENT_3D ( 'NONE', #30, #29, #28 ) ;
#32 = CIRCLE ( 'NONE', #31, 2.000000000000000000 ) ;
#33 = PERSON_AND_ORGANIZATION ( #253, #252 ) ;
#34 = SECURITY_CLASSIFICATION_LEVEL ( 'unclassified' ) ;
#35 = DIRECTION ( 'NONE',  ( 0.0000000000000000000, 0.0000000000000000000, -1.000000000000000000 ) ) ;
#36 = DIRECTION ( 'NONE',  ( 0.0000000000000000000, -1.000000000000000000, 0.0000000000000000000 ) ) ;
#37 = CARTESIAN_POINT ( 'NONE',  ( 3.499999999499067800, -6.999999996500434900, 0.0000000000000000000 ) ) ;
#38 = AXIS2_PLACEMENT_3D ( 'NONE', #37, #36, #35 ) ;
#39 = PLANE ( 'NONE',  #38 ) ;
#40 = FACE_OUTER_BOUND ( 'NONE', #21, .T. ) ;
#41 = FACE_BOUND ( 'NONE', #17, .T. ) ;
#42 = DIRECTION ( 'NONE',  ( 0.0000000000000000000, 0.0000000000000000000, 1.000000000000000000 ) ) ;
#43 = DIRECTION ( 'NONE',  ( 0.0000000000000000000, 1.000000000000000000, 0.0000000000000000000 ) ) ;
#44 = CARTESIAN_POINT ( 'NONE',  ( -5.009326287108706300E-010, -6.999999996500434000, 0.0000000000000000000 ) ) ;
#45 = AXIS2_PLACEMENT_3D ( 'NONE', #44, #43, #42 ) ;
#46 = CIRCLE ( 'NONE', #45, 3.500000000000000400 ) ;
#47 = CARTESIAN_POINT ( 'NONE',  ( -5.009316958132071000E-010, -0.8648867917671275700, -7.617939108445457700 ) ) ;
#48 = CARTESIAN_POINT ( 'NONE',  ( -5.009326287108706300E-010, -0.8648867917671275700, 7.617939108445457700 ) ) ;
#49 = DIRECTION ( 'NONE',  ( 0.0000000000000000000, 0.0000000000000000000, 1.000000000000000000 ) ) ;
#50 = DIRECTION ( 'NONE',  ( 0.0000000000000000000, 1.000000000000000000, 0.0000000000000000000 ) ) ;
#51 = CARTESIAN_POINT ( 'NONE',  ( -5.009326287108706300E-010, -0.8648867917671275700, 0.0000000000000000000 ) ) ;
#52 = AXIS2_PLACEMENT_3D ( 'NONE', #51, #50, #49 ) ;
#53 = CIRCLE ( 'NONE', #52, 7.617939108445457700 ) ;
#54 = DIRECTION ( 'NONE',  ( 0.0000000000000000000, 0.0000000000000000000, -1.000000000000000000 ) ) ;
#55 = DIRECTION ( 'NONE',  ( 0.0000000000000000000, -1.000000000000000000, 0.0000000000000000000 ) ) ;
#56 = AXIS2_PLACEMENT_3D ( 'NONE', #1, #55, #54 ) ;
#57 = CONICAL_SURFACE ( 'NONE', #56, 9.000000000000000000, 0.1355277139855006200 ) ;
#58 = CC_DESIGN_DATE_AND_TIME_ASSIGNMENT ( #60, #59, ( #27 ) ) ;
#59 = DATE_TIME_ROLE ( 'classification_date' ) ;
#60 = DATE_AND_TIME ( #61, #62 ) ;
#61 = CALENDAR_DATE ( 2009, 26, 6 ) ;
#62 = LOCAL_TIME ( 13, 30, 7.000000000000000000, #63 ) ;
#63 = COORDINATED_UNIVERSAL_TIME_OFFSET ( 9, 0, .AHEAD. ) ;
#64 = ORIENTED_EDGE ( 'NONE', *, *, #65, .F. ) ;
#65 = EDGE_CURVE ( 'NONE', #131, #130, #205, .T. ) ;
#66 = ORIENTED_EDGE ( 'NONE', *, *, #124, .T. ) ;
#67 = ORIENTED_EDGE ( 'NONE', *, *, #19, .T. ) ;
#68 = ADVANCED_FACE ( 'NONE', ( #206, #200 ), #199, .F. ) ;
#69 = EDGE_LOOP ( 'NONE', ( #70, #72 ) ) ;
#70 = ORIENTED_EDGE ( 'NONE', *, *, #71, .F. ) ;
#71 = EDGE_CURVE ( 'NONE', #143, #144, #176, .T. ) ;
#72 = ORIENTED_EDGE ( 'NONE', *, *, #141, .F. ) ;
#73 = EDGE_LOOP ( 'NONE', ( #74, #75 ) ) ;
#74 = ORIENTED_EDGE ( 'NONE', *, *, #65, .T. ) ;
#75 = ORIENTED_EDGE ( 'NONE', *, *, #128, .T. ) ;
#76 = ADVANCED_FACE ( 'NONE', ( #172 ), #171, .T. ) ;
#77 = EDGE_LOOP ( 'NONE', ( #78, #79, #80, #81 ) ) ;
#78 = ORIENTED_EDGE ( 'NONE', *, *, #138, .F. ) ;
#79 = ORIENTED_EDGE ( 'NONE', *, *, #97, .F. ) ;
#80 = ORIENTED_EDGE ( 'NONE', *, *, #135, .T. ) ;
#81 = ORIENTED_EDGE ( 'NONE', *, *, #71, .T. ) ;
#82 = CLOSED_SHELL ( 'NONE', ( #4, #134, #123, #106, #94, #88, #86, #16, #24, #68, #76 ) ) ;
#83 = ORIENTED_EDGE ( 'NONE', *, *, #120, .F. ) ;
#84 = ORIENTED_EDGE ( 'NONE', *, *, #103, .T. ) ;
#85 = ORIENTED_EDGE ( 'NONE', *, *, #87, .T. ) ;
#86 = ADVANCED_FACE ( 'NONE', ( #166 ), #161, .F. ) ;
#87 = EDGE_CURVE ( 'NONE', #105, #104, #155, .T. ) ;
#88 = ADVANCED_FACE ( 'NONE', ( #151, #150 ), #149, .F. ) ;
#89 = ORIENTED_EDGE ( 'NONE', *, *, #90, .F. ) ;
#90 = EDGE_CURVE ( 'NONE', #121, #114, #186, .T. ) ;
#91 = ORIENTED_EDGE ( 'NONE', *, *, #87, .F. ) ;
#92 = EDGE_LOOP ( 'NONE', ( #89, #83 ) ) ;
#93 = EDGE_LOOP ( 'NONE', ( #84, #85 ) ) ;
#94 = ADVANCED_FACE ( 'NONE', ( #182 ), #181, .T. ) ;
#95 = ORIENTED_EDGE ( 'NONE', *, *, #109, .F. ) ;
#96 = ORIENTED_EDGE ( 'NONE', *, *, #97, .T. ) ;
#97 = EDGE_CURVE ( 'NONE', #9, #8, #366, .T. ) ;
#98 = ORIENTED_EDGE ( 'NONE', *, *, #101, .T. ) ;
#99 = ORIENTED_EDGE ( 'NONE', *, *, #103, .F. ) ;
#100 = ORIENTED_EDGE ( 'NONE', *, *, #101, .F. ) ;
#101 = EDGE_CURVE ( 'NONE', #8, #104, #361, .T. ) ;
#102 = EDGE_LOOP ( 'NONE', ( #95, #96, #98, #91 ) ) ;
#103 = EDGE_CURVE ( 'NONE', #104, #105, #356, .T. ) ;
#104 = VERTEX_POINT ( 'NONE', #351 ) ;
#105 = VERTEX_POINT ( 'NONE', #350 ) ;
#106 = ADVANCED_FACE ( 'NONE', ( #349 ), #346, .T. ) ;
#107 = ORIENTED_EDGE ( 'NONE', *, *, #7, .T. ) ;
#108 = ORIENTED_EDGE ( 'NONE', *, *, #109, .T. ) ;
#109 = EDGE_CURVE ( 'NONE', #9, #105, #342, .T. ) ;
#110 = ORIENTED_EDGE ( 'NONE', *, *, #112, .F. ) ;
#111 = EDGE_LOOP ( 'NONE', ( #107, #108, #99, #100 ) ) ;
#112 = EDGE_CURVE ( 'NONE', #113, #121, #338, .T. ) ;
#113 = VERTEX_POINT ( 'NONE', #334 ) ;
#114 = VERTEX_POINT ( 'NONE', #333 ) ;
#115 = EDGE_CURVE ( 'NONE', #122, #114, #332, .T. ) ;
#116 = ORIENTED_EDGE ( 'NONE', *, *, #120, .T. ) ;
#117 = EDGE_CURVE ( 'NONE', #122, #113, #328, .T. ) ;
#118 = ORIENTED_EDGE ( 'NONE', *, *, #115, .T. ) ;
#119 = ORIENTED_EDGE ( 'NONE', *, *, #117, .F. ) ;
#120 = EDGE_CURVE ( 'NONE', #114, #121, #323, .T. ) ;
#121 = VERTEX_POINT ( 'NONE', #318 ) ;
#122 = VERTEX_POINT ( 'NONE', #317 ) ;
#123 = ADVANCED_FACE ( 'NONE', ( #316 ), #314, .F. ) ;
#124 = EDGE_CURVE ( 'NONE', #131, #125, #310, .T. ) ;
#125 = VERTEX_POINT ( 'NONE', #306 ) ;
#126 = ORIENTED_EDGE ( 'NONE', *, *, #127, .T. ) ;
#127 = EDGE_CURVE ( 'NONE', #139, #125, #305, .T. ) ;
#128 = EDGE_CURVE ( 'NONE', #130, #131, #299, .T. ) ;
#129 = ORIENTED_EDGE ( 'NONE', *, *, #128, .F. ) ;
#130 = VERTEX_POINT ( 'NONE', #295 ) ;
#131 = VERTEX_POINT ( 'NONE', #294 ) ;
#132 = ORIENTED_EDGE ( 'NONE', *, *, #133, .T. ) ;
#133 = EDGE_CURVE ( 'NONE', #130, #139, #293, .T. ) ;
#134 = ADVANCED_FACE ( 'NONE', ( #289 ), #288, .F. ) ;
#135 = EDGE_CURVE ( 'NONE', #9, #143, #283, .T. ) ;
#136 = EDGE_LOOP ( 'NONE', ( #119, #118, #116, #110 ) ) ;
#137 = EDGE_LOOP ( 'NONE', ( #129, #132, #126, #145 ) ) ;
#138 = EDGE_CURVE ( 'NONE', #8, #144, #279, .T. ) ;
#139 = VERTEX_POINT ( 'NONE', #275 ) ;
#140 = ORIENTED_EDGE ( 'NONE', *, *, #141, .T. ) ;
#141 = EDGE_CURVE ( 'NONE', #144, #143, #274, .T. ) ;
#142 = ORIENTED_EDGE ( 'NONE', *, *, #135, .F. ) ;
#143 = VERTEX_POINT ( 'NONE', #269 ) ;
#144 = VERTEX_POINT ( 'NONE', #268 ) ;
#145 = ORIENTED_EDGE ( 'NONE', *, *, #124, .F. ) ;
#146 = CC_DESIGN_PERSON_AND_ORGANIZATION_ASSIGNMENT ( #33, #147, ( #27 ) ) ;
#147 = PERSON_AND_ORGANIZATION_ROLE ( 'classification_officer' ) ;
#148 = ORIENTED_EDGE ( 'NONE', *, *, #138, .T. ) ;
#149 = PLANE ( 'NONE',  #190 ) ;
#150 = FACE_OUTER_BOUND ( 'NONE', #93, .T. ) ;
#151 = FACE_BOUND ( 'NONE', #92, .T. ) ;
#152 = DIRECTION ( 'NONE',  ( 0.0000000000000000000, 0.0000000000000000000, 1.000000000000000000 ) ) ;
#153 = DIRECTION ( 'NONE',  ( 0.0000000000000000000, 1.000000000000000000, 0.0000000000000000000 ) ) ;
#154 = AXIS2_PLACEMENT_3D ( 'NONE', #160, #153, #152 ) ;
#155 = CIRCLE ( 'NONE', #154, 6.627108940401151400 ) ;
#156 = DIRECTION ( 'NONE',  ( 0.0000000000000000000, 0.0000000000000000000, 1.000000000000000000 ) ) ;
#157 = DIRECTION ( 'NONE',  ( 0.0000000000000000000, 1.000000000000000000, 0.0000000000000000000 ) ) ;
#158 = CARTESIAN_POINT ( 'NONE',  ( -5.009326287108706300E-010, 2.412507003500041800, 0.0000000000000000000 ) ) ;
#159 = AXIS2_PLACEMENT_3D ( 'NONE', #158, #157, #156 ) ;
#160 = CARTESIAN_POINT ( 'NONE',  ( -5.009326287108706300E-010, 3.499565220943523500E-009, 0.0000000000000000000 ) ) ;
#161 = CYLINDRICAL_SURFACE ( 'NONE', #159, 3.500000000000000000 ) ;
#162 = DIRECTION ( 'NONE',  ( 0.0000000000000000000, 0.0000000000000000000, -1.000000000000000000 ) ) ;
#163 = DIRECTION ( 'NONE',  ( 0.0000000000000000000, -1.000000000000000000, 0.0000000000000000000 ) ) ;
#164 = CARTESIAN_POINT ( 'NONE',  ( -5.009326287108706300E-010, -10.99999999650043500, 0.0000000000000000000 ) ) ;
#165 = AXIS2_PLACEMENT_3D ( 'NONE', #164, #163, #162 ) ;
#166 = FACE_OUTER_BOUND ( 'NONE', #10, .T. ) ;
#167 = DIRECTION ( 'NONE',  ( 0.0000000000000000000, 0.0000000000000000000, 1.000000000000000000 ) ) ;
#168 = DIRECTION ( 'NONE',  ( 0.0000000000000000000, 1.000000000000000000, 0.0000000000000000000 ) ) ;
#169 = FACE_OUTER_BOUND ( 'NONE', #25, .T. ) ;
#170 = CYLINDRICAL_SURFACE ( 'NONE', #193, 2.000000000000000000 ) ;
#171 = CONICAL_SURFACE ( 'NONE', #165, 9.000000000000000000, 0.1355277139855006200 ) ;
#172 = FACE_OUTER_BOUND ( 'NONE', #77, .T. ) ;
#173 = DIRECTION ( 'NONE',  ( 0.0000000000000000000, 0.0000000000000000000, 1.000000000000000000 ) ) ;
#174 = DIRECTION ( 'NONE',  ( 0.0000000000000000000, 1.000000000000000000, 0.0000000000000000000 ) ) ;
#175 = AXIS2_PLACEMENT_3D ( 'NONE', #198, #174, #173 ) ;
#176 = CIRCLE ( 'NONE', #175, 9.000000000000000000 ) ;
#177 = DIRECTION ( 'NONE',  ( 0.0000000000000000000, 0.0000000000000000000, 1.000000000000000000 ) ) ;
#178 = DIRECTION ( 'NONE',  ( 0.0000000000000000000, 1.000000000000000000, 0.0000000000000000000 ) ) ;
#179 = CARTESIAN_POINT ( 'NONE',  ( -5.009326287108706300E-010, -0.9999999965004348100, 0.0000000000000000000 ) ) ;
#180 = AXIS2_PLACEMENT_3D ( 'NONE', #179, #178, #177 ) ;
#181 = TOROIDAL_SURFACE ( 'NONE', #180, 6.627108940401157600, 1.000000000000000400 ) ;
#182 = FACE_OUTER_BOUND ( 'NONE', #102, .T. ) ;
#183 = DIRECTION ( 'NONE',  ( 0.0000000000000000000, 0.0000000000000000000, 1.000000000000000000 ) ) ;
#184 = DIRECTION ( 'NONE',  ( 0.0000000000000000000, 1.000000000000000000, 0.0000000000000000000 ) ) ;
#185 = AXIS2_PLACEMENT_3D ( 'NONE', #191, #184, #183 ) ;
#186 = CIRCLE ( 'NONE', #185, 3.499999999999999600 ) ;
#187 = DIRECTION ( 'NONE',  ( 0.0000000000000000000, 0.0000000000000000000, -1.000000000000000000 ) ) ;
#188 = DIRECTION ( 'NONE',  ( 0.0000000000000000000, -1.000000000000000000, 0.0000000000000000000 ) ) ;
#189 = CARTESIAN_POINT ( 'NONE',  ( 6.627108939900218800, 3.499565220943523500E-009, 0.0000000000000000000 ) ) ;
#190 = AXIS2_PLACEMENT_3D ( 'NONE', #189, #188, #187 ) ;
#191 = CARTESIAN_POINT ( 'NONE',  ( -5.009326287108706300E-010, 3.499565220943523500E-009, 0.0000000000000000000 ) ) ;
#192 = CARTESIAN_POINT ( 'NONE',  ( -5.009326287108706300E-010, 2.412507003500041800, 0.0000000000000000000 ) ) ;
#193 = AXIS2_PLACEMENT_3D ( 'NONE', #192, #168, #167 ) ;
#194 = DIRECTION ( 'NONE',  ( 0.0000000000000000000, 0.0000000000000000000, 1.000000000000000000 ) ) ;
#195 = DIRECTION ( 'NONE',  ( 0.0000000000000000000, 1.000000000000000000, 0.0000000000000000000 ) ) ;
#196 = CARTESIAN_POINT ( 'NONE',  ( 1.999999999499067800, -10.99999999650043500, 0.0000000000000000000 ) ) ;
#197 = AXIS2_PLACEMENT_3D ( 'NONE', #196, #195, #194 ) ;
#198 = CARTESIAN_POINT ( 'NONE',  ( -5.009326287108706300E-010, -10.99999999650043500, 0.0000000000000000000 ) ) ;
#199 = PLANE ( 'NONE',  #197 ) ;
#200 = FACE_BOUND ( 'NONE', #73, .T. ) ;
#201 = DIRECTION ( 'NONE',  ( 0.0000000000000000000, 0.0000000000000000000, 1.000000000000000000 ) ) ;
#202 = DIRECTION ( 'NONE',  ( 0.0000000000000000000, 1.000000000000000000, 0.0000000000000000000 ) ) ;
#203 = CARTESIAN_POINT ( 'NONE',  ( -5.009326287108706300E-010, -10.99999999650043500, 0.0000000000000000000 ) ) ;
#204 = AXIS2_PLACEMENT_3D ( 'NONE', #203, #202, #201 ) ;
#205 = CIRCLE ( 'NONE', #204, 2.000000000000000400 ) ;
#206 = FACE_OUTER_BOUND ( 'NONE', #69, .T. ) ;
#207 = CC_DESIGN_PERSON_AND_ORGANIZATION_ASSIGNMENT ( #209, #208, ( #224 ) ) ;
#208 = PERSON_AND_ORGANIZATION_ROLE ( 'design_supplier' ) ;
#209 = PERSON_AND_ORGANIZATION ( #253, #252 ) ;
#210 = CC_DESIGN_PERSON_AND_ORGANIZATION_ASSIGNMENT ( #212, #211, ( #224 ) ) ;
#211 = PERSON_AND_ORGANIZATION_ROLE ( 'creator' ) ;
#212 = PERSON_AND_ORGANIZATION ( #253, #252 ) ;
#213 = CC_DESIGN_APPROVAL ( #221, ( #224 ) ) ;
#214 = APPROVAL_DATE_TIME ( #215, #221 ) ;
#215 = DATE_AND_TIME ( #216, #217 ) ;
#216 = CALENDAR_DATE ( 2009, 26, 6 ) ;
#217 = LOCAL_TIME ( 13, 30, 7.000000000000000000, #218 ) ;
#218 = COORDINATED_UNIVERSAL_TIME_OFFSET ( 9, 0, .AHEAD. ) ;
#219 = APPROVAL_PERSON_ORGANIZATION ( #223, #221, #220 ) ;
#220 = APPROVAL_ROLE ( '' ) ;
#221 = APPROVAL ( #222, 'UNSPECIFIED' ) ;
#222 = APPROVAL_STATUS ( 'not_yet_approved' ) ;
#223 = PERSON_AND_ORGANIZATION ( #253, #252 ) ;
#224 = PRODUCT_DEFINITION_FORMATION_WITH_SPECIFIED_SOURCE ( 'ANY', '', #254, .NOT_KNOWN. ) ;
#225 = CC_DESIGN_DATE_AND_TIME_ASSIGNMENT ( #227, #226, ( #245 ) ) ;
#226 = DATE_TIME_ROLE ( 'creation_date' ) ;
#227 = DATE_AND_TIME ( #228, #229 ) ;
#228 = CALENDAR_DATE ( 2009, 26, 6 ) ;
#229 = LOCAL_TIME ( 13, 30, 7.000000000000000000, #230 ) ;
#230 = COORDINATED_UNIVERSAL_TIME_OFFSET ( 9, 0, .AHEAD. ) ;
#231 = CC_DESIGN_PERSON_AND_ORGANIZATION_ASSIGNMENT ( #233, #232, ( #245 ) ) ;
#232 = PERSON_AND_ORGANIZATION_ROLE ( 'creator' ) ;
#233 = PERSON_AND_ORGANIZATION ( #253, #252 ) ;
#234 = CC_DESIGN_APPROVAL ( #242, ( #245 ) ) ;
#235 = APPROVAL_DATE_TIME ( #236, #242 ) ;
#236 = DATE_AND_TIME ( #237, #238 ) ;
#237 = CALENDAR_DATE ( 2009, 26, 6 ) ;
#238 = LOCAL_TIME ( 13, 30, 7.000000000000000000, #239 ) ;
#239 = COORDINATED_UNIVERSAL_TIME_OFFSET ( 9, 0, .AHEAD. ) ;
#240 = APPROVAL_PERSON_ORGANIZATION ( #244, #242, #241 ) ;
#241 = APPROVAL_ROLE ( '' ) ;
#242 = APPROVAL ( #243, 'UNSPECIFIED' ) ;
#243 = APPROVAL_STATUS ( 'not_yet_approved' ) ;
#244 = PERSON_AND_ORGANIZATION ( #253, #252 ) ;
#245 = PRODUCT_DEFINITION ( 'UNKNOWN', '', #224, #246 ) ;
#246 = DESIGN_CONTEXT ( 'detailed design', #248, 'design' ) ;
#247 = APPLICATION_PROTOCOL_DEFINITION ( 'international standard', 'config_control_design', 1994, #248 ) ;
#248 = APPLICATION_CONTEXT ( 'configuration controlled 3d designs of mechanical parts and assemblies' ) ;
#249 = CC_DESIGN_PERSON_AND_ORGANIZATION_ASSIGNMENT ( #251, #250, ( #254 ) ) ;
#250 = PERSON_AND_ORGANIZATION_ROLE ( 'design_owner' ) ;
#251 = PERSON_AND_ORGANIZATION ( #253, #252 ) ;
#252 = ORGANIZATION ( 'UNSPECIFIED', 'UNSPECIFIED', '' ) ;
#253 = PERSON ( 'UNSPECIFIED', 'UNSPECIFIED', 'UNSPECIFIED', ('UNSPECIFIED'), ('UNSPECIFIED'), ('UNSPECIFIED') ) ;
#254 = PRODUCT ( 'C-30-RK-18', 'C-30-RK-18', '', ( #255 ) ) ;
#255 = MECHANICAL_CONTEXT ( 'NONE', #257, 'mechanical' ) ;
#256 = APPLICATION_PROTOCOL_DEFINITION ( 'international standard', 'config_control_design', 1994, #257 ) ;
#257 = APPLICATION_CONTEXT ( 'configuration controlled 3d designs of mechanical parts and assemblies' ) ;
#258 = DIRECTION ( 'NONE',  ( 1.000000000000000000, 0.0000000000000000000, 0.0000000000000000000 ) ) ;
#259 = CARTESIAN_POINT ( 'NONE',  ( 0.0000000000000000000, 0.0000000000000000000, 0.0000000000000000000 ) ) ;
#260 = AXIS2_PLACEMENT_3D ( 'NONE', #259, #267, #258 ) ;
#261 = ADVANCED_BREP_SHAPE_REPRESENTATION ( 'C-30-RK-18', ( #3, #260 ), #262 ) ;
#262 =( GEOMETRIC_REPRESENTATION_CONTEXT ( 3 ) GLOBAL_UNCERTAINTY_ASSIGNED_CONTEXT ( ( #263 ) ) GLOBAL_UNIT_ASSIGNED_CONTEXT ( ( #266, #265, #264 ) ) REPRESENTATION_CONTEXT ( 'NONE', 'WORKASPACE' ) );
#263 = UNCERTAINTY_MEASURE_WITH_UNIT (LENGTH_MEASURE( 1.000000000000000100E-005 ), #266, 'distance_accuracy_value', 'NONE');
#264 =( NAMED_UNIT ( * ) SI_UNIT ( $, .STERADIAN. ) SOLID_ANGLE_UNIT ( ) );
#265 =( NAMED_UNIT ( * ) PLANE_ANGLE_UNIT ( ) SI_UNIT ( $, .RADIAN. ) );
#266 =( LENGTH_UNIT ( ) NAMED_UNIT ( * ) SI_UNIT ( .MILLI., .METRE. ) );
#267 = DIRECTION ( 'NONE',  ( 0.0000000000000000000, 0.0000000000000000000, 1.000000000000000000 ) ) ;
#268 = CARTESIAN_POINT ( 'NONE',  ( -5.009315265651521900E-010, -10.99999999650043500, 9.000000000000000000 ) ) ;
#269 = CARTESIAN_POINT ( 'NONE',  ( -5.009326287108706300E-010, -10.99999999650043500, -9.000000000000000000 ) ) ;
#270 = DIRECTION ( 'NONE',  ( 0.0000000000000000000, 0.0000000000000000000, 1.000000000000000000 ) ) ;
#271 = DIRECTION ( 'NONE',  ( 0.0000000000000000000, 1.000000000000000000, 0.0000000000000000000 ) ) ;
#272 = CARTESIAN_POINT ( 'NONE',  ( -5.009326287108706300E-010, -10.99999999650043500, 0.0000000000000000000 ) ) ;
#273 = AXIS2_PLACEMENT_3D ( 'NONE', #272, #271, #270 ) ;
#274 = CIRCLE ( 'NONE', #273, 9.000000000000000000 ) ;
#275 = CARTESIAN_POINT ( 'NONE',  ( -5.009323837895998700E-010, -6.999999996500434000, -2.000000000000000000 ) ) ;
#276 = DIRECTION ( 'NONE',  ( 1.654604890017193000E-017, -0.9908301680442989100, 0.1351132047333134200 ) ) ;
#277 = VECTOR ( 'NONE', #276, 1000.000000000000100 ) ;
#278 = CARTESIAN_POINT ( 'NONE',  ( -5.009315265651521900E-010, -10.99999999650043500, 9.000000000000000000 ) ) ;
#279 = LINE ( 'NONE', #278, #277 ) ;
#280 = DIRECTION ( 'NONE',  ( 0.0000000000000000000, -0.9908301680442989100, -0.1351132047333134200 ) ) ;
#281 = VECTOR ( 'NONE', #280, 1000.000000000000100 ) ;
#282 = CARTESIAN_POINT ( 'NONE',  ( -5.009326287108706300E-010, -10.99999999650043500, -9.000000000000000000 ) ) ;
#283 = LINE ( 'NONE', #282, #281 ) ;
#284 = DIRECTION ( 'NONE',  ( 0.0000000000000000000, 0.0000000000000000000, 1.000000000000000000 ) ) ;
#285 = DIRECTION ( 'NONE',  ( 0.0000000000000000000, 1.000000000000000000, 0.0000000000000000000 ) ) ;
#286 = CARTESIAN_POINT ( 'NONE',  ( -5.009326287108706300E-010, 2.412507003500041800, 0.0000000000000000000 ) ) ;
#287 = AXIS2_PLACEMENT_3D ( 'NONE', #286, #285, #284 ) ;
#288 = CYLINDRICAL_SURFACE ( 'NONE', #287, 2.000000000000000000 ) ;
#289 = FACE_OUTER_BOUND ( 'NONE', #137, .T. ) ;
#290 = DIRECTION ( 'NONE',  ( 0.0000000000000000000, 1.000000000000000000, 0.0000000000000000000 ) ) ;
#291 = VECTOR ( 'NONE', #290, 1000.000000000000000 ) ;
#292 = CARTESIAN_POINT ( 'NONE',  ( -5.009323837895998700E-010, 2.412507003500041800, -2.000000000000000000 ) ) ;
#293 = LINE ( 'NONE', #292, #291 ) ;
#294 = CARTESIAN_POINT ( 'NONE',  ( -5.009326287108706300E-010, -10.99999999650043500, 2.000000000000000400 ) ) ;
#295 = CARTESIAN_POINT ( 'NONE',  ( -5.009323837895998700E-010, -10.99999999650043500, -2.000000000000000400 ) ) ;
#296 = DIRECTION ( 'NONE',  ( 0.0000000000000000000, 0.0000000000000000000, 1.000000000000000000 ) ) ;
#297 = DIRECTION ( 'NONE',  ( 0.0000000000000000000, 1.000000000000000000, 0.0000000000000000000 ) ) ;
#298 = AXIS2_PLACEMENT_3D ( 'NONE', #304, #297, #296 ) ;
#299 = CIRCLE ( 'NONE', #298, 2.000000000000000400 ) ;
#300 = DIRECTION ( 'NONE',  ( 0.0000000000000000000, 0.0000000000000000000, 1.000000000000000000 ) ) ;
#301 = DIRECTION ( 'NONE',  ( 0.0000000000000000000, 1.000000000000000000, 0.0000000000000000000 ) ) ;
#302 = CARTESIAN_POINT ( 'NONE',  ( -5.009326287108706300E-010, -6.999999996500434000, 0.0000000000000000000 ) ) ;
#303 = AXIS2_PLACEMENT_3D ( 'NONE', #302, #301, #300 ) ;
#304 = CARTESIAN_POINT ( 'NONE',  ( -5.009326287108706300E-010, -10.99999999650043500, 0.0000000000000000000 ) ) ;
#305 = CIRCLE ( 'NONE', #303, 2.000000000000000000 ) ;
#306 = CARTESIAN_POINT ( 'NONE',  ( -5.009326287108706300E-010, -6.999999996500434000, 2.000000000000000000 ) ) ;
#307 = DIRECTION ( 'NONE',  ( 0.0000000000000000000, 1.000000000000000000, 0.0000000000000000000 ) ) ;
#308 = VECTOR ( 'NONE', #307, 1000.000000000000000 ) ;
#309 = CARTESIAN_POINT ( 'NONE',  ( -5.009326287108706300E-010, 2.412507003500041800, 2.000000000000000000 ) ) ;
#310 = LINE ( 'NONE', #309, #308 ) ;
#311 = DIRECTION ( 'NONE',  ( 0.0000000000000000000, 0.0000000000000000000, 1.000000000000000000 ) ) ;
#312 = DIRECTION ( 'NONE',  ( 0.0000000000000000000, 1.000000000000000000, 0.0000000000000000000 ) ) ;
#313 = AXIS2_PLACEMENT_3D ( 'NONE', #315, #312, #311 ) ;
#314 = CYLINDRICAL_SURFACE ( 'NONE', #313, 3.500000000000000000 ) ;
#315 = CARTESIAN_POINT ( 'NONE',  ( -5.009326287108706300E-010, 2.412507003500041800, 0.0000000000000000000 ) ) ;
#316 = FACE_OUTER_BOUND ( 'NONE', #136, .T. ) ;
#317 = CARTESIAN_POINT ( 'NONE',  ( -5.009322000986467900E-010, -6.999999996500434000, -3.500000000000000400 ) ) ;
#318 = CARTESIAN_POINT ( 'NONE',  ( -5.009326287108706300E-010, 3.499565220943523500E-009, 3.499999999999999600 ) ) ;
#319 = DIRECTION ( 'NONE',  ( 0.0000000000000000000, 0.0000000000000000000, 1.000000000000000000 ) ) ;
#320 = DIRECTION ( 'NONE',  ( 0.0000000000000000000, 1.000000000000000000, 0.0000000000000000000 ) ) ;
#321 = CARTESIAN_POINT ( 'NONE',  ( -5.009326287108706300E-010, 3.499565220943523500E-009, 0.0000000000000000000 ) ) ;
#322 = AXIS2_PLACEMENT_3D ( 'NONE', #321, #320, #319 ) ;
#323 = CIRCLE ( 'NONE', #322, 3.499999999999999600 ) ;
#324 = DIRECTION ( 'NONE',  ( 0.0000000000000000000, 0.0000000000000000000, 1.000000000000000000 ) ) ;
#325 = DIRECTION ( 'NONE',  ( 0.0000000000000000000, 1.000000000000000000, 0.0000000000000000000 ) ) ;
#326 = CARTESIAN_POINT ( 'NONE',  ( -5.009326287108706300E-010, -6.999999996500434000, 0.0000000000000000000 ) ) ;
#327 = AXIS2_PLACEMENT_3D ( 'NONE', #326, #325, #324 ) ;
#328 = CIRCLE ( 'NONE', #327, 3.500000000000000400 ) ;
#329 = DIRECTION ( 'NONE',  ( 0.0000000000000000000, 1.000000000000000000, 0.0000000000000000000 ) ) ;
#330 = VECTOR ( 'NONE', #329, 1000.000000000000000 ) ;
#331 = CARTESIAN_POINT ( 'NONE',  ( -5.009322000986467900E-010, 2.412507003500041800, -3.500000000000000000 ) ) ;
#332 = LINE ( 'NONE', #331, #330 ) ;
#333 = CARTESIAN_POINT ( 'NONE',  ( -5.009322000986467900E-010, 3.499565220943523500E-009, -3.499999999999999600 ) ) ;
#334 = CARTESIAN_POINT ( 'NONE',  ( -5.009326287108706300E-010, -6.999999996500434000, 3.500000000000000400 ) ) ;
#335 = DIRECTION ( 'NONE',  ( 0.0000000000000000000, 1.000000000000000000, 0.0000000000000000000 ) ) ;
#336 = VECTOR ( 'NONE', #335, 1000.000000000000000 ) ;
#337 = CARTESIAN_POINT ( 'NONE',  ( -5.009326287108706300E-010, 2.412507003500041800, 3.500000000000000000 ) ) ;
#338 = LINE ( 'NONE', #337, #336 ) ;
#339 = DIRECTION ( 'NONE',  ( 1.224606353612349900E-016, 0.0000000000000000000, -1.000000000000000000 ) ) ;
#340 = DIRECTION ( 'NONE',  ( 1.000000000000000000, 0.0000000000000000000, 1.224606353822377300E-016 ) ) ;
#341 = AXIS2_PLACEMENT_3D ( 'NONE', #347, #340, #339 ) ;
#342 = CIRCLE ( 'NONE', #341, 1.000000000000000900 ) ;
#343 = DIRECTION ( 'NONE',  ( 0.0000000000000000000, 0.0000000000000000000, 1.000000000000000000 ) ) ;
#344 = DIRECTION ( 'NONE',  ( 0.0000000000000000000, 1.000000000000000000, 0.0000000000000000000 ) ) ;
#345 = AXIS2_PLACEMENT_3D ( 'NONE', #348, #344, #343 ) ;
#346 = TOROIDAL_SURFACE ( 'NONE', #345, 6.627108940401157600, 1.000000000000000400 ) ;
#347 = CARTESIAN_POINT ( 'NONE',  ( -5.009318171508990000E-010, -0.9999999965004348100, -6.627108940401157600 ) ) ;
#348 = CARTESIAN_POINT ( 'NONE',  ( -5.009326287108706300E-010, -0.9999999965004348100, 0.0000000000000000000 ) ) ;
#349 = FACE_OUTER_BOUND ( 'NONE', #111, .T. ) ;
#350 = CARTESIAN_POINT ( 'NONE',  ( -5.009317564820530000E-010, 3.499565220943523500E-009, -6.627108940401151400 ) ) ;
#351 = CARTESIAN_POINT ( 'NONE',  ( -5.009326287108706300E-010, 3.499565220943523500E-009, 6.627108940401151400 ) ) ;
#352 = DIRECTION ( 'NONE',  ( 0.0000000000000000000, 0.0000000000000000000, 1.000000000000000000 ) ) ;
#353 = DIRECTION ( 'NONE',  ( 0.0000000000000000000, 1.000000000000000000, 0.0000000000000000000 ) ) ;
#354 = CARTESIAN_POINT ( 'NONE',  ( -5.009326287108706300E-010, 3.499565220943523500E-009, 0.0000000000000000000 ) ) ;
#355 = AXIS2_PLACEMENT_3D ( 'NONE', #354, #353, #352 ) ;
#356 = CIRCLE ( 'NONE', #355, 6.627108940401151400 ) ;
#357 = DIRECTION ( 'NONE',  ( 0.0000000000000000000, 0.0000000000000000000, 1.000000000000000000 ) ) ;
#358 = DIRECTION ( 'NONE',  ( -1.000000000000000000, 0.0000000000000000000, 0.0000000000000000000 ) ) ;
#359 = CARTESIAN_POINT ( 'NONE',  ( -5.009326287108706300E-010, -0.9999999965004348100, 6.627108940401157600 ) ) ;
#360 = AXIS2_PLACEMENT_3D ( 'NONE', #359, #358, #357 ) ;
#361 = CIRCLE ( 'NONE', #360, 1.000000000000000900 ) ;
#362 = DIRECTION ( 'NONE',  ( 0.0000000000000000000, 0.0000000000000000000, 1.000000000000000000 ) ) ;
#363 = DIRECTION ( 'NONE',  ( 0.0000000000000000000, 1.000000000000000000, 0.0000000000000000000 ) ) ;
#364 = CARTESIAN_POINT ( 'NONE',  ( -5.009326287108706300E-010, -0.8648867917671275700, 0.0000000000000000000 ) ) ;
#365 = AXIS2_PLACEMENT_3D ( 'NONE', #364, #363, #362 ) ;
#366 = CIRCLE ( 'NONE', #365, 7.617939108445457700 ) ;
#367 = SHAPE_DEFINITION_REPRESENTATION ( #368, #261 ) ;
#368 = PRODUCT_DEFINITION_SHAPE ( 'NONE', 'NONE',  #245 ) ;
#369 = CC_DESIGN_SECURITY_CLASSIFICATION ( #27, ( #224 ) ) ;
#370 = CC_DESIGN_APPROVAL ( #377, ( #27 ) ) ;
#371 = APPROVAL_DATE_TIME ( #372, #377 ) ;
#372 = DATE_AND_TIME ( #374, #375 ) ;
#373 = APPROVAL_STATUS ( 'not_yet_approved' ) ;
#374 = CALENDAR_DATE ( 2009, 26, 6 ) ;
#375 = LOCAL_TIME ( 13, 30, 7.000000000000000000, #376 ) ;
#376 = COORDINATED_UNIVERSAL_TIME_OFFSET ( 9, 0, .AHEAD. ) ;
#377 = APPROVAL ( #373, 'UNSPECIFIED' ) ;
#378 = PERSON_AND_ORGANIZATION ( #253, #252 ) ;
#379 = PRODUCT_RELATED_PRODUCT_CATEGORY ( 'detail', '', ( #254 ) ) ;
#380 = APPROVAL_PERSON_ORGANIZATION ( #378, #377, #381 ) ;
#381 = APPROVAL_ROLE ( '' ) ;
ENDSEC;
END-ISO-10303-21;
