ISO-10303-21;
HEADER;
FILE_DESCRIPTION (( 'STEP AP203' ),
    '1' );
FILE_NAME ('C-30-RK-16-ÃÞÌ«ÙÄ.STEP',
    '2009-06-29T01:26:21',
    ( '11sw' ),
    ( '^LQ»¢®ïÐ' ),
    'SwSTEP 2.0',
    'SolidWorks 2007',
    '' );
FILE_SCHEMA (( 'CONFIG_CONTROL_DESIGN' ));
ENDSEC;

DATA;
#1 = PRODUCT_RELATED_PRODUCT_CATEGORY ( 'detail', '', ( #322 ) ) ;
#2 = SHAPE_DEFINITION_REPRESENTATION ( #3, #179 ) ;
#3 = PRODUCT_DEFINITION_SHAPE ( 'NONE', 'NONE',  #120 ) ;
#4 = CC_DESIGN_SECURITY_CLASSIFICATION ( #360, ( #348 ) ) ;
#5 = CARTESIAN_POINT ( 'NONE',  ( -5.009326287108706300E-010, -4.999999996500434900, 0.0000000000000000000 ) ) ;
#6 = APPROVAL ( #118, 'UNSPECIFIED' ) ;
#7 = AXIS2_PLACEMENT_3D ( 'NONE', #5, #13, #14 ) ;
#8 = CIRCLE ( 'NONE', #7, 1.500000000000000000 ) ;
#9 = APPROVAL_PERSON_ORGANIZATION ( #119, #6, #11 ) ;
#10 = PERSON_AND_ORGANIZATION ( #321, #320 ) ;
#11 = APPROVAL_ROLE ( '' ) ;
#12 = PERSON_AND_ORGANIZATION_ROLE ( 'classification_officer' ) ;
#13 = DIRECTION ( 'NONE',  ( 0.0000000000000000000, 1.000000000000000000, 0.0000000000000000000 ) ) ;
#14 = DIRECTION ( 'NONE',  ( 0.0000000000000000000, 0.0000000000000000000, 1.000000000000000000 ) ) ;
#15 = LOCAL_TIME ( 10, 26, 21.00000000000000000, #16 ) ;
#16 = COORDINATED_UNIVERSAL_TIME_OFFSET ( 9, 0, .AHEAD. ) ;
#17 = CC_DESIGN_APPROVAL ( #6, ( #120 ) ) ;
#18 = CALENDAR_DATE ( 2009, 29, 6 ) ;
#19 = APPROVAL_DATE_TIME ( #20, #6 ) ;
#20 = DATE_AND_TIME ( #18, #15 ) ;
#21 = CC_DESIGN_PERSON_AND_ORGANIZATION_ASSIGNMENT ( #10, #12, ( #360 ) ) ;
#22 = EDGE_LOOP ( 'NONE', ( #89, #90, #132, #133 ) ) ;
#23 = ORIENTED_EDGE ( 'NONE', *, *, #94, .F. ) ;
#24 = ADVANCED_FACE ( 'NONE', ( #117 ), #114, .T. ) ;
#25 = EDGE_CURVE ( 'NONE', #29, #61, #115, .T. ) ;
#26 = ORIENTED_EDGE ( 'NONE', *, *, #25, .F. ) ;
#27 = ORIENTED_EDGE ( 'NONE', *, *, #106, .T. ) ;
#28 = ORIENTED_EDGE ( 'NONE', *, *, #103, .T. ) ;
#29 = VERTEX_POINT ( 'NONE', #172 ) ;
#30 = EDGE_LOOP ( 'NONE', ( #32, #28, #27, #26 ) ) ;
#31 = ADVANCED_FACE ( 'NONE', ( #171 ), #170, .F. ) ;
#32 = ORIENTED_EDGE ( 'NONE', *, *, #33, .F. ) ;
#33 = EDGE_CURVE ( 'NONE', #34, #29, #169, .T. ) ;
#34 = VERTEX_POINT ( 'NONE', #160 ) ;
#35 = VERTEX_POINT ( 'NONE', #159 ) ;
#36 = ORIENTED_EDGE ( 'NONE', *, *, #39, .T. ) ;
#37 = VERTEX_POINT ( 'NONE', #158 ) ;
#38 = VERTEX_POINT ( 'NONE', #157 ) ;
#39 = EDGE_CURVE ( 'NONE', #49, #37, #155, .T. ) ;
#40 = ADVANCED_FACE ( 'NONE', ( #156 ), #149, .F. ) ;
#41 = EDGE_LOOP ( 'NONE', ( #42, #51, #43, #45 ) ) ;
#42 = ORIENTED_EDGE ( 'NONE', *, *, #50, .F. ) ;
#43 = ORIENTED_EDGE ( 'NONE', *, *, #46, .T. ) ;
#44 = VERTEX_POINT ( 'NONE', #145 ) ;
#45 = ORIENTED_EDGE ( 'NONE', *, *, #105, .F. ) ;
#46 = EDGE_CURVE ( 'NONE', #52, #44, #8, .T. ) ;
#47 = EDGE_CURVE ( 'NONE', #35, #37, #331, .T. ) ;
#48 = EDGE_CURVE ( 'NONE', #58, #49, #330, .T. ) ;
#49 = VERTEX_POINT ( 'NONE', #333 ) ;
#50 = EDGE_CURVE ( 'NONE', #54, #38, #332, .T. ) ;
#51 = ORIENTED_EDGE ( 'NONE', *, *, #57, .T. ) ;
#52 = VERTEX_POINT ( 'NONE', #315 ) ;
#53 = ORIENTED_EDGE ( 'NONE', *, *, #47, .F. ) ;
#54 = VERTEX_POINT ( 'NONE', #314 ) ;
#55 = ORIENTED_EDGE ( 'NONE', *, *, #48, .T. ) ;
#56 = EDGE_CURVE ( 'NONE', #58, #35, #313, .T. ) ;
#57 = EDGE_CURVE ( 'NONE', #54, #52, #308, .T. ) ;
#58 = VERTEX_POINT ( 'NONE', #304 ) ;
#59 = ORIENTED_EDGE ( 'NONE', *, *, #56, .F. ) ;
#60 = ADVANCED_FACE ( 'NONE', ( #303 ), #301, .T. ) ;
#61 = VERTEX_POINT ( 'NONE', #297 ) ;
#62 = EDGE_LOOP ( 'NONE', ( #63, #64, #66, #67 ) ) ;
#63 = ORIENTED_EDGE ( 'NONE', *, *, #103, .F. ) ;
#64 = ORIENTED_EDGE ( 'NONE', *, *, #65, .F. ) ;
#65 = EDGE_CURVE ( 'NONE', #29, #34, #296, .T. ) ;
#66 = ORIENTED_EDGE ( 'NONE', *, *, #25, .T. ) ;
#67 = ORIENTED_EDGE ( 'NONE', *, *, #138, .T. ) ;
#68 = ADVANCED_FACE ( 'NONE', ( #291, #290 ), #289, .F. ) ;
#69 = EDGE_LOOP ( 'NONE', ( #70, #72 ) ) ;
#70 = ORIENTED_EDGE ( 'NONE', *, *, #71, .F. ) ;
#71 = EDGE_CURVE ( 'NONE', #44, #52, #284, .T. ) ;
#72 = ORIENTED_EDGE ( 'NONE', *, *, #46, .F. ) ;
#73 = EDGE_LOOP ( 'NONE', ( #74, #75 ) ) ;
#74 = ORIENTED_EDGE ( 'NONE', *, *, #65, .T. ) ;
#75 = ORIENTED_EDGE ( 'NONE', *, *, #33, .T. ) ;
#76 = ADVANCED_FACE ( 'NONE', ( #279 ), #278, .F. ) ;
#77 = EDGE_LOOP ( 'NONE', ( #78, #79, #81, #82 ) ) ;
#78 = ORIENTED_EDGE ( 'NONE', *, *, #57, .F. ) ;
#79 = ORIENTED_EDGE ( 'NONE', *, *, #80, .F. ) ;
#80 = EDGE_CURVE ( 'NONE', #38, #54, #277, .T. ) ;
#81 = ORIENTED_EDGE ( 'NONE', *, *, #105, .T. ) ;
#82 = ORIENTED_EDGE ( 'NONE', *, *, #71, .T. ) ;
#83 = ADVANCED_FACE ( 'NONE', ( #268, #267 ), #266, .F. ) ;
#84 = EDGE_LOOP ( 'NONE', ( #85, #87 ) ) ;
#85 = ORIENTED_EDGE ( 'NONE', *, *, #86, .F. ) ;
#86 = EDGE_CURVE ( 'NONE', #37, #49, #261, .T. ) ;
#87 = ORIENTED_EDGE ( 'NONE', *, *, #39, .F. ) ;
#88 = EDGE_LOOP ( 'NONE', ( #123, #124 ) ) ;
#89 = ORIENTED_EDGE ( 'NONE', *, *, #98, .F. ) ;
#90 = ORIENTED_EDGE ( 'NONE', *, *, #104, .T. ) ;
#91 = VERTEX_POINT ( 'NONE', #256 ) ;
#92 = ADVANCED_FACE ( 'NONE', ( #255 ), #254, .T. ) ;
#93 = ORIENTED_EDGE ( 'NONE', *, *, #56, .T. ) ;
#94 = EDGE_CURVE ( 'NONE', #100, #91, #249, .T. ) ;
#95 = ORIENTED_EDGE ( 'NONE', *, *, #96, .F. ) ;
#96 = EDGE_CURVE ( 'NONE', #58, #100, #244, .T. ) ;
#97 = EDGE_LOOP ( 'NONE', ( #93, #99, #23, #95 ) ) ;
#98 = EDGE_CURVE ( 'NONE', #35, #91, #239, .T. ) ;
#99 = ORIENTED_EDGE ( 'NONE', *, *, #98, .T. ) ;
#100 = VERTEX_POINT ( 'NONE', #234 ) ;
#101 = MANIFOLD_SOLID_BREP ( 'NONE', #131 ) ;
#102 = VERTEX_POINT ( 'NONE', #233 ) ;
#103 = EDGE_CURVE ( 'NONE', #34, #102, #232, .T. ) ;
#104 = EDGE_CURVE ( 'NONE', #35, #58, #228, .T. ) ;
#105 = EDGE_CURVE ( 'NONE', #38, #44, #223, .T. ) ;
#106 = EDGE_CURVE ( 'NONE', #102, #61, #219, .T. ) ;
#107 = EDGE_LOOP ( 'NONE', ( #59, #55, #36, #53 ) ) ;
#108 = APPLICATION_CONTEXT ( 'configuration controlled 3d designs of mechanical parts and assemblies' ) ;
#109 = CC_DESIGN_PERSON_AND_ORGANIZATION_ASSIGNMENT ( #144, #110, ( #322 ) ) ;
#110 = PERSON_AND_ORGANIZATION_ROLE ( 'design_owner' ) ;
#111 = DIRECTION ( 'NONE',  ( 0.0000000000000000000, 0.0000000000000000000, 1.000000000000000000 ) ) ;
#112 = DIRECTION ( 'NONE',  ( 0.0000000000000000000, 1.000000000000000000, 0.0000000000000000000 ) ) ;
#113 = AXIS2_PLACEMENT_3D ( 'NONE', #116, #112, #111 ) ;
#114 = TOROIDAL_SURFACE ( 'NONE', #113, 6.095012437887911400, 1.000000000000000200 ) ;
#115 = LINE ( 'NONE', #175, #174 ) ;
#116 = CARTESIAN_POINT ( 'NONE',  ( -5.009326287108706300E-010, -0.9999999965004350300, 0.0000000000000000000 ) ) ;
#117 = FACE_OUTER_BOUND ( 'NONE', #22, .T. ) ;
#118 = APPROVAL_STATUS ( 'not_yet_approved' ) ;
#119 = PERSON_AND_ORGANIZATION ( #321, #320 ) ;
#120 = PRODUCT_DEFINITION ( 'UNKNOWN', '', #348, #121 ) ;
#121 = DESIGN_CONTEXT ( 'detailed design', #108, 'design' ) ;
#122 = APPLICATION_PROTOCOL_DEFINITION ( 'international standard', 'config_control_design', 1994, #108 ) ;
#123 = ORIENTED_EDGE ( 'NONE', *, *, #80, .T. ) ;
#124 = ORIENTED_EDGE ( 'NONE', *, *, #50, .T. ) ;
#125 = ADVANCED_FACE ( 'NONE', ( #214 ), #213, .T. ) ;
#126 = EDGE_LOOP ( 'NONE', ( #127, #128, #129, #130 ) ) ;
#127 = ORIENTED_EDGE ( 'NONE', *, *, #48, .F. ) ;
#128 = ORIENTED_EDGE ( 'NONE', *, *, #104, .F. ) ;
#129 = ORIENTED_EDGE ( 'NONE', *, *, #47, .T. ) ;
#130 = ORIENTED_EDGE ( 'NONE', *, *, #86, .T. ) ;
#131 = CLOSED_SHELL ( 'NONE', ( #60, #40, #31, #92, #24, #135, #143, #68, #76, #83, #125 ) ) ;
#132 = ORIENTED_EDGE ( 'NONE', *, *, #96, .T. ) ;
#133 = ORIENTED_EDGE ( 'NONE', *, *, #134, .F. ) ;
#134 = EDGE_CURVE ( 'NONE', #91, #100, #207, .T. ) ;
#135 = ADVANCED_FACE ( 'NONE', ( #203, #202 ), #201, .F. ) ;
#136 = EDGE_LOOP ( 'NONE', ( #137, #139 ) ) ;
#137 = ORIENTED_EDGE ( 'NONE', *, *, #138, .F. ) ;
#138 = EDGE_CURVE ( 'NONE', #61, #102, #195, .T. ) ;
#139 = ORIENTED_EDGE ( 'NONE', *, *, #106, .F. ) ;
#140 = EDGE_LOOP ( 'NONE', ( #141, #142 ) ) ;
#141 = ORIENTED_EDGE ( 'NONE', *, *, #94, .T. ) ;
#142 = ORIENTED_EDGE ( 'NONE', *, *, #134, .T. ) ;
#143 = ADVANCED_FACE ( 'NONE', ( #190 ), #189, .F. ) ;
#144 = PERSON_AND_ORGANIZATION ( #321, #320 ) ;
#145 = CARTESIAN_POINT ( 'NONE',  ( -5.009326287108706300E-010, -4.999999996500434900, 1.500000000000000000 ) ) ;
#146 = DIRECTION ( 'NONE',  ( 0.0000000000000000000, 0.0000000000000000000, 1.000000000000000000 ) ) ;
#147 = DIRECTION ( 'NONE',  ( 0.0000000000000000000, 1.000000000000000000, 0.0000000000000000000 ) ) ;
#148 = AXIS2_PLACEMENT_3D ( 'NONE', #150, #147, #146 ) ;
#149 = CYLINDRICAL_SURFACE ( 'NONE', #148, 1.500000000000000400 ) ;
#150 = CARTESIAN_POINT ( 'NONE',  ( -5.009326287108706300E-010, 2.412507003500041800, 0.0000000000000000000 ) ) ;
#151 = DIRECTION ( 'NONE',  ( 0.0000000000000000000, 0.0000000000000000000, 1.000000000000000000 ) ) ;
#152 = DIRECTION ( 'NONE',  ( 0.0000000000000000000, 1.000000000000000000, 0.0000000000000000000 ) ) ;
#153 = CARTESIAN_POINT ( 'NONE',  ( -5.009326287108706300E-010, -9.999999996500434900, 0.0000000000000000000 ) ) ;
#154 = AXIS2_PLACEMENT_3D ( 'NONE', #153, #152, #151 ) ;
#155 = CIRCLE ( 'NONE', #154, 8.000000000000000000 ) ;
#156 = FACE_OUTER_BOUND ( 'NONE', #41, .T. ) ;
#157 = CARTESIAN_POINT ( 'NONE',  ( -5.009326287108706300E-010, -9.999999996500434900, 1.500000000000000700 ) ) ;
#158 = CARTESIAN_POINT ( 'NONE',  ( -5.009326287108706300E-010, -9.999999996500434900, -8.000000000000000000 ) ) ;
#159 = CARTESIAN_POINT ( 'NONE',  ( -5.009317604588883000E-010, -0.9004962774794423900, -7.090049628097901300 ) ) ;
#160 = CARTESIAN_POINT ( 'NONE',  ( -5.009322613289644800E-010, -4.999999996500434900, -3.000000000000001300 ) ) ;
#161 = DIRECTION ( 'NONE',  ( 0.0000000000000000000, 0.0000000000000000000, 1.000000000000000000 ) ) ;
#162 = DIRECTION ( 'NONE',  ( 0.0000000000000000000, 1.000000000000000000, 0.0000000000000000000 ) ) ;
#163 = CARTESIAN_POINT ( 'NONE',  ( -5.009326287108706300E-010, -4.999999996500434900, 0.0000000000000000000 ) ) ;
#164 = AXIS2_PLACEMENT_3D ( 'NONE', #163, #162, #161 ) ;
#165 = DIRECTION ( 'NONE',  ( 0.0000000000000000000, 0.0000000000000000000, 1.000000000000000000 ) ) ;
#166 = DIRECTION ( 'NONE',  ( 0.0000000000000000000, 1.000000000000000000, 0.0000000000000000000 ) ) ;
#167 = CARTESIAN_POINT ( 'NONE',  ( -5.009326287108706300E-010, 2.412507003500041800, 0.0000000000000000000 ) ) ;
#168 = AXIS2_PLACEMENT_3D ( 'NONE', #167, #166, #165 ) ;
#169 = CIRCLE ( 'NONE', #164, 3.000000000000000900 ) ;
#170 = CYLINDRICAL_SURFACE ( 'NONE', #168, 3.000000000000000400 ) ;
#171 = FACE_OUTER_BOUND ( 'NONE', #30, .T. ) ;
#172 = CARTESIAN_POINT ( 'NONE',  ( -5.009326287108706300E-010, -4.999999996500434900, 3.000000000000000900 ) ) ;
#173 = DIRECTION ( 'NONE',  ( 0.0000000000000000000, 1.000000000000000000, 0.0000000000000000000 ) ) ;
#174 = VECTOR ( 'NONE', #173, 1000.000000000000000 ) ;
#175 = CARTESIAN_POINT ( 'NONE',  ( -5.009326287108706300E-010, 2.412507003500041800, 3.000000000000000400 ) ) ;
#176 = DIRECTION ( 'NONE',  ( 0.0000000000000000000, 0.0000000000000000000, 1.000000000000000000 ) ) ;
#177 = AXIS2_PLACEMENT_3D ( 'NONE', #188, #176, #178 ) ;
#178 = DIRECTION ( 'NONE',  ( 1.000000000000000000, 0.0000000000000000000, 0.0000000000000000000 ) ) ;
#179 = ADVANCED_BREP_SHAPE_REPRESENTATION ( 'C-30-RK-16-ÃÞÌ«ÙÄ', ( #101, #177 ), #180 ) ;
#180 =( GEOMETRIC_REPRESENTATION_CONTEXT ( 3 ) GLOBAL_UNCERTAINTY_ASSIGNED_CONTEXT ( ( #181 ) ) GLOBAL_UNIT_ASSIGNED_CONTEXT ( ( #184, #183, #182 ) ) REPRESENTATION_CONTEXT ( 'NONE', 'WORKASPACE' ) );
#181 = UNCERTAINTY_MEASURE_WITH_UNIT (LENGTH_MEASURE( 1.000000000000000100E-005 ), #184, 'distance_accuracy_value', 'NONE');
#182 =( NAMED_UNIT ( * ) SI_UNIT ( $, .STERADIAN. ) SOLID_ANGLE_UNIT ( ) );
#183 =( NAMED_UNIT ( * ) PLANE_ANGLE_UNIT ( ) SI_UNIT ( $, .RADIAN. ) );
#184 =( LENGTH_UNIT ( ) NAMED_UNIT ( * ) SI_UNIT ( .MILLI., .METRE. ) );
#185 = DIRECTION ( 'NONE',  ( 0.0000000000000000000, 0.0000000000000000000, 1.000000000000000000 ) ) ;
#186 = DIRECTION ( 'NONE',  ( 0.0000000000000000000, 1.000000000000000000, 0.0000000000000000000 ) ) ;
#187 = AXIS2_PLACEMENT_3D ( 'NONE', #196, #186, #185 ) ;
#188 = CARTESIAN_POINT ( 'NONE',  ( 0.0000000000000000000, 0.0000000000000000000, 0.0000000000000000000 ) ) ;
#189 = CYLINDRICAL_SURFACE ( 'NONE', #187, 3.000000000000000400 ) ;
#190 = FACE_OUTER_BOUND ( 'NONE', #62, .T. ) ;
#191 = DIRECTION ( 'NONE',  ( 0.0000000000000000000, 0.0000000000000000000, 1.000000000000000000 ) ) ;
#192 = DIRECTION ( 'NONE',  ( 0.0000000000000000000, 1.000000000000000000, 0.0000000000000000000 ) ) ;
#193 = CARTESIAN_POINT ( 'NONE',  ( -5.009326287108706300E-010, 3.499565220943523500E-009, 0.0000000000000000000 ) ) ;
#194 = AXIS2_PLACEMENT_3D ( 'NONE', #193, #192, #191 ) ;
#195 = CIRCLE ( 'NONE', #194, 3.000000000000000000 ) ;
#196 = CARTESIAN_POINT ( 'NONE',  ( -5.009326287108706300E-010, 2.412507003500041800, 0.0000000000000000000 ) ) ;
#197 = DIRECTION ( 'NONE',  ( 0.0000000000000000000, 0.0000000000000000000, -1.000000000000000000 ) ) ;
#198 = DIRECTION ( 'NONE',  ( 0.0000000000000000000, -1.000000000000000000, 0.0000000000000000000 ) ) ;
#199 = CARTESIAN_POINT ( 'NONE',  ( 6.095012437386971600, 3.499565353893477800E-009, 0.0000000000000000000 ) ) ;
#200 = AXIS2_PLACEMENT_3D ( 'NONE', #199, #198, #197 ) ;
#201 = PLANE ( 'NONE',  #200 ) ;
#202 = FACE_OUTER_BOUND ( 'NONE', #140, .T. ) ;
#203 = FACE_BOUND ( 'NONE', #136, .T. ) ;
#204 = DIRECTION ( 'NONE',  ( 0.0000000000000000000, 0.0000000000000000000, 1.000000000000000000 ) ) ;
#205 = DIRECTION ( 'NONE',  ( 0.0000000000000000000, 1.000000000000000000, 0.0000000000000000000 ) ) ;
#206 = AXIS2_PLACEMENT_3D ( 'NONE', #212, #205, #204 ) ;
#207 = CIRCLE ( 'NONE', #206, 6.095012437887904300 ) ;
#208 = DIRECTION ( 'NONE',  ( 0.0000000000000000000, 0.0000000000000000000, -1.000000000000000000 ) ) ;
#209 = DIRECTION ( 'NONE',  ( 0.0000000000000000000, -1.000000000000000000, 0.0000000000000000000 ) ) ;
#210 = CARTESIAN_POINT ( 'NONE',  ( -5.009326287108706300E-010, -9.999999996500434900, 0.0000000000000000000 ) ) ;
#211 = AXIS2_PLACEMENT_3D ( 'NONE', #210, #209, #208 ) ;
#212 = CARTESIAN_POINT ( 'NONE',  ( -5.009326287108706300E-010, 3.499565220943523500E-009, 0.0000000000000000000 ) ) ;
#213 = CONICAL_SURFACE ( 'NONE', #211, 8.000000000000000000, 0.09966865249116201000 ) ;
#214 = FACE_OUTER_BOUND ( 'NONE', #126, .T. ) ;
#215 = DIRECTION ( 'NONE',  ( 0.0000000000000000000, 0.0000000000000000000, 1.000000000000000000 ) ) ;
#216 = DIRECTION ( 'NONE',  ( 0.0000000000000000000, 1.000000000000000000, 0.0000000000000000000 ) ) ;
#217 = CARTESIAN_POINT ( 'NONE',  ( -5.009326287108706300E-010, 3.499565220943523500E-009, 0.0000000000000000000 ) ) ;
#218 = AXIS2_PLACEMENT_3D ( 'NONE', #217, #216, #215 ) ;
#219 = CIRCLE ( 'NONE', #218, 3.000000000000000000 ) ;
#220 = DIRECTION ( 'NONE',  ( 0.0000000000000000000, 1.000000000000000000, 0.0000000000000000000 ) ) ;
#221 = VECTOR ( 'NONE', #220, 1000.000000000000000 ) ;
#222 = CARTESIAN_POINT ( 'NONE',  ( -5.009326287108706300E-010, 2.412507003500041800, 1.500000000000000400 ) ) ;
#223 = LINE ( 'NONE', #222, #221 ) ;
#224 = DIRECTION ( 'NONE',  ( 0.0000000000000000000, 0.0000000000000000000, 1.000000000000000000 ) ) ;
#225 = DIRECTION ( 'NONE',  ( 0.0000000000000000000, 1.000000000000000000, 0.0000000000000000000 ) ) ;
#226 = CARTESIAN_POINT ( 'NONE',  ( -5.009326287108706300E-010, -0.9004962774794423900, 0.0000000000000000000 ) ) ;
#227 = AXIS2_PLACEMENT_3D ( 'NONE', #226, #225, #224 ) ;
#228 = CIRCLE ( 'NONE', #227, 7.090049628097901300 ) ;
#229 = DIRECTION ( 'NONE',  ( 0.0000000000000000000, 1.000000000000000000, 0.0000000000000000000 ) ) ;
#230 = VECTOR ( 'NONE', #229, 1000.000000000000000 ) ;
#231 = CARTESIAN_POINT ( 'NONE',  ( -5.009322613289644800E-010, 2.412507003500041800, -3.000000000000000400 ) ) ;
#232 = LINE ( 'NONE', #231, #230 ) ;
#233 = CARTESIAN_POINT ( 'NONE',  ( -5.009322613289644800E-010, 3.499565220943523500E-009, -3.000000000000000000 ) ) ;
#234 = CARTESIAN_POINT ( 'NONE',  ( -5.009326287108706300E-010, 3.499565220943523500E-009, 6.095012437887904300 ) ) ;
#235 = DIRECTION ( 'NONE',  ( 1.224606353612350900E-016, 0.0000000000000000000, -1.000000000000000000 ) ) ;
#236 = DIRECTION ( 'NONE',  ( 1.000000000000000000, 0.0000000000000000000, 1.224606353822377300E-016 ) ) ;
#237 = CARTESIAN_POINT ( 'NONE',  ( -5.009318823117748500E-010, -0.9999999965004350300, -6.095012437887911400 ) ) ;
#238 = AXIS2_PLACEMENT_3D ( 'NONE', #237, #236, #235 ) ;
#239 = CIRCLE ( 'NONE', #238, 1.000000000000000000 ) ;
#240 = DIRECTION ( 'NONE',  ( 0.0000000000000000000, 0.0000000000000000000, 1.000000000000000000 ) ) ;
#241 = DIRECTION ( 'NONE',  ( -1.000000000000000000, 0.0000000000000000000, 0.0000000000000000000 ) ) ;
#242 = CARTESIAN_POINT ( 'NONE',  ( -5.009326287108706300E-010, -0.9999999965004350300, 6.095012437887911400 ) ) ;
#243 = AXIS2_PLACEMENT_3D ( 'NONE', #242, #241, #240 ) ;
#244 = CIRCLE ( 'NONE', #243, 1.000000000000000000 ) ;
#245 = DIRECTION ( 'NONE',  ( 0.0000000000000000000, 0.0000000000000000000, 1.000000000000000000 ) ) ;
#246 = DIRECTION ( 'NONE',  ( 0.0000000000000000000, 1.000000000000000000, 0.0000000000000000000 ) ) ;
#247 = CARTESIAN_POINT ( 'NONE',  ( -5.009326287108706300E-010, 3.499565220943523500E-009, 0.0000000000000000000 ) ) ;
#248 = AXIS2_PLACEMENT_3D ( 'NONE', #247, #246, #245 ) ;
#249 = CIRCLE ( 'NONE', #248, 6.095012437887904300 ) ;
#250 = DIRECTION ( 'NONE',  ( 0.0000000000000000000, 0.0000000000000000000, 1.000000000000000000 ) ) ;
#251 = DIRECTION ( 'NONE',  ( 0.0000000000000000000, 1.000000000000000000, 0.0000000000000000000 ) ) ;
#252 = CARTESIAN_POINT ( 'NONE',  ( -5.009326287108706300E-010, -0.9999999965004350300, 0.0000000000000000000 ) ) ;
#253 = AXIS2_PLACEMENT_3D ( 'NONE', #252, #251, #250 ) ;
#254 = TOROIDAL_SURFACE ( 'NONE', #253, 6.095012437887911400, 1.000000000000000200 ) ;
#255 = FACE_OUTER_BOUND ( 'NONE', #97, .T. ) ;
#256 = CARTESIAN_POINT ( 'NONE',  ( -5.009318213853315700E-010, 3.499565220943523500E-009, -6.095012437887904300 ) ) ;
#257 = DIRECTION ( 'NONE',  ( 0.0000000000000000000, 0.0000000000000000000, 1.000000000000000000 ) ) ;
#258 = DIRECTION ( 'NONE',  ( 0.0000000000000000000, 1.000000000000000000, 0.0000000000000000000 ) ) ;
#259 = CARTESIAN_POINT ( 'NONE',  ( -5.009326287108706300E-010, -9.999999996500434900, 0.0000000000000000000 ) ) ;
#260 = AXIS2_PLACEMENT_3D ( 'NONE', #259, #258, #257 ) ;
#261 = CIRCLE ( 'NONE', #260, 8.000000000000000000 ) ;
#262 = DIRECTION ( 'NONE',  ( 0.0000000000000000000, 0.0000000000000000000, 1.000000000000000000 ) ) ;
#263 = DIRECTION ( 'NONE',  ( 0.0000000000000000000, 1.000000000000000000, 0.0000000000000000000 ) ) ;
#264 = CARTESIAN_POINT ( 'NONE',  ( 1.499999999499068000, -9.999999996500434900, 0.0000000000000000000 ) ) ;
#265 = AXIS2_PLACEMENT_3D ( 'NONE', #264, #263, #262 ) ;
#266 = PLANE ( 'NONE',  #265 ) ;
#267 = FACE_BOUND ( 'NONE', #88, .T. ) ;
#268 = FACE_OUTER_BOUND ( 'NONE', #84, .T. ) ;
#269 = DIRECTION ( 'NONE',  ( 0.0000000000000000000, 0.0000000000000000000, 1.000000000000000000 ) ) ;
#270 = DIRECTION ( 'NONE',  ( 0.0000000000000000000, 1.000000000000000000, 0.0000000000000000000 ) ) ;
#271 = CARTESIAN_POINT ( 'NONE',  ( -5.009326287108706300E-010, -9.999999996500434900, 0.0000000000000000000 ) ) ;
#272 = AXIS2_PLACEMENT_3D ( 'NONE', #271, #270, #269 ) ;
#273 = DIRECTION ( 'NONE',  ( 0.0000000000000000000, 0.0000000000000000000, 1.000000000000000000 ) ) ;
#274 = DIRECTION ( 'NONE',  ( 0.0000000000000000000, 1.000000000000000000, 0.0000000000000000000 ) ) ;
#275 = CARTESIAN_POINT ( 'NONE',  ( -5.009326287108706300E-010, 2.412507003500041800, 0.0000000000000000000 ) ) ;
#276 = AXIS2_PLACEMENT_3D ( 'NONE', #275, #274, #273 ) ;
#277 = CIRCLE ( 'NONE', #272, 1.500000000000000700 ) ;
#278 = CYLINDRICAL_SURFACE ( 'NONE', #276, 1.500000000000000400 ) ;
#279 = FACE_OUTER_BOUND ( 'NONE', #77, .T. ) ;
#280 = DIRECTION ( 'NONE',  ( 0.0000000000000000000, 0.0000000000000000000, 1.000000000000000000 ) ) ;
#281 = DIRECTION ( 'NONE',  ( 0.0000000000000000000, 1.000000000000000000, 0.0000000000000000000 ) ) ;
#282 = CARTESIAN_POINT ( 'NONE',  ( -5.009326287108706300E-010, -4.999999996500434900, 0.0000000000000000000 ) ) ;
#283 = AXIS2_PLACEMENT_3D ( 'NONE', #282, #281, #280 ) ;
#284 = CIRCLE ( 'NONE', #283, 1.500000000000000000 ) ;
#285 = DIRECTION ( 'NONE',  ( 0.0000000000000000000, 0.0000000000000000000, -1.000000000000000000 ) ) ;
#286 = DIRECTION ( 'NONE',  ( 0.0000000000000000000, -1.000000000000000000, 0.0000000000000000000 ) ) ;
#287 = CARTESIAN_POINT ( 'NONE',  ( 2.999999999499068300, -4.999999996500434900, 0.0000000000000000000 ) ) ;
#288 = AXIS2_PLACEMENT_3D ( 'NONE', #287, #286, #285 ) ;
#289 = PLANE ( 'NONE',  #288 ) ;
#290 = FACE_OUTER_BOUND ( 'NONE', #73, .T. ) ;
#291 = FACE_BOUND ( 'NONE', #69, .T. ) ;
#292 = DIRECTION ( 'NONE',  ( 0.0000000000000000000, 0.0000000000000000000, 1.000000000000000000 ) ) ;
#293 = DIRECTION ( 'NONE',  ( 0.0000000000000000000, 1.000000000000000000, 0.0000000000000000000 ) ) ;
#294 = CARTESIAN_POINT ( 'NONE',  ( -5.009326287108706300E-010, -4.999999996500434900, 0.0000000000000000000 ) ) ;
#295 = AXIS2_PLACEMENT_3D ( 'NONE', #294, #293, #292 ) ;
#296 = CIRCLE ( 'NONE', #295, 3.000000000000000900 ) ;
#297 = CARTESIAN_POINT ( 'NONE',  ( -5.009326287108706300E-010, 3.499565220943523500E-009, 3.000000000000000000 ) ) ;
#298 = DIRECTION ( 'NONE',  ( 0.0000000000000000000, 0.0000000000000000000, -1.000000000000000000 ) ) ;
#299 = DIRECTION ( 'NONE',  ( 0.0000000000000000000, -1.000000000000000000, 0.0000000000000000000 ) ) ;
#300 = AXIS2_PLACEMENT_3D ( 'NONE', #302, #299, #298 ) ;
#301 = CONICAL_SURFACE ( 'NONE', #300, 8.000000000000000000, 0.09966865249116201000 ) ;
#302 = CARTESIAN_POINT ( 'NONE',  ( -5.009326287108706300E-010, -9.999999996500434900, 0.0000000000000000000 ) ) ;
#303 = FACE_OUTER_BOUND ( 'NONE', #107, .T. ) ;
#304 = CARTESIAN_POINT ( 'NONE',  ( -5.009326287108706300E-010, -0.9004962774794423900, 7.090049628097901300 ) ) ;
#305 = DIRECTION ( 'NONE',  ( 0.0000000000000000000, 1.000000000000000000, 0.0000000000000000000 ) ) ;
#306 = VECTOR ( 'NONE', #305, 1000.000000000000000 ) ;
#307 = CARTESIAN_POINT ( 'NONE',  ( -5.009324450199175600E-010, 2.412507003500041800, -1.500000000000000400 ) ) ;
#308 = LINE ( 'NONE', #307, #306 ) ;
#309 = DIRECTION ( 'NONE',  ( 0.0000000000000000000, 0.0000000000000000000, 1.000000000000000000 ) ) ;
#310 = DIRECTION ( 'NONE',  ( 0.0000000000000000000, 1.000000000000000000, 0.0000000000000000000 ) ) ;
#311 = CARTESIAN_POINT ( 'NONE',  ( -5.009326287108706300E-010, -0.9004962774794423900, 0.0000000000000000000 ) ) ;
#312 = AXIS2_PLACEMENT_3D ( 'NONE', #311, #310, #309 ) ;
#313 = CIRCLE ( 'NONE', #312, 7.090049628097901300 ) ;
#314 = CARTESIAN_POINT ( 'NONE',  ( -5.009324450199175600E-010, -9.999999996500434900, -1.500000000000000900 ) ) ;
#315 = CARTESIAN_POINT ( 'NONE',  ( -5.009324450199175600E-010, -4.999999996500434900, -1.500000000000000000 ) ) ;
#316 = DIRECTION ( 'NONE',  ( 0.0000000000000000000, 0.0000000000000000000, 1.000000000000000000 ) ) ;
#317 = DIRECTION ( 'NONE',  ( 0.0000000000000000000, 1.000000000000000000, 0.0000000000000000000 ) ) ;
#318 = CARTESIAN_POINT ( 'NONE',  ( -5.009326287108706300E-010, -9.999999996500434900, 0.0000000000000000000 ) ) ;
#319 = AXIS2_PLACEMENT_3D ( 'NONE', #318, #317, #316 ) ;
#320 = ORGANIZATION ( 'UNSPECIFIED', 'UNSPECIFIED', '' ) ;
#321 = PERSON ( 'UNSPECIFIED', 'UNSPECIFIED', 'UNSPECIFIED', ('UNSPECIFIED'), ('UNSPECIFIED'), ('UNSPECIFIED') ) ;
#322 = PRODUCT ( 'C-30-RK-16-ÃÞÌ«ÙÄ', 'C-30-RK-16-ÃÞÌ«ÙÄ', '', ( #323 ) ) ;
#323 = MECHANICAL_CONTEXT ( 'NONE', #325, 'mechanical' ) ;
#324 = APPLICATION_PROTOCOL_DEFINITION ( 'international standard', 'config_control_design', 1994, #325 ) ;
#325 = APPLICATION_CONTEXT ( 'configuration controlled 3d designs of mechanical parts and assemblies' ) ;
#326 = DIRECTION ( 'NONE',  ( 0.0000000000000000000, -0.9950371902099890400, -0.09950371902099888800 ) ) ;
#327 = VECTOR ( 'NONE', #326, 1000.000000000000100 ) ;
#328 = CARTESIAN_POINT ( 'NONE',  ( -5.009326287108706300E-010, -9.999999996500434900, -8.000000000000000000 ) ) ;
#329 = CARTESIAN_POINT ( 'NONE',  ( -5.009316490257875700E-010, -9.999999996500434900, 8.000000000000000000 ) ) ;
#330 = LINE ( 'NONE', #329, #335 ) ;
#331 = LINE ( 'NONE', #328, #327 ) ;
#332 = CIRCLE ( 'NONE', #319, 1.500000000000000700 ) ;
#333 = CARTESIAN_POINT ( 'NONE',  ( -5.009316490257875700E-010, -9.999999996500434900, 8.000000000000000000 ) ) ;
#334 = DIRECTION ( 'NONE',  ( 1.218528865420717800E-017, -0.9950371902099890400, 0.09950371902099888800 ) ) ;
#335 = VECTOR ( 'NONE', #334, 1000.000000000000100 ) ;
#336 = PERSON_AND_ORGANIZATION ( #321, #320 ) ;
#337 = CC_DESIGN_APPROVAL ( #345, ( #348 ) ) ;
#338 = APPROVAL_DATE_TIME ( #339, #345 ) ;
#339 = DATE_AND_TIME ( #340, #341 ) ;
#340 = CALENDAR_DATE ( 2009, 29, 6 ) ;
#341 = LOCAL_TIME ( 10, 26, 21.00000000000000000, #342 ) ;
#342 = COORDINATED_UNIVERSAL_TIME_OFFSET ( 9, 0, .AHEAD. ) ;
#343 = APPROVAL_PERSON_ORGANIZATION ( #347, #345, #344 ) ;
#344 = APPROVAL_ROLE ( '' ) ;
#345 = APPROVAL ( #346, 'UNSPECIFIED' ) ;
#346 = APPROVAL_STATUS ( 'not_yet_approved' ) ;
#347 = PERSON_AND_ORGANIZATION ( #321, #320 ) ;
#348 = PRODUCT_DEFINITION_FORMATION_WITH_SPECIFIED_SOURCE ( 'ANY', '', #322, .NOT_KNOWN. ) ;
#349 = CC_DESIGN_DATE_AND_TIME_ASSIGNMENT ( #351, #350, ( #120 ) ) ;
#350 = DATE_TIME_ROLE ( 'creation_date' ) ;
#351 = DATE_AND_TIME ( #352, #353 ) ;
#352 = CALENDAR_DATE ( 2009, 29, 6 ) ;
#353 = LOCAL_TIME ( 10, 26, 21.00000000000000000, #354 ) ;
#354 = COORDINATED_UNIVERSAL_TIME_OFFSET ( 9, 0, .AHEAD. ) ;
#355 = CC_DESIGN_PERSON_AND_ORGANIZATION_ASSIGNMENT ( #336, #356, ( #120 ) ) ;
#356 = PERSON_AND_ORGANIZATION_ROLE ( 'creator' ) ;
#357 = PERSON_AND_ORGANIZATION ( #321, #320 ) ;
#358 = CC_DESIGN_PERSON_AND_ORGANIZATION_ASSIGNMENT ( #357, #359, ( #348 ) ) ;
#359 = PERSON_AND_ORGANIZATION_ROLE ( 'creator' ) ;
#360 = SECURITY_CLASSIFICATION ( '', '', #361 ) ;
#361 = SECURITY_CLASSIFICATION_LEVEL ( 'unclassified' ) ;
#362 = CC_DESIGN_PERSON_AND_ORGANIZATION_ASSIGNMENT ( #364, #363, ( #348 ) ) ;
#363 = PERSON_AND_ORGANIZATION_ROLE ( 'design_supplier' ) ;
#364 = PERSON_AND_ORGANIZATION ( #321, #320 ) ;
#365 = APPROVAL_STATUS ( 'not_yet_approved' ) ;
#366 = PERSON_AND_ORGANIZATION ( #321, #320 ) ;
#367 = CC_DESIGN_DATE_AND_TIME_ASSIGNMENT ( #369, #368, ( #360 ) ) ;
#368 = DATE_TIME_ROLE ( 'classification_date' ) ;
#369 = DATE_AND_TIME ( #370, #371 ) ;
#370 = CALENDAR_DATE ( 2009, 29, 6 ) ;
#371 = LOCAL_TIME ( 10, 26, 21.00000000000000000, #372 ) ;
#372 = COORDINATED_UNIVERSAL_TIME_OFFSET ( 9, 0, .AHEAD. ) ;
#373 = CC_DESIGN_APPROVAL ( #381, ( #360 ) ) ;
#374 = APPROVAL_DATE_TIME ( #375, #381 ) ;
#375 = DATE_AND_TIME ( #376, #377 ) ;
#376 = CALENDAR_DATE ( 2009, 29, 6 ) ;
#377 = LOCAL_TIME ( 10, 26, 21.00000000000000000, #378 ) ;
#378 = COORDINATED_UNIVERSAL_TIME_OFFSET ( 9, 0, .AHEAD. ) ;
#379 = APPROVAL_PERSON_ORGANIZATION ( #366, #381, #380 ) ;
#380 = APPROVAL_ROLE ( '' ) ;
#381 = APPROVAL ( #365, 'UNSPECIFIED' ) ;
ENDSEC;
END-ISO-10303-21;
