ISO-10303-21;
HEADER;
FILE_DESCRIPTION (( 'STEP AP203' ),
    '1' );
FILE_NAME ('C-30-RK-16-gray.STEP',
    '2009-06-29T01:24:31',
    ( '11sw' ),
    ( '^LQ»¢®ïÐ' ),
    'SwSTEP 2.0',
    'SolidWorks 2007',
    '' );
FILE_SCHEMA (( 'CONFIG_CONTROL_DESIGN' ));
ENDSEC;

DATA;
#1 = ORIENTED_EDGE ( 'NONE', *, *, #32, .T. ) ;
#2 = ORIENTED_EDGE ( 'NONE', *, *, #33, .T. ) ;
#3 = EDGE_LOOP ( 'NONE', ( #9, #5 ) ) ;
#4 = ADVANCED_FACE ( 'NONE', ( #230, #229 ), #228, .F. ) ;
#5 = ORIENTED_EDGE ( 'NONE', *, *, #237, .F. ) ;
#6 = ORIENTED_EDGE ( 'NONE', *, *, #27, .T. ) ;
#7 = EDGE_LOOP ( 'NONE', ( #6, #39 ) ) ;
#8 = EDGE_CURVE ( 'NONE', #28, #26, #222, .T. ) ;
#9 = ORIENTED_EDGE ( 'NONE', *, *, #11, .F. ) ;
#10 = ORIENTED_EDGE ( 'NONE', *, *, #18, .T. ) ;
#11 = EDGE_CURVE ( 'NONE', #238, #163, #216, .T. ) ;
#12 = EDGE_LOOP ( 'NONE', ( #13, #34, #49, #47 ) ) ;
#13 = ORIENTED_EDGE ( 'NONE', *, *, #159, .F. ) ;
#14 = ADVANCED_FACE ( 'NONE', ( #217 ), #134, .F. ) ;
#15 = ADVANCED_FACE ( 'NONE', ( #135 ), #130, .T. ) ;
#16 = EDGE_LOOP ( 'NONE', ( #66, #38, #43, #42 ) ) ;
#17 = ORIENTED_EDGE ( 'NONE', *, *, #142, .T. ) ;
#18 = EDGE_CURVE ( 'NONE', #59, #56, #124, .T. ) ;
#19 = ORIENTED_EDGE ( 'NONE', *, *, #18, .F. ) ;
#20 = ADVANCED_FACE ( 'NONE', ( #125, #119 ), #118, .F. ) ;
#21 = EDGE_LOOP ( 'NONE', ( #22, #65 ) ) ;
#22 = ORIENTED_EDGE ( 'NONE', *, *, #51, .F. ) ;
#23 = ADVANCED_FACE ( 'NONE', ( #117 ), #111, .T. ) ;
#24 = ORIENTED_EDGE ( 'NONE', *, *, #146, .F. ) ;
#25 = ORIENTED_EDGE ( 'NONE', *, *, #32, .F. ) ;
#26 = VERTEX_POINT ( 'NONE', #107 ) ;
#27 = EDGE_CURVE ( 'NONE', #26, #28, #106, .T. ) ;
#28 = VERTEX_POINT ( 'NONE', #101 ) ;
#29 = ORIENTED_EDGE ( 'NONE', *, *, #27, .F. ) ;
#30 = ORIENTED_EDGE ( 'NONE', *, *, #8, .F. ) ;
#31 = EDGE_LOOP ( 'NONE', ( #24, #2, #1, #30 ) ) ;
#32 = EDGE_CURVE ( 'NONE', #156, #26, #100, .T. ) ;
#33 = EDGE_CURVE ( 'NONE', #157, #156, #188, .T. ) ;
#34 = ORIENTED_EDGE ( 'NONE', *, *, #33, .F. ) ;
#35 = ORIENTED_EDGE ( 'NONE', *, *, #36, .T. ) ;
#36 = EDGE_CURVE ( 'NONE', #60, #69, #183, .T. ) ;
#37 = ORIENTED_EDGE ( 'NONE', *, *, #232, .T. ) ;
#38 = ORIENTED_EDGE ( 'NONE', *, *, #44, .F. ) ;
#39 = ORIENTED_EDGE ( 'NONE', *, *, #8, .T. ) ;
#40 = ADVANCED_FACE ( 'NONE', ( #178, #177 ), #176, .F. ) ;
#41 = EDGE_LOOP ( 'NONE', ( #19, #50 ) ) ;
#42 = ORIENTED_EDGE ( 'NONE', *, *, #11, .T. ) ;
#43 = ORIENTED_EDGE ( 'NONE', *, *, #148, .T. ) ;
#44 = EDGE_CURVE ( 'NONE', #160, #143, #171, .T. ) ;
#45 = ORIENTED_EDGE ( 'NONE', *, *, #72, .T. ) ;
#46 = EDGE_LOOP ( 'NONE', ( #141, #161, #236, #147 ) ) ;
#47 = ORIENTED_EDGE ( 'NONE', *, *, #51, .T. ) ;
#48 = CLOSED_SHELL ( 'NONE', ( #152, #68, #140, #149, #23, #4, #14, #20, #55, #40, #15 ) ) ;
#49 = ORIENTED_EDGE ( 'NONE', *, *, #71, .T. ) ;
#50 = ORIENTED_EDGE ( 'NONE', *, *, #58, .F. ) ;
#51 = EDGE_CURVE ( 'NONE', #235, #239, #165, .T. ) ;
#52 = EDGE_LOOP ( 'NONE', ( #53, #17 ) ) ;
#53 = ORIENTED_EDGE ( 'NONE', *, *, #44, .T. ) ;
#54 = ORIENTED_EDGE ( 'NONE', *, *, #62, .F. ) ;
#55 = ADVANCED_FACE ( 'NONE', ( #166 ), #92, .F. ) ;
#56 = VERTEX_POINT ( 'NONE', #88 ) ;
#57 = ORIENTED_EDGE ( 'NONE', *, *, #58, .T. ) ;
#58 = EDGE_CURVE ( 'NONE', #56, #59, #87, .T. ) ;
#59 = VERTEX_POINT ( 'NONE', #82 ) ;
#60 = VERTEX_POINT ( 'NONE', #81 ) ;
#61 = ORIENTED_EDGE ( 'NONE', *, *, #62, .T. ) ;
#62 = EDGE_CURVE ( 'NONE', #69, #56, #80, .T. ) ;
#63 = EDGE_LOOP ( 'NONE', ( #35, #45 ) ) ;
#64 = ORIENTED_EDGE ( 'NONE', *, *, #36, .F. ) ;
#65 = ORIENTED_EDGE ( 'NONE', *, *, #234, .F. ) ;
#66 = ORIENTED_EDGE ( 'NONE', *, *, #162, .F. ) ;
#67 = EDGE_LOOP ( 'NONE', ( #54, #64, #37, #10 ) ) ;
#68 = ADVANCED_FACE ( 'NONE', ( #76 ), #75, .F. ) ;
#69 = VERTEX_POINT ( 'NONE', #211 ) ;
#70 = ORIENTED_EDGE ( 'NONE', *, *, #71, .F. ) ;
#71 = EDGE_CURVE ( 'NONE', #157, #235, #210, .T. ) ;
#72 = EDGE_CURVE ( 'NONE', #69, #60, #206, .T. ) ;
#73 = EDGE_LOOP ( 'NONE', ( #74, #61, #57, #231 ) ) ;
#74 = ORIENTED_EDGE ( 'NONE', *, *, #72, .F. ) ;
#75 = CYLINDRICAL_SURFACE ( 'NONE', #215, 1.500000000000000400 ) ;
#76 = FACE_OUTER_BOUND ( 'NONE', #73, .T. ) ;
#77 = DIRECTION ( 'NONE',  ( 0.0000000000000000000, 1.000000000000000000, 0.0000000000000000000 ) ) ;
#78 = VECTOR ( 'NONE', #77, 1000.000000000000000 ) ;
#79 = CARTESIAN_POINT ( 'NONE',  ( -5.009324450199175600E-010, 2.412507003500041800, -1.500000000000000400 ) ) ;
#80 = LINE ( 'NONE', #79, #78 ) ;
#81 = CARTESIAN_POINT ( 'NONE',  ( -5.009326287108706300E-010, -9.999999996500434900, 1.500000000000000700 ) ) ;
#82 = CARTESIAN_POINT ( 'NONE',  ( -5.009326287108706300E-010, -4.999999996500434900, 1.500000000000000000 ) ) ;
#83 = DIRECTION ( 'NONE',  ( 0.0000000000000000000, 0.0000000000000000000, 1.000000000000000000 ) ) ;
#84 = DIRECTION ( 'NONE',  ( 0.0000000000000000000, 1.000000000000000000, 0.0000000000000000000 ) ) ;
#85 = CARTESIAN_POINT ( 'NONE',  ( -5.009326287108706300E-010, -4.999999996500434900, 0.0000000000000000000 ) ) ;
#86 = AXIS2_PLACEMENT_3D ( 'NONE', #85, #84, #83 ) ;
#87 = CIRCLE ( 'NONE', #86, 1.500000000000000000 ) ;
#88 = CARTESIAN_POINT ( 'NONE',  ( -5.009324450199175600E-010, -4.999999996500434900, -1.500000000000000000 ) ) ;
#89 = DIRECTION ( 'NONE',  ( 0.0000000000000000000, 0.0000000000000000000, 1.000000000000000000 ) ) ;
#90 = DIRECTION ( 'NONE',  ( 0.0000000000000000000, 1.000000000000000000, 0.0000000000000000000 ) ) ;
#91 = AXIS2_PLACEMENT_3D ( 'NONE', #93, #90, #89 ) ;
#92 = CYLINDRICAL_SURFACE ( 'NONE', #91, 1.500000000000000400 ) ;
#93 = CARTESIAN_POINT ( 'NONE',  ( -5.009326287108706300E-010, 2.412507003500041800, 0.0000000000000000000 ) ) ;
#94 = DIRECTION ( 'NONE',  ( 0.0000000000000000000, 0.0000000000000000000, 1.000000000000000000 ) ) ;
#95 = DIRECTION ( 'NONE',  ( 0.0000000000000000000, 1.000000000000000000, 0.0000000000000000000 ) ) ;
#96 = CARTESIAN_POINT ( 'NONE',  ( -5.009326287108706300E-010, -9.999999996500434900, 0.0000000000000000000 ) ) ;
#97 = DIRECTION ( 'NONE',  ( -1.000000000000000000, 0.0000000000000000000, 0.0000000000000000000 ) ) ;
#98 = CARTESIAN_POINT ( 'NONE',  ( -5.009326287108706300E-010, -0.9999999965004350300, 6.095012437887911400 ) ) ;
#99 = AXIS2_PLACEMENT_3D ( 'NONE', #98, #97, #189 ) ;
#100 = CIRCLE ( 'NONE', #99, 1.000000000000000000 ) ;
#101 = CARTESIAN_POINT ( 'NONE',  ( -5.009318213853315700E-010, 3.499565220943523500E-009, -6.095012437887904300 ) ) ;
#102 = DIRECTION ( 'NONE',  ( 0.0000000000000000000, 0.0000000000000000000, 1.000000000000000000 ) ) ;
#103 = DIRECTION ( 'NONE',  ( 0.0000000000000000000, 1.000000000000000000, 0.0000000000000000000 ) ) ;
#104 = CARTESIAN_POINT ( 'NONE',  ( -5.009326287108706300E-010, 3.499565220943523500E-009, 0.0000000000000000000 ) ) ;
#105 = AXIS2_PLACEMENT_3D ( 'NONE', #104, #103, #102 ) ;
#106 = CIRCLE ( 'NONE', #105, 6.095012437887904300 ) ;
#107 = CARTESIAN_POINT ( 'NONE',  ( -5.009326287108706300E-010, 3.499565220943523500E-009, 6.095012437887904300 ) ) ;
#108 = DIRECTION ( 'NONE',  ( 0.0000000000000000000, 0.0000000000000000000, 1.000000000000000000 ) ) ;
#109 = DIRECTION ( 'NONE',  ( 0.0000000000000000000, 1.000000000000000000, 0.0000000000000000000 ) ) ;
#110 = AXIS2_PLACEMENT_3D ( 'NONE', #112, #109, #108 ) ;
#111 = TOROIDAL_SURFACE ( 'NONE', #110, 6.095012437887911400, 1.000000000000000200 ) ;
#112 = CARTESIAN_POINT ( 'NONE',  ( -5.009326287108706300E-010, -0.9999999965004350300, 0.0000000000000000000 ) ) ;
#113 = DIRECTION ( 'NONE',  ( 0.0000000000000000000, 0.0000000000000000000, -1.000000000000000000 ) ) ;
#114 = DIRECTION ( 'NONE',  ( 0.0000000000000000000, -1.000000000000000000, 0.0000000000000000000 ) ) ;
#115 = CARTESIAN_POINT ( 'NONE',  ( 2.999999999499068300, -4.999999996500434900, 0.0000000000000000000 ) ) ;
#116 = AXIS2_PLACEMENT_3D ( 'NONE', #115, #114, #113 ) ;
#117 = FACE_OUTER_BOUND ( 'NONE', #31, .T. ) ;
#118 = PLANE ( 'NONE',  #116 ) ;
#119 = FACE_OUTER_BOUND ( 'NONE', #52, .T. ) ;
#120 = DIRECTION ( 'NONE',  ( 0.0000000000000000000, 0.0000000000000000000, 1.000000000000000000 ) ) ;
#121 = DIRECTION ( 'NONE',  ( 0.0000000000000000000, 1.000000000000000000, 0.0000000000000000000 ) ) ;
#122 = CARTESIAN_POINT ( 'NONE',  ( -5.009326287108706300E-010, -4.999999996500434900, 0.0000000000000000000 ) ) ;
#123 = AXIS2_PLACEMENT_3D ( 'NONE', #122, #121, #120 ) ;
#124 = CIRCLE ( 'NONE', #123, 1.500000000000000000 ) ;
#125 = FACE_BOUND ( 'NONE', #41, .T. ) ;
#126 = DIRECTION ( 'NONE',  ( 0.0000000000000000000, 0.0000000000000000000, -1.000000000000000000 ) ) ;
#127 = DIRECTION ( 'NONE',  ( 0.0000000000000000000, -1.000000000000000000, 0.0000000000000000000 ) ) ;
#128 = CARTESIAN_POINT ( 'NONE',  ( -5.009326287108706300E-010, -9.999999996500434900, 0.0000000000000000000 ) ) ;
#129 = AXIS2_PLACEMENT_3D ( 'NONE', #128, #127, #126 ) ;
#130 = CONICAL_SURFACE ( 'NONE', #129, 8.000000000000000000, 0.09966865249116201000 ) ;
#131 = DIRECTION ( 'NONE',  ( 0.0000000000000000000, 0.0000000000000000000, 1.000000000000000000 ) ) ;
#132 = DIRECTION ( 'NONE',  ( 0.0000000000000000000, 1.000000000000000000, 0.0000000000000000000 ) ) ;
#133 = AXIS2_PLACEMENT_3D ( 'NONE', #136, #132, #131 ) ;
#134 = CYLINDRICAL_SURFACE ( 'NONE', #133, 3.000000000000000400 ) ;
#135 = FACE_OUTER_BOUND ( 'NONE', #12, .T. ) ;
#136 = CARTESIAN_POINT ( 'NONE',  ( -5.009326287108706300E-010, 2.412507003500041800, 0.0000000000000000000 ) ) ;
#137 = DIRECTION ( 'NONE',  ( 0.0000000000000000000, 0.0000000000000000000, 1.000000000000000000 ) ) ;
#138 = DIRECTION ( 'NONE',  ( 0.0000000000000000000, 1.000000000000000000, 0.0000000000000000000 ) ) ;
#139 = AXIS2_PLACEMENT_3D ( 'NONE', #223, #138, #137 ) ;
#140 = ADVANCED_FACE ( 'NONE', ( #201 ), #200, .F. ) ;
#141 = ORIENTED_EDGE ( 'NONE', *, *, #142, .F. ) ;
#142 = EDGE_CURVE ( 'NONE', #143, #160, #199, .T. ) ;
#143 = VERTEX_POINT ( 'NONE', #190 ) ;
#144 = ORIENTED_EDGE ( 'NONE', *, *, #155, .T. ) ;
#145 = ORIENTED_EDGE ( 'NONE', *, *, #146, .T. ) ;
#146 = EDGE_CURVE ( 'NONE', #157, #28, #246, .T. ) ;
#147 = ORIENTED_EDGE ( 'NONE', *, *, #148, .F. ) ;
#148 = EDGE_CURVE ( 'NONE', #160, #238, #242, .T. ) ;
#149 = ADVANCED_FACE ( 'NONE', ( #248 ), #247, .T. ) ;
#150 = EDGE_LOOP ( 'NONE', ( #144, #145, #29, #25 ) ) ;
#151 = MANIFOLD_SOLID_BREP ( 'NONE', #48 ) ;
#152 = ADVANCED_FACE ( 'NONE', ( #244 ), #270, .T. ) ;
#153 = EDGE_LOOP ( 'NONE', ( #154, #158, #233, #70 ) ) ;
#154 = ORIENTED_EDGE ( 'NONE', *, *, #155, .F. ) ;
#155 = EDGE_CURVE ( 'NONE', #156, #157, #274, .T. ) ;
#156 = VERTEX_POINT ( 'NONE', #268 ) ;
#157 = VERTEX_POINT ( 'NONE', #267 ) ;
#158 = ORIENTED_EDGE ( 'NONE', *, *, #159, .T. ) ;
#159 = EDGE_CURVE ( 'NONE', #156, #239, #265, .T. ) ;
#160 = VERTEX_POINT ( 'NONE', #275 ) ;
#161 = ORIENTED_EDGE ( 'NONE', *, *, #162, .T. ) ;
#162 = EDGE_CURVE ( 'NONE', #143, #163, #289, .T. ) ;
#163 = VERTEX_POINT ( 'NONE', #290 ) ;
#164 = AXIS2_PLACEMENT_3D ( 'NONE', #96, #95, #94 ) ;
#165 = CIRCLE ( 'NONE', #164, 8.000000000000000000 ) ;
#166 = FACE_OUTER_BOUND ( 'NONE', #67, .T. ) ;
#167 = DIRECTION ( 'NONE',  ( 0.0000000000000000000, 0.0000000000000000000, 1.000000000000000000 ) ) ;
#168 = DIRECTION ( 'NONE',  ( 0.0000000000000000000, 1.000000000000000000, 0.0000000000000000000 ) ) ;
#169 = CARTESIAN_POINT ( 'NONE',  ( -5.009326287108706300E-010, -4.999999996500434900, 0.0000000000000000000 ) ) ;
#170 = AXIS2_PLACEMENT_3D ( 'NONE', #169, #168, #167 ) ;
#171 = CIRCLE ( 'NONE', #170, 3.000000000000000900 ) ;
#172 = DIRECTION ( 'NONE',  ( 0.0000000000000000000, 0.0000000000000000000, 1.000000000000000000 ) ) ;
#173 = DIRECTION ( 'NONE',  ( 0.0000000000000000000, 1.000000000000000000, 0.0000000000000000000 ) ) ;
#174 = CARTESIAN_POINT ( 'NONE',  ( 1.499999999499068000, -9.999999996500434900, 0.0000000000000000000 ) ) ;
#175 = AXIS2_PLACEMENT_3D ( 'NONE', #174, #173, #172 ) ;
#176 = PLANE ( 'NONE',  #175 ) ;
#177 = FACE_BOUND ( 'NONE', #63, .T. ) ;
#178 = FACE_OUTER_BOUND ( 'NONE', #21, .T. ) ;
#179 = DIRECTION ( 'NONE',  ( 0.0000000000000000000, 0.0000000000000000000, 1.000000000000000000 ) ) ;
#180 = DIRECTION ( 'NONE',  ( 0.0000000000000000000, 1.000000000000000000, 0.0000000000000000000 ) ) ;
#181 = CARTESIAN_POINT ( 'NONE',  ( -5.009326287108706300E-010, -9.999999996500434900, 0.0000000000000000000 ) ) ;
#182 = AXIS2_PLACEMENT_3D ( 'NONE', #181, #180, #179 ) ;
#183 = CIRCLE ( 'NONE', #182, 1.500000000000000700 ) ;
#184 = DIRECTION ( 'NONE',  ( 0.0000000000000000000, 0.0000000000000000000, 1.000000000000000000 ) ) ;
#185 = DIRECTION ( 'NONE',  ( 0.0000000000000000000, 1.000000000000000000, 0.0000000000000000000 ) ) ;
#186 = CARTESIAN_POINT ( 'NONE',  ( -5.009326287108706300E-010, -0.9004962774794423900, 0.0000000000000000000 ) ) ;
#187 = AXIS2_PLACEMENT_3D ( 'NONE', #186, #185, #184 ) ;
#188 = CIRCLE ( 'NONE', #187, 7.090049628097901300 ) ;
#189 = DIRECTION ( 'NONE',  ( 0.0000000000000000000, 0.0000000000000000000, 1.000000000000000000 ) ) ;
#190 = CARTESIAN_POINT ( 'NONE',  ( -5.009322613289644800E-010, -4.999999996500434900, -3.000000000000001300 ) ) ;
#191 = DIRECTION ( 'NONE',  ( 0.0000000000000000000, 0.0000000000000000000, 1.000000000000000000 ) ) ;
#192 = DIRECTION ( 'NONE',  ( 0.0000000000000000000, 1.000000000000000000, 0.0000000000000000000 ) ) ;
#193 = CARTESIAN_POINT ( 'NONE',  ( -5.009326287108706300E-010, -4.999999996500434900, 0.0000000000000000000 ) ) ;
#194 = AXIS2_PLACEMENT_3D ( 'NONE', #193, #192, #191 ) ;
#195 = DIRECTION ( 'NONE',  ( 0.0000000000000000000, 0.0000000000000000000, 1.000000000000000000 ) ) ;
#196 = DIRECTION ( 'NONE',  ( 0.0000000000000000000, 1.000000000000000000, 0.0000000000000000000 ) ) ;
#197 = CARTESIAN_POINT ( 'NONE',  ( -5.009326287108706300E-010, 2.412507003500041800, 0.0000000000000000000 ) ) ;
#198 = AXIS2_PLACEMENT_3D ( 'NONE', #197, #196, #195 ) ;
#199 = CIRCLE ( 'NONE', #194, 3.000000000000000900 ) ;
#200 = CYLINDRICAL_SURFACE ( 'NONE', #198, 3.000000000000000400 ) ;
#201 = FACE_OUTER_BOUND ( 'NONE', #46, .T. ) ;
#202 = DIRECTION ( 'NONE',  ( 0.0000000000000000000, 0.0000000000000000000, 1.000000000000000000 ) ) ;
#203 = DIRECTION ( 'NONE',  ( 0.0000000000000000000, 1.000000000000000000, 0.0000000000000000000 ) ) ;
#204 = CARTESIAN_POINT ( 'NONE',  ( -5.009326287108706300E-010, -9.999999996500434900, 0.0000000000000000000 ) ) ;
#205 = AXIS2_PLACEMENT_3D ( 'NONE', #204, #203, #202 ) ;
#206 = CIRCLE ( 'NONE', #205, 1.500000000000000700 ) ;
#207 = DIRECTION ( 'NONE',  ( 0.0000000000000000000, -0.9950371902099890400, -0.09950371902099888800 ) ) ;
#208 = VECTOR ( 'NONE', #207, 1000.000000000000100 ) ;
#209 = CARTESIAN_POINT ( 'NONE',  ( -5.009326287108706300E-010, -9.999999996500434900, -8.000000000000000000 ) ) ;
#210 = LINE ( 'NONE', #209, #208 ) ;
#211 = CARTESIAN_POINT ( 'NONE',  ( -5.009324450199175600E-010, -9.999999996500434900, -1.500000000000000900 ) ) ;
#212 = DIRECTION ( 'NONE',  ( 0.0000000000000000000, 0.0000000000000000000, 1.000000000000000000 ) ) ;
#213 = DIRECTION ( 'NONE',  ( 0.0000000000000000000, 1.000000000000000000, 0.0000000000000000000 ) ) ;
#214 = CARTESIAN_POINT ( 'NONE',  ( -5.009326287108706300E-010, 2.412507003500041800, 0.0000000000000000000 ) ) ;
#215 = AXIS2_PLACEMENT_3D ( 'NONE', #214, #213, #212 ) ;
#216 = CIRCLE ( 'NONE', #139, 3.000000000000000000 ) ;
#217 = FACE_OUTER_BOUND ( 'NONE', #16, .T. ) ;
#218 = DIRECTION ( 'NONE',  ( 0.0000000000000000000, 0.0000000000000000000, 1.000000000000000000 ) ) ;
#219 = DIRECTION ( 'NONE',  ( 0.0000000000000000000, 1.000000000000000000, 0.0000000000000000000 ) ) ;
#220 = CARTESIAN_POINT ( 'NONE',  ( -5.009326287108706300E-010, 3.499565220943523500E-009, 0.0000000000000000000 ) ) ;
#221 = AXIS2_PLACEMENT_3D ( 'NONE', #220, #219, #218 ) ;
#222 = CIRCLE ( 'NONE', #221, 6.095012437887904300 ) ;
#223 = CARTESIAN_POINT ( 'NONE',  ( -5.009326287108706300E-010, 3.499565220943523500E-009, 0.0000000000000000000 ) ) ;
#224 = DIRECTION ( 'NONE',  ( 0.0000000000000000000, 0.0000000000000000000, -1.000000000000000000 ) ) ;
#225 = DIRECTION ( 'NONE',  ( 0.0000000000000000000, -1.000000000000000000, 0.0000000000000000000 ) ) ;
#226 = CARTESIAN_POINT ( 'NONE',  ( 6.095012437386971600, 3.499565353893477800E-009, 0.0000000000000000000 ) ) ;
#227 = AXIS2_PLACEMENT_3D ( 'NONE', #226, #225, #224 ) ;
#228 = PLANE ( 'NONE',  #227 ) ;
#229 = FACE_OUTER_BOUND ( 'NONE', #7, .T. ) ;
#230 = FACE_BOUND ( 'NONE', #3, .T. ) ;
#231 = ORIENTED_EDGE ( 'NONE', *, *, #232, .F. ) ;
#232 = EDGE_CURVE ( 'NONE', #60, #59, #288, .T. ) ;
#233 = ORIENTED_EDGE ( 'NONE', *, *, #234, .T. ) ;
#234 = EDGE_CURVE ( 'NONE', #239, #235, #283, .T. ) ;
#235 = VERTEX_POINT ( 'NONE', #279 ) ;
#236 = ORIENTED_EDGE ( 'NONE', *, *, #237, .T. ) ;
#237 = EDGE_CURVE ( 'NONE', #163, #238, #253, .T. ) ;
#238 = VERTEX_POINT ( 'NONE', #296 ) ;
#239 = VERTEX_POINT ( 'NONE', #345 ) ;
#240 = CARTESIAN_POINT ( 'NONE',  ( -5.009318823117748500E-010, -0.9999999965004350300, -6.095012437887911400 ) ) ;
#241 = CARTESIAN_POINT ( 'NONE',  ( -5.009326287108706300E-010, 2.412507003500041800, 3.000000000000000400 ) ) ;
#242 = LINE ( 'NONE', #241, #250 ) ;
#243 = AXIS2_PLACEMENT_3D ( 'NONE', #240, #252, #251 ) ;
#244 = FACE_OUTER_BOUND ( 'NONE', #153, .T. ) ;
#245 = AXIS2_PLACEMENT_3D ( 'NONE', #257, #256, #255 ) ;
#246 = CIRCLE ( 'NONE', #243, 1.000000000000000000 ) ;
#247 = TOROIDAL_SURFACE ( 'NONE', #245, 6.095012437887911400, 1.000000000000000200 ) ;
#248 = FACE_OUTER_BOUND ( 'NONE', #150, .T. ) ;
#249 = DIRECTION ( 'NONE',  ( 0.0000000000000000000, 1.000000000000000000, 0.0000000000000000000 ) ) ;
#250 = VECTOR ( 'NONE', #249, 1000.000000000000000 ) ;
#251 = DIRECTION ( 'NONE',  ( 1.224606353612350900E-016, 0.0000000000000000000, -1.000000000000000000 ) ) ;
#252 = DIRECTION ( 'NONE',  ( 1.000000000000000000, 0.0000000000000000000, 1.224606353822377300E-016 ) ) ;
#253 = CIRCLE ( 'NONE', #254, 3.000000000000000000 ) ;
#254 = AXIS2_PLACEMENT_3D ( 'NONE', #266, #278, #297 ) ;
#255 = DIRECTION ( 'NONE',  ( 0.0000000000000000000, 0.0000000000000000000, 1.000000000000000000 ) ) ;
#256 = DIRECTION ( 'NONE',  ( 0.0000000000000000000, 1.000000000000000000, 0.0000000000000000000 ) ) ;
#257 = CARTESIAN_POINT ( 'NONE',  ( -5.009326287108706300E-010, -0.9999999965004350300, 0.0000000000000000000 ) ) ;
#258 = CARTESIAN_POINT ( 'NONE',  ( -5.009326287108706300E-010, -9.999999996500434900, 0.0000000000000000000 ) ) ;
#259 = DIRECTION ( 'NONE',  ( 0.0000000000000000000, 0.0000000000000000000, -1.000000000000000000 ) ) ;
#260 = DIRECTION ( 'NONE',  ( 0.0000000000000000000, -1.000000000000000000, 0.0000000000000000000 ) ) ;
#261 = AXIS2_PLACEMENT_3D ( 'NONE', #258, #260, #259 ) ;
#262 = DIRECTION ( 'NONE',  ( 1.218528865420717800E-017, -0.9950371902099890400, 0.09950371902099888800 ) ) ;
#263 = VECTOR ( 'NONE', #262, 1000.000000000000100 ) ;
#264 = CARTESIAN_POINT ( 'NONE',  ( -5.009316490257875700E-010, -9.999999996500434900, 8.000000000000000000 ) ) ;
#265 = LINE ( 'NONE', #264, #263 ) ;
#266 = CARTESIAN_POINT ( 'NONE',  ( -5.009326287108706300E-010, 3.499565220943523500E-009, 0.0000000000000000000 ) ) ;
#267 = CARTESIAN_POINT ( 'NONE',  ( -5.009317604588883000E-010, -0.9004962774794423900, -7.090049628097901300 ) ) ;
#268 = CARTESIAN_POINT ( 'NONE',  ( -5.009326287108706300E-010, -0.9004962774794423900, 7.090049628097901300 ) ) ;
#269 = DIRECTION ( 'NONE',  ( 0.0000000000000000000, 0.0000000000000000000, 1.000000000000000000 ) ) ;
#270 = CONICAL_SURFACE ( 'NONE', #261, 8.000000000000000000, 0.09966865249116201000 ) ;
#271 = DIRECTION ( 'NONE',  ( 0.0000000000000000000, 1.000000000000000000, 0.0000000000000000000 ) ) ;
#272 = CARTESIAN_POINT ( 'NONE',  ( -5.009326287108706300E-010, -0.9004962774794423900, 0.0000000000000000000 ) ) ;
#273 = AXIS2_PLACEMENT_3D ( 'NONE', #272, #271, #269 ) ;
#274 = CIRCLE ( 'NONE', #273, 7.090049628097901300 ) ;
#275 = CARTESIAN_POINT ( 'NONE',  ( -5.009326287108706300E-010, -4.999999996500434900, 3.000000000000000900 ) ) ;
#276 = VECTOR ( 'NONE', #291, 1000.000000000000000 ) ;
#277 = CARTESIAN_POINT ( 'NONE',  ( -5.009322613289644800E-010, 2.412507003500041800, -3.000000000000000400 ) ) ;
#278 = DIRECTION ( 'NONE',  ( 0.0000000000000000000, 1.000000000000000000, 0.0000000000000000000 ) ) ;
#279 = CARTESIAN_POINT ( 'NONE',  ( -5.009326287108706300E-010, -9.999999996500434900, -8.000000000000000000 ) ) ;
#280 = DIRECTION ( 'NONE',  ( 0.0000000000000000000, 0.0000000000000000000, 1.000000000000000000 ) ) ;
#281 = DIRECTION ( 'NONE',  ( 0.0000000000000000000, 1.000000000000000000, 0.0000000000000000000 ) ) ;
#282 = AXIS2_PLACEMENT_3D ( 'NONE', #284, #281, #280 ) ;
#283 = CIRCLE ( 'NONE', #282, 8.000000000000000000 ) ;
#284 = CARTESIAN_POINT ( 'NONE',  ( -5.009326287108706300E-010, -9.999999996500434900, 0.0000000000000000000 ) ) ;
#285 = DIRECTION ( 'NONE',  ( 0.0000000000000000000, 1.000000000000000000, 0.0000000000000000000 ) ) ;
#286 = VECTOR ( 'NONE', #285, 1000.000000000000000 ) ;
#287 = CARTESIAN_POINT ( 'NONE',  ( -5.009326287108706300E-010, 2.412507003500041800, 1.500000000000000400 ) ) ;
#288 = LINE ( 'NONE', #287, #286 ) ;
#289 = LINE ( 'NONE', #277, #276 ) ;
#290 = CARTESIAN_POINT ( 'NONE',  ( -5.009322613289644800E-010, 3.499565220943523500E-009, -3.000000000000000000 ) ) ;
#291 = DIRECTION ( 'NONE',  ( 0.0000000000000000000, 1.000000000000000000, 0.0000000000000000000 ) ) ;
#292 = UNCERTAINTY_MEASURE_WITH_UNIT (LENGTH_MEASURE( 1.000000000000000100E-005 ), #295, 'distance_accuracy_value', 'NONE');
#293 =( NAMED_UNIT ( * ) SI_UNIT ( $, .STERADIAN. ) SOLID_ANGLE_UNIT ( ) );
#294 =( NAMED_UNIT ( * ) PLANE_ANGLE_UNIT ( ) SI_UNIT ( $, .RADIAN. ) );
#295 =( LENGTH_UNIT ( ) NAMED_UNIT ( * ) SI_UNIT ( .MILLI., .METRE. ) );
#296 = CARTESIAN_POINT ( 'NONE',  ( -5.009326287108706300E-010, 3.499565220943523500E-009, 3.000000000000000000 ) ) ;
#297 = DIRECTION ( 'NONE',  ( 0.0000000000000000000, 0.0000000000000000000, 1.000000000000000000 ) ) ;
#298 = APPROVAL ( #299, 'UNSPECIFIED' ) ;
#299 = APPROVAL_STATUS ( 'not_yet_approved' ) ;
#300 = PERSON_AND_ORGANIZATION ( #333, #308 ) ;
#301 = PRODUCT_DEFINITION ( 'UNKNOWN', '', #315, #302 ) ;
#302 = DESIGN_CONTEXT ( 'detailed design', #304, 'design' ) ;
#303 = APPLICATION_PROTOCOL_DEFINITION ( 'international standard', 'config_control_design', 1994, #304 ) ;
#304 = APPLICATION_CONTEXT ( 'configuration controlled 3d designs of mechanical parts and assemblies' ) ;
#305 = CC_DESIGN_PERSON_AND_ORGANIZATION_ASSIGNMENT ( #307, #306, ( #334 ) ) ;
#306 = PERSON_AND_ORGANIZATION_ROLE ( 'design_owner' ) ;
#307 = PERSON_AND_ORGANIZATION ( #333, #308 ) ;
#308 = ORGANIZATION ( 'UNSPECIFIED', 'UNSPECIFIED', '' ) ;
#309 = COORDINATED_UNIVERSAL_TIME_OFFSET ( 9, 0, .AHEAD. ) ;
#310 = APPROVAL_PERSON_ORGANIZATION ( #314, #312, #311 ) ;
#311 = APPROVAL_ROLE ( '' ) ;
#312 = APPROVAL ( #313, 'UNSPECIFIED' ) ;
#313 = APPROVAL_STATUS ( 'not_yet_approved' ) ;
#314 = PERSON_AND_ORGANIZATION ( #333, #308 ) ;
#315 = PRODUCT_DEFINITION_FORMATION_WITH_SPECIFIED_SOURCE ( 'ANY', '', #334, .NOT_KNOWN. ) ;
#316 = CC_DESIGN_DATE_AND_TIME_ASSIGNMENT ( #318, #317, ( #301 ) ) ;
#317 = DATE_TIME_ROLE ( 'creation_date' ) ;
#318 = DATE_AND_TIME ( #319, #320 ) ;
#319 = CALENDAR_DATE ( 2009, 29, 6 ) ;
#320 = LOCAL_TIME ( 10, 24, 31.00000000000000000, #321 ) ;
#321 = COORDINATED_UNIVERSAL_TIME_OFFSET ( 9, 0, .AHEAD. ) ;
#322 = CC_DESIGN_PERSON_AND_ORGANIZATION_ASSIGNMENT ( #324, #323, ( #301 ) ) ;
#323 = PERSON_AND_ORGANIZATION_ROLE ( 'creator' ) ;
#324 = PERSON_AND_ORGANIZATION ( #333, #308 ) ;
#325 = CC_DESIGN_APPROVAL ( #298, ( #301 ) ) ;
#326 = APPROVAL_DATE_TIME ( #327, #298 ) ;
#327 = DATE_AND_TIME ( #328, #329 ) ;
#328 = CALENDAR_DATE ( 2009, 29, 6 ) ;
#329 = LOCAL_TIME ( 10, 24, 31.00000000000000000, #330 ) ;
#330 = COORDINATED_UNIVERSAL_TIME_OFFSET ( 9, 0, .AHEAD. ) ;
#331 = APPROVAL_PERSON_ORGANIZATION ( #300, #298, #332 ) ;
#332 = APPROVAL_ROLE ( '' ) ;
#333 = PERSON ( 'UNSPECIFIED', 'UNSPECIFIED', 'UNSPECIFIED', ('UNSPECIFIED'), ('UNSPECIFIED'), ('UNSPECIFIED') ) ;
#334 = PRODUCT ( 'C-30-RK-16-gray', 'C-30-RK-16-gray', '', ( #335 ) ) ;
#335 = MECHANICAL_CONTEXT ( 'NONE', #337, 'mechanical' ) ;
#336 = APPLICATION_PROTOCOL_DEFINITION ( 'international standard', 'config_control_design', 1994, #337 ) ;
#337 = APPLICATION_CONTEXT ( 'configuration controlled 3d designs of mechanical parts and assemblies' ) ;
#338 = DIRECTION ( 'NONE',  ( 1.000000000000000000, 0.0000000000000000000, 0.0000000000000000000 ) ) ;
#339 = DIRECTION ( 'NONE',  ( 0.0000000000000000000, 0.0000000000000000000, 1.000000000000000000 ) ) ;
#340 = AXIS2_PLACEMENT_3D ( 'NONE', #344, #339, #338 ) ;
#341 = SHAPE_DEFINITION_REPRESENTATION ( #380, #342 ) ;
#342 = ADVANCED_BREP_SHAPE_REPRESENTATION ( 'C-30-RK-16-gray', ( #151, #340 ), #343 ) ;
#343 =( GEOMETRIC_REPRESENTATION_CONTEXT ( 3 ) GLOBAL_UNCERTAINTY_ASSIGNED_CONTEXT ( ( #292 ) ) GLOBAL_UNIT_ASSIGNED_CONTEXT ( ( #295, #294, #293 ) ) REPRESENTATION_CONTEXT ( 'NONE', 'WORKASPACE' ) );
#344 = CARTESIAN_POINT ( 'NONE',  ( 0.0000000000000000000, 0.0000000000000000000, 0.0000000000000000000 ) ) ;
#345 = CARTESIAN_POINT ( 'NONE',  ( -5.009316490257875700E-010, -9.999999996500434900, 8.000000000000000000 ) ) ;
#346 = CC_DESIGN_SECURITY_CLASSIFICATION ( #367, ( #315 ) ) ;
#347 = CC_DESIGN_APPROVAL ( #355, ( #367 ) ) ;
#348 = APPROVAL_DATE_TIME ( #349, #355 ) ;
#349 = DATE_AND_TIME ( #350, #351 ) ;
#350 = CALENDAR_DATE ( 2009, 29, 6 ) ;
#351 = LOCAL_TIME ( 10, 24, 31.00000000000000000, #352 ) ;
#352 = COORDINATED_UNIVERSAL_TIME_OFFSET ( 9, 0, .AHEAD. ) ;
#353 = APPROVAL_PERSON_ORGANIZATION ( #357, #355, #354 ) ;
#354 = APPROVAL_ROLE ( '' ) ;
#355 = APPROVAL ( #356, 'UNSPECIFIED' ) ;
#356 = APPROVAL_STATUS ( 'not_yet_approved' ) ;
#357 = PERSON_AND_ORGANIZATION ( #333, #308 ) ;
#358 = CC_DESIGN_DATE_AND_TIME_ASSIGNMENT ( #360, #359, ( #367 ) ) ;
#359 = DATE_TIME_ROLE ( 'classification_date' ) ;
#360 = DATE_AND_TIME ( #361, #362 ) ;
#361 = CALENDAR_DATE ( 2009, 29, 6 ) ;
#362 = LOCAL_TIME ( 10, 24, 31.00000000000000000, #363 ) ;
#363 = COORDINATED_UNIVERSAL_TIME_OFFSET ( 9, 0, .AHEAD. ) ;
#364 = CC_DESIGN_PERSON_AND_ORGANIZATION_ASSIGNMENT ( #366, #365, ( #367 ) ) ;
#365 = PERSON_AND_ORGANIZATION_ROLE ( 'classification_officer' ) ;
#366 = PERSON_AND_ORGANIZATION ( #333, #308 ) ;
#367 = SECURITY_CLASSIFICATION ( '', '', #368 ) ;
#368 = SECURITY_CLASSIFICATION_LEVEL ( 'unclassified' ) ;
#369 = CC_DESIGN_PERSON_AND_ORGANIZATION_ASSIGNMENT ( #371, #370, ( #315 ) ) ;
#370 = PERSON_AND_ORGANIZATION_ROLE ( 'design_supplier' ) ;
#371 = PERSON_AND_ORGANIZATION ( #333, #308 ) ;
#372 = CC_DESIGN_PERSON_AND_ORGANIZATION_ASSIGNMENT ( #374, #373, ( #315 ) ) ;
#373 = PERSON_AND_ORGANIZATION_ROLE ( 'creator' ) ;
#374 = PERSON_AND_ORGANIZATION ( #333, #308 ) ;
#375 = CC_DESIGN_APPROVAL ( #312, ( #315 ) ) ;
#376 = APPROVAL_DATE_TIME ( #377, #312 ) ;
#377 = DATE_AND_TIME ( #378, #379 ) ;
#378 = CALENDAR_DATE ( 2009, 29, 6 ) ;
#379 = LOCAL_TIME ( 10, 24, 31.00000000000000000, #309 ) ;
#380 = PRODUCT_DEFINITION_SHAPE ( 'NONE', 'NONE',  #301 ) ;
#381 = PRODUCT_RELATED_PRODUCT_CATEGORY ( 'detail', '', ( #334 ) ) ;
ENDSEC;
END-ISO-10303-21;
