ISO-10303-21;
HEADER;
FILE_DESCRIPTION (( 'STEP AP203' ),
    '1' );
FILE_NAME ('C-30-RK-1510-gray.STEP',
    '2009-06-29T02:40:04',
    ( '11sw' ),
    ( '^LQ»¢®ïÐ' ),
    'SwSTEP 2.0',
    'SolidWorks 2007',
    '' );
FILE_SCHEMA (( 'CONFIG_CONTROL_DESIGN' ));
ENDSEC;

DATA;
#1 = ADVANCED_FACE ( 'NONE', ( #268 ), #235, .T. ) ;
#2 = MANIFOLD_SOLID_BREP ( 'NONE', #116 ) ;
#3 = EDGE_LOOP ( 'NONE', ( #76, #80, #27, #85 ) ) ;
#4 = VERTEX_POINT ( 'NONE', #293 ) ;
#5 = ORIENTED_EDGE ( 'NONE', *, *, #6, .T. ) ;
#6 = EDGE_CURVE ( 'NONE', #4, #7, #132, .T. ) ;
#7 = VERTEX_POINT ( 'NONE', #127 ) ;
#8 = ORIENTED_EDGE ( 'NONE', *, *, #9, .F. ) ;
#9 = EDGE_CURVE ( 'NONE', #61, #66, #126, .T. ) ;
#10 = CALENDAR_DATE ( 2009, 29, 6 ) ;
#11 = LOCAL_TIME ( 11, 40, 4.000000000000000000, #12 ) ;
#12 = COORDINATED_UNIVERSAL_TIME_OFFSET ( 9, 0, .AHEAD. ) ;
#13 = APPROVAL_PERSON_ORGANIZATION ( #18, #15, #14 ) ;
#14 = APPROVAL_ROLE ( '' ) ;
#15 = APPROVAL ( #17, 'UNSPECIFIED' ) ;
#16 = EDGE_LOOP ( 'NONE', ( #67, #71, #5, #73 ) ) ;
#17 = APPROVAL_STATUS ( 'not_yet_approved' ) ;
#18 = PERSON_AND_ORGANIZATION ( #159, #158 ) ;
#19 = PRODUCT_DEFINITION ( 'UNKNOWN', '', #352, #20 ) ;
#20 = DESIGN_CONTEXT ( 'detailed design', #22, 'design' ) ;
#21 = APPLICATION_PROTOCOL_DEFINITION ( 'international standard', 'config_control_design', 1994, #22 ) ;
#22 = APPLICATION_CONTEXT ( 'configuration controlled 3d designs of mechanical parts and assemblies' ) ;
#23 = ADVANCED_FACE ( 'NONE', ( #197 ), #195, .F. ) ;
#24 = CC_DESIGN_PERSON_AND_ORGANIZATION_ASSIGNMENT ( #157, #156, ( #160 ) ) ;
#25 = EDGE_CURVE ( 'NONE', #64, #66, #190, .T. ) ;
#26 = EDGE_CURVE ( 'NONE', #78, #83, #186, .T. ) ;
#27 = ORIENTED_EDGE ( 'NONE', *, *, #55, .T. ) ;
#28 = VERTEX_POINT ( 'NONE', #182 ) ;
#29 = ORIENTED_EDGE ( 'NONE', *, *, #44, .F. ) ;
#30 = ORIENTED_EDGE ( 'NONE', *, *, #86, .T. ) ;
#31 = ORIENTED_EDGE ( 'NONE', *, *, #53, .T. ) ;
#32 = ORIENTED_EDGE ( 'NONE', *, *, #36, .F. ) ;
#33 = ADVANCED_FACE ( 'NONE', ( #181 ), #178, .F. ) ;
#34 = ORIENTED_EDGE ( 'NONE', *, *, #44, .T. ) ;
#35 = ORIENTED_EDGE ( 'NONE', *, *, #36, .T. ) ;
#36 = EDGE_CURVE ( 'NONE', #43, #28, #179, .T. ) ;
#37 = EDGE_LOOP ( 'NONE', ( #39, #46 ) ) ;
#38 = ADVANCED_FACE ( 'NONE', ( #170, #169 ), #292, .F. ) ;
#39 = ORIENTED_EDGE ( 'NONE', *, *, #45, .F. ) ;
#40 = EDGE_LOOP ( 'NONE', ( #34, #35 ) ) ;
#41 = EDGE_LOOP ( 'NONE', ( #92, #42, #29, #54 ) ) ;
#42 = ORIENTED_EDGE ( 'NONE', *, *, #84, .T. ) ;
#43 = VERTEX_POINT ( 'NONE', #287 ) ;
#44 = EDGE_CURVE ( 'NONE', #28, #43, #286, .T. ) ;
#45 = EDGE_CURVE ( 'NONE', #56, #83, #281, .T. ) ;
#46 = ORIENTED_EDGE ( 'NONE', *, *, #55, .F. ) ;
#47 = EDGE_LOOP ( 'NONE', ( #125, #120, #30, #121 ) ) ;
#48 = ORIENTED_EDGE ( 'NONE', *, *, #84, .F. ) ;
#49 = EDGE_CURVE ( 'NONE', #61, #60, #276, .T. ) ;
#50 = ORIENTED_EDGE ( 'NONE', *, *, #49, .T. ) ;
#51 = EDGE_LOOP ( 'NONE', ( #48, #50, #31, #32 ) ) ;
#52 = ADVANCED_FACE ( 'NONE', ( #271 ), #270, .T. ) ;
#53 = EDGE_CURVE ( 'NONE', #60, #28, #151, .T. ) ;
#54 = ORIENTED_EDGE ( 'NONE', *, *, #53, .F. ) ;
#55 = EDGE_CURVE ( 'NONE', #83, #56, #147, .T. ) ;
#56 = VERTEX_POINT ( 'NONE', #142 ) ;
#57 = EDGE_LOOP ( 'NONE', ( #58, #62, #65, #8 ) ) ;
#58 = ORIENTED_EDGE ( 'NONE', *, *, #59, .F. ) ;
#59 = EDGE_CURVE ( 'NONE', #60, #61, #141, .T. ) ;
#60 = VERTEX_POINT ( 'NONE', #136 ) ;
#61 = VERTEX_POINT ( 'NONE', #135 ) ;
#62 = ORIENTED_EDGE ( 'NONE', *, *, #63, .T. ) ;
#63 = EDGE_CURVE ( 'NONE', #60, #64, #134, .T. ) ;
#64 = VERTEX_POINT ( 'NONE', #265 ) ;
#65 = ORIENTED_EDGE ( 'NONE', *, *, #25, .T. ) ;
#66 = VERTEX_POINT ( 'NONE', #264 ) ;
#67 = ORIENTED_EDGE ( 'NONE', *, *, #68, .F. ) ;
#68 = EDGE_CURVE ( 'NONE', #69, #70, #263, .T. ) ;
#69 = VERTEX_POINT ( 'NONE', #258 ) ;
#70 = VERTEX_POINT ( 'NONE', #257 ) ;
#71 = ORIENTED_EDGE ( 'NONE', *, *, #72, .T. ) ;
#72 = EDGE_CURVE ( 'NONE', #69, #4, #256, .T. ) ;
#73 = ORIENTED_EDGE ( 'NONE', *, *, #74, .F. ) ;
#74 = EDGE_CURVE ( 'NONE', #70, #7, #252, .T. ) ;
#75 = ADVANCED_FACE ( 'NONE', ( #248 ), #246, .F. ) ;
#76 = ORIENTED_EDGE ( 'NONE', *, *, #77, .F. ) ;
#77 = EDGE_CURVE ( 'NONE', #78, #79, #241, .T. ) ;
#78 = VERTEX_POINT ( 'NONE', #315 ) ;
#79 = VERTEX_POINT ( 'NONE', #314 ) ;
#80 = ORIENTED_EDGE ( 'NONE', *, *, #26, .T. ) ;
#81 = EDGE_LOOP ( 'NONE', ( #103, #104 ) ) ;
#82 = ORIENTED_EDGE ( 'NONE', *, *, #74, .T. ) ;
#83 = VERTEX_POINT ( 'NONE', #313 ) ;
#84 = EDGE_CURVE ( 'NONE', #61, #43, #312, .T. ) ;
#85 = ORIENTED_EDGE ( 'NONE', *, *, #86, .F. ) ;
#86 = EDGE_CURVE ( 'NONE', #79, #56, #307, .T. ) ;
#87 = PERSON_AND_ORGANIZATION_ROLE ( 'creator' ) ;
#88 = PERSON_AND_ORGANIZATION ( #159, #158 ) ;
#89 = CC_DESIGN_APPROVAL ( #15, ( #19 ) ) ;
#90 = APPROVAL_DATE_TIME ( #91, #15 ) ;
#91 = DATE_AND_TIME ( #10, #11 ) ;
#92 = ORIENTED_EDGE ( 'NONE', *, *, #59, .T. ) ;
#93 = ADVANCED_FACE ( 'NONE', ( #303 ), #301, .T. ) ;
#94 = ORIENTED_EDGE ( 'NONE', *, *, #108, .T. ) ;
#95 = ORIENTED_EDGE ( 'NONE', *, *, #25, .F. ) ;
#96 = ADVANCED_FACE ( 'NONE', ( #330, #329 ), #328, .F. ) ;
#97 = EDGE_LOOP ( 'NONE', ( #98, #95 ) ) ;
#98 = ORIENTED_EDGE ( 'NONE', *, *, #113, .F. ) ;
#99 = ORIENTED_EDGE ( 'NONE', *, *, #6, .F. ) ;
#100 = ORIENTED_EDGE ( 'NONE', *, *, #124, .T. ) ;
#101 = ORIENTED_EDGE ( 'NONE', *, *, #77, .T. ) ;
#102 = EDGE_LOOP ( 'NONE', ( #100, #101 ) ) ;
#103 = ORIENTED_EDGE ( 'NONE', *, *, #112, .T. ) ;
#104 = ORIENTED_EDGE ( 'NONE', *, *, #68, .T. ) ;
#105 = ADVANCED_FACE ( 'NONE', ( #323 ), #322, .F. ) ;
#106 = EDGE_LOOP ( 'NONE', ( #107, #111, #82, #94 ) ) ;
#107 = ORIENTED_EDGE ( 'NONE', *, *, #72, .F. ) ;
#108 = EDGE_CURVE ( 'NONE', #7, #4, #320, .T. ) ;
#109 = ORIENTED_EDGE ( 'NONE', *, *, #108, .F. ) ;
#110 = ORIENTED_EDGE ( 'NONE', *, *, #49, .F. ) ;
#111 = ORIENTED_EDGE ( 'NONE', *, *, #112, .F. ) ;
#112 = EDGE_CURVE ( 'NONE', #70, #69, #228, .T. ) ;
#113 = EDGE_CURVE ( 'NONE', #66, #64, #223, .T. ) ;
#114 = ORIENTED_EDGE ( 'NONE', *, *, #9, .T. ) ;
#115 = ORIENTED_EDGE ( 'NONE', *, *, #113, .T. ) ;
#116 = CLOSED_SHELL ( 'NONE', ( #1, #23, #75, #93, #52, #38, #33, #122, #105, #96, #117 ) ) ;
#117 = ADVANCED_FACE ( 'NONE', ( #218 ), #217, .T. ) ;
#118 = EDGE_LOOP ( 'NONE', ( #119, #110, #114, #115 ) ) ;
#119 = ORIENTED_EDGE ( 'NONE', *, *, #63, .F. ) ;
#120 = ORIENTED_EDGE ( 'NONE', *, *, #124, .F. ) ;
#121 = ORIENTED_EDGE ( 'NONE', *, *, #45, .T. ) ;
#122 = ADVANCED_FACE ( 'NONE', ( #216, #211 ), #210, .F. ) ;
#123 = EDGE_LOOP ( 'NONE', ( #109, #99 ) ) ;
#124 = EDGE_CURVE ( 'NONE', #79, #78, #205, .T. ) ;
#125 = ORIENTED_EDGE ( 'NONE', *, *, #26, .F. ) ;
#126 = LINE ( 'NONE', #200, #199 ) ;
#127 = CARTESIAN_POINT ( 'NONE',  ( -5.009326287108706300E-010, -2.999999996500434900, 1.500000000000000000 ) ) ;
#128 = DIRECTION ( 'NONE',  ( 0.0000000000000000000, 0.0000000000000000000, 1.000000000000000000 ) ) ;
#129 = DIRECTION ( 'NONE',  ( 0.0000000000000000000, 1.000000000000000000, 0.0000000000000000000 ) ) ;
#130 = CARTESIAN_POINT ( 'NONE',  ( -5.009326287108706300E-010, -2.999999996500434900, 0.0000000000000000000 ) ) ;
#131 = AXIS2_PLACEMENT_3D ( 'NONE', #130, #129, #128 ) ;
#132 = CIRCLE ( 'NONE', #131, 1.500000000000000000 ) ;
#133 = CARTESIAN_POINT ( 'NONE',  ( -5.009317102561052600E-010, -9.999999996500434900, 7.500000000000000000 ) ) ;
#134 = LINE ( 'NONE', #133, #267 ) ;
#135 = CARTESIAN_POINT ( 'NONE',  ( -5.009319932178015700E-010, -0.7574643714641070600, -5.189366093740918700 ) ) ;
#136 = CARTESIAN_POINT ( 'NONE',  ( -5.009326287108706300E-010, -0.7574643714641070600, 5.189366093740918700 ) ) ;
#137 = DIRECTION ( 'NONE',  ( 0.0000000000000000000, 0.0000000000000000000, 1.000000000000000000 ) ) ;
#138 = DIRECTION ( 'NONE',  ( 0.0000000000000000000, 1.000000000000000000, 0.0000000000000000000 ) ) ;
#139 = CARTESIAN_POINT ( 'NONE',  ( -5.009326287108706300E-010, -0.7574643714641070600, 0.0000000000000000000 ) ) ;
#140 = AXIS2_PLACEMENT_3D ( 'NONE', #139, #138, #137 ) ;
#141 = CIRCLE ( 'NONE', #140, 5.189366093740918700 ) ;
#142 = CARTESIAN_POINT ( 'NONE',  ( -5.009326287108706300E-010, 3.499565220943523500E-009, 2.500000000000000400 ) ) ;
#143 = DIRECTION ( 'NONE',  ( 0.0000000000000000000, 0.0000000000000000000, 1.000000000000000000 ) ) ;
#144 = DIRECTION ( 'NONE',  ( 0.0000000000000000000, 1.000000000000000000, 0.0000000000000000000 ) ) ;
#145 = CARTESIAN_POINT ( 'NONE',  ( -5.009326287108706300E-010, 3.499565220943523500E-009, 0.0000000000000000000 ) ) ;
#146 = AXIS2_PLACEMENT_3D ( 'NONE', #145, #144, #143 ) ;
#147 = CIRCLE ( 'NONE', #146, 2.500000000000000400 ) ;
#148 = DIRECTION ( 'NONE',  ( 0.0000000000000000000, 0.0000000000000000000, 1.000000000000000000 ) ) ;
#149 = DIRECTION ( 'NONE',  ( -1.000000000000000000, 0.0000000000000000000, 0.0000000000000000000 ) ) ;
#150 = AXIS2_PLACEMENT_3D ( 'NONE', #155, #149, #148 ) ;
#151 = CIRCLE ( 'NONE', #150, 1.000000000000000000 ) ;
#152 = DIRECTION ( 'NONE',  ( 0.0000000000000000000, 0.0000000000000000000, 1.000000000000000000 ) ) ;
#153 = DIRECTION ( 'NONE',  ( 0.0000000000000000000, 1.000000000000000000, 0.0000000000000000000 ) ) ;
#154 = AXIS2_PLACEMENT_3D ( 'NONE', #269, #153, #152 ) ;
#155 = CARTESIAN_POINT ( 'NONE',  ( -5.009326287108706300E-010, -0.9999999965004345800, 4.219223593595584600 ) ) ;
#156 = PERSON_AND_ORGANIZATION_ROLE ( 'design_owner' ) ;
#157 = PERSON_AND_ORGANIZATION ( #159, #158 ) ;
#158 = ORGANIZATION ( 'UNSPECIFIED', 'UNSPECIFIED', '' ) ;
#159 = PERSON ( 'UNSPECIFIED', 'UNSPECIFIED', 'UNSPECIFIED', ('UNSPECIFIED'), ('UNSPECIFIED'), ('UNSPECIFIED') ) ;
#160 = PRODUCT ( 'C-30-RK-1510-gray', 'C-30-RK-1510-gray', '', ( #161 ) ) ;
#161 = MECHANICAL_CONTEXT ( 'NONE', #232, 'mechanical' ) ;
#162 = APPLICATION_PROTOCOL_DEFINITION ( 'international standard', 'config_control_design', 1994, #232 ) ;
#163 = DIRECTION ( 'NONE',  ( 0.0000000000000000000, 0.0000000000000000000, 1.000000000000000000 ) ) ;
#164 = ADVANCED_BREP_SHAPE_REPRESENTATION ( 'C-30-RK-1510-gray', ( #2, #234 ), #165 ) ;
#165 =( GEOMETRIC_REPRESENTATION_CONTEXT ( 3 ) GLOBAL_UNCERTAINTY_ASSIGNED_CONTEXT ( ( #166 ) ) GLOBAL_UNIT_ASSIGNED_CONTEXT ( ( #236, #168, #167 ) ) REPRESENTATION_CONTEXT ( 'NONE', 'WORKASPACE' ) );
#166 = UNCERTAINTY_MEASURE_WITH_UNIT (LENGTH_MEASURE( 1.000000000000000100E-005 ), #236, 'distance_accuracy_value', 'NONE');
#167 =( NAMED_UNIT ( * ) SI_UNIT ( $, .STERADIAN. ) SOLID_ANGLE_UNIT ( ) );
#168 =( NAMED_UNIT ( * ) PLANE_ANGLE_UNIT ( ) SI_UNIT ( $, .RADIAN. ) );
#169 = FACE_OUTER_BOUND ( 'NONE', #40, .T. ) ;
#170 = FACE_BOUND ( 'NONE', #37, .T. ) ;
#171 = DIRECTION ( 'NONE',  ( 0.0000000000000000000, 0.0000000000000000000, 1.000000000000000000 ) ) ;
#172 = DIRECTION ( 'NONE',  ( 0.0000000000000000000, 1.000000000000000000, 0.0000000000000000000 ) ) ;
#173 = CARTESIAN_POINT ( 'NONE',  ( -5.009326287108706300E-010, 3.499565220943523500E-009, 0.0000000000000000000 ) ) ;
#174 = AXIS2_PLACEMENT_3D ( 'NONE', #173, #172, #171 ) ;
#175 = DIRECTION ( 'NONE',  ( 0.0000000000000000000, 0.0000000000000000000, 1.000000000000000000 ) ) ;
#176 = DIRECTION ( 'NONE',  ( 0.0000000000000000000, 1.000000000000000000, 0.0000000000000000000 ) ) ;
#177 = AXIS2_PLACEMENT_3D ( 'NONE', #180, #176, #175 ) ;
#178 = CYLINDRICAL_SURFACE ( 'NONE', #177, 2.500000000000000400 ) ;
#179 = CIRCLE ( 'NONE', #174, 4.219223593595579300 ) ;
#180 = CARTESIAN_POINT ( 'NONE',  ( -5.009326287108706300E-010, 2.412507003500041800, 0.0000000000000000000 ) ) ;
#181 = FACE_OUTER_BOUND ( 'NONE', #47, .T. ) ;
#182 = CARTESIAN_POINT ( 'NONE',  ( -5.009326287108706300E-010, 3.499565220943523500E-009, 4.219223593595579300 ) ) ;
#183 = DIRECTION ( 'NONE',  ( 0.0000000000000000000, 1.000000000000000000, 0.0000000000000000000 ) ) ;
#184 = VECTOR ( 'NONE', #183, 1000.000000000000000 ) ;
#185 = CARTESIAN_POINT ( 'NONE',  ( -5.009323225592821800E-010, 2.412507003500041800, -2.500000000000000400 ) ) ;
#186 = LINE ( 'NONE', #185, #184 ) ;
#187 = DIRECTION ( 'NONE',  ( 0.0000000000000000000, 0.0000000000000000000, 1.000000000000000000 ) ) ;
#188 = DIRECTION ( 'NONE',  ( 0.0000000000000000000, 1.000000000000000000, 0.0000000000000000000 ) ) ;
#189 = AXIS2_PLACEMENT_3D ( 'NONE', #196, #188, #187 ) ;
#190 = CIRCLE ( 'NONE', #189, 7.500000000000000000 ) ;
#191 = DIRECTION ( 'NONE',  ( 0.0000000000000000000, 0.0000000000000000000, 1.000000000000000000 ) ) ;
#192 = DIRECTION ( 'NONE',  ( 0.0000000000000000000, 1.000000000000000000, 0.0000000000000000000 ) ) ;
#193 = CARTESIAN_POINT ( 'NONE',  ( -5.009326287108706300E-010, 2.412507003500041800, 0.0000000000000000000 ) ) ;
#194 = AXIS2_PLACEMENT_3D ( 'NONE', #193, #192, #191 ) ;
#195 = CYLINDRICAL_SURFACE ( 'NONE', #194, 1.500000000000000400 ) ;
#196 = CARTESIAN_POINT ( 'NONE',  ( -5.009326287108706300E-010, -9.999999996500434900, 0.0000000000000000000 ) ) ;
#197 = FACE_OUTER_BOUND ( 'NONE', #16, .T. ) ;
#198 = DIRECTION ( 'NONE',  ( 0.0000000000000000000, -0.9701425001453319900, -0.2425356250363329100 ) ) ;
#199 = VECTOR ( 'NONE', #198, 999.9999999999998900 ) ;
#200 = CARTESIAN_POINT ( 'NONE',  ( -5.009326287108706300E-010, -9.999999996500434900, -7.500000000000000000 ) ) ;
#201 = DIRECTION ( 'NONE',  ( 0.0000000000000000000, 0.0000000000000000000, 1.000000000000000000 ) ) ;
#202 = DIRECTION ( 'NONE',  ( 0.0000000000000000000, 1.000000000000000000, 0.0000000000000000000 ) ) ;
#203 = CARTESIAN_POINT ( 'NONE',  ( -5.009326287108706300E-010, -2.999999996500434900, 0.0000000000000000000 ) ) ;
#204 = AXIS2_PLACEMENT_3D ( 'NONE', #203, #202, #201 ) ;
#205 = CIRCLE ( 'NONE', #204, 2.500000000000000400 ) ;
#206 = DIRECTION ( 'NONE',  ( 0.0000000000000000000, 0.0000000000000000000, -1.000000000000000000 ) ) ;
#207 = DIRECTION ( 'NONE',  ( 0.0000000000000000000, -1.000000000000000000, 0.0000000000000000000 ) ) ;
#208 = CARTESIAN_POINT ( 'NONE',  ( 2.499999999499067800, -2.999999996500434900, 0.0000000000000000000 ) ) ;
#209 = AXIS2_PLACEMENT_3D ( 'NONE', #208, #207, #206 ) ;
#210 = PLANE ( 'NONE',  #209 ) ;
#211 = FACE_OUTER_BOUND ( 'NONE', #102, .T. ) ;
#212 = DIRECTION ( 'NONE',  ( 0.0000000000000000000, 0.0000000000000000000, -1.000000000000000000 ) ) ;
#213 = DIRECTION ( 'NONE',  ( 0.0000000000000000000, -1.000000000000000000, 0.0000000000000000000 ) ) ;
#214 = CARTESIAN_POINT ( 'NONE',  ( -5.009326287108706300E-010, -9.999999996500434900, 0.0000000000000000000 ) ) ;
#215 = AXIS2_PLACEMENT_3D ( 'NONE', #214, #213, #212 ) ;
#216 = FACE_BOUND ( 'NONE', #123, .T. ) ;
#217 = CONICAL_SURFACE ( 'NONE', #215, 7.500000000000000000, 0.2449786631268640600 ) ;
#218 = FACE_OUTER_BOUND ( 'NONE', #118, .T. ) ;
#219 = DIRECTION ( 'NONE',  ( 0.0000000000000000000, 0.0000000000000000000, 1.000000000000000000 ) ) ;
#220 = DIRECTION ( 'NONE',  ( 0.0000000000000000000, 1.000000000000000000, 0.0000000000000000000 ) ) ;
#221 = CARTESIAN_POINT ( 'NONE',  ( -5.009326287108706300E-010, -9.999999996500434900, 0.0000000000000000000 ) ) ;
#222 = AXIS2_PLACEMENT_3D ( 'NONE', #221, #220, #219 ) ;
#223 = CIRCLE ( 'NONE', #222, 7.500000000000000000 ) ;
#224 = DIRECTION ( 'NONE',  ( 0.0000000000000000000, 0.0000000000000000000, 1.000000000000000000 ) ) ;
#225 = DIRECTION ( 'NONE',  ( 0.0000000000000000000, 1.000000000000000000, 0.0000000000000000000 ) ) ;
#226 = CARTESIAN_POINT ( 'NONE',  ( -5.009326287108706300E-010, -9.999999996500434900, 0.0000000000000000000 ) ) ;
#227 = AXIS2_PLACEMENT_3D ( 'NONE', #226, #225, #224 ) ;
#228 = CIRCLE ( 'NONE', #227, 1.500000000000000700 ) ;
#229 = DIRECTION ( 'NONE',  ( 0.0000000000000000000, 0.0000000000000000000, 1.000000000000000000 ) ) ;
#230 = DIRECTION ( 'NONE',  ( 0.0000000000000000000, 1.000000000000000000, 0.0000000000000000000 ) ) ;
#231 = AXIS2_PLACEMENT_3D ( 'NONE', #321, #230, #229 ) ;
#232 = APPLICATION_CONTEXT ( 'configuration controlled 3d designs of mechanical parts and assemblies' ) ;
#233 = DIRECTION ( 'NONE',  ( 1.000000000000000000, 0.0000000000000000000, 0.0000000000000000000 ) ) ;
#234 = AXIS2_PLACEMENT_3D ( 'NONE', #237, #163, #233 ) ;
#235 = CONICAL_SURFACE ( 'NONE', #297, 7.500000000000000000, 0.2449786631268640600 ) ;
#236 =( LENGTH_UNIT ( ) NAMED_UNIT ( * ) SI_UNIT ( .MILLI., .METRE. ) );
#237 = CARTESIAN_POINT ( 'NONE',  ( 0.0000000000000000000, 0.0000000000000000000, 0.0000000000000000000 ) ) ;
#238 = DIRECTION ( 'NONE',  ( 0.0000000000000000000, 0.0000000000000000000, 1.000000000000000000 ) ) ;
#239 = DIRECTION ( 'NONE',  ( 0.0000000000000000000, 1.000000000000000000, 0.0000000000000000000 ) ) ;
#240 = AXIS2_PLACEMENT_3D ( 'NONE', #247, #239, #238 ) ;
#241 = CIRCLE ( 'NONE', #240, 2.500000000000000400 ) ;
#242 = DIRECTION ( 'NONE',  ( 0.0000000000000000000, 0.0000000000000000000, 1.000000000000000000 ) ) ;
#243 = DIRECTION ( 'NONE',  ( 0.0000000000000000000, 1.000000000000000000, 0.0000000000000000000 ) ) ;
#244 = CARTESIAN_POINT ( 'NONE',  ( -5.009326287108706300E-010, 2.412507003500041800, 0.0000000000000000000 ) ) ;
#245 = AXIS2_PLACEMENT_3D ( 'NONE', #244, #243, #242 ) ;
#246 = CYLINDRICAL_SURFACE ( 'NONE', #245, 2.500000000000000400 ) ;
#247 = CARTESIAN_POINT ( 'NONE',  ( -5.009326287108706300E-010, -2.999999996500434900, 0.0000000000000000000 ) ) ;
#248 = FACE_OUTER_BOUND ( 'NONE', #3, .T. ) ;
#249 = DIRECTION ( 'NONE',  ( 0.0000000000000000000, 1.000000000000000000, 0.0000000000000000000 ) ) ;
#250 = VECTOR ( 'NONE', #249, 1000.000000000000000 ) ;
#251 = CARTESIAN_POINT ( 'NONE',  ( -5.009326287108706300E-010, 2.412507003500041800, 1.500000000000000400 ) ) ;
#252 = LINE ( 'NONE', #251, #250 ) ;
#253 = DIRECTION ( 'NONE',  ( 0.0000000000000000000, 1.000000000000000000, 0.0000000000000000000 ) ) ;
#254 = VECTOR ( 'NONE', #253, 1000.000000000000000 ) ;
#255 = CARTESIAN_POINT ( 'NONE',  ( -5.009324450199175600E-010, 2.412507003500041800, -1.500000000000000400 ) ) ;
#256 = LINE ( 'NONE', #255, #254 ) ;
#257 = CARTESIAN_POINT ( 'NONE',  ( -5.009326287108706300E-010, -9.999999996500434900, 1.500000000000000700 ) ) ;
#258 = CARTESIAN_POINT ( 'NONE',  ( -5.009324450199175600E-010, -9.999999996500434900, -1.500000000000000900 ) ) ;
#259 = DIRECTION ( 'NONE',  ( 0.0000000000000000000, 0.0000000000000000000, 1.000000000000000000 ) ) ;
#260 = DIRECTION ( 'NONE',  ( 0.0000000000000000000, 1.000000000000000000, 0.0000000000000000000 ) ) ;
#261 = CARTESIAN_POINT ( 'NONE',  ( -5.009326287108706300E-010, -9.999999996500434900, 0.0000000000000000000 ) ) ;
#262 = AXIS2_PLACEMENT_3D ( 'NONE', #261, #260, #259 ) ;
#263 = CIRCLE ( 'NONE', #262, 1.500000000000000700 ) ;
#264 = CARTESIAN_POINT ( 'NONE',  ( -5.009326287108706300E-010, -9.999999996500434900, -7.500000000000000000 ) ) ;
#265 = CARTESIAN_POINT ( 'NONE',  ( -5.009317102561052600E-010, -9.999999996500434900, 7.500000000000000000 ) ) ;
#266 = DIRECTION ( 'NONE',  ( 2.970106674477749100E-017, -0.9701425001453319900, 0.2425356250363329100 ) ) ;
#267 = VECTOR ( 'NONE', #266, 999.9999999999998900 ) ;
#268 = FACE_OUTER_BOUND ( 'NONE', #57, .T. ) ;
#269 = CARTESIAN_POINT ( 'NONE',  ( -5.009326287108706300E-010, -0.9999999965004345800, 0.0000000000000000000 ) ) ;
#270 = TOROIDAL_SURFACE ( 'NONE', #154, 4.219223593595584600, 1.000000000000000400 ) ;
#271 = FACE_OUTER_BOUND ( 'NONE', #51, .T. ) ;
#272 = DIRECTION ( 'NONE',  ( 0.0000000000000000000, 0.0000000000000000000, 1.000000000000000000 ) ) ;
#273 = DIRECTION ( 'NONE',  ( 0.0000000000000000000, 1.000000000000000000, 0.0000000000000000000 ) ) ;
#274 = CARTESIAN_POINT ( 'NONE',  ( -5.009326287108706300E-010, -0.7574643714641070600, 0.0000000000000000000 ) ) ;
#275 = AXIS2_PLACEMENT_3D ( 'NONE', #274, #273, #272 ) ;
#276 = CIRCLE ( 'NONE', #275, 5.189366093740918700 ) ;
#277 = DIRECTION ( 'NONE',  ( 0.0000000000000000000, 0.0000000000000000000, 1.000000000000000000 ) ) ;
#278 = DIRECTION ( 'NONE',  ( 0.0000000000000000000, 1.000000000000000000, 0.0000000000000000000 ) ) ;
#279 = CARTESIAN_POINT ( 'NONE',  ( -5.009326287108706300E-010, 3.499565220943523500E-009, 0.0000000000000000000 ) ) ;
#280 = AXIS2_PLACEMENT_3D ( 'NONE', #279, #278, #277 ) ;
#281 = CIRCLE ( 'NONE', #280, 2.500000000000000400 ) ;
#282 = DIRECTION ( 'NONE',  ( 0.0000000000000000000, 0.0000000000000000000, 1.000000000000000000 ) ) ;
#283 = DIRECTION ( 'NONE',  ( 0.0000000000000000000, 1.000000000000000000, 0.0000000000000000000 ) ) ;
#284 = CARTESIAN_POINT ( 'NONE',  ( -5.009326287108706300E-010, 3.499565220943523500E-009, 0.0000000000000000000 ) ) ;
#285 = AXIS2_PLACEMENT_3D ( 'NONE', #284, #283, #282 ) ;
#286 = CIRCLE ( 'NONE', #285, 4.219223593595579300 ) ;
#287 = CARTESIAN_POINT ( 'NONE',  ( -5.009320526199350300E-010, 3.499565220943523500E-009, -4.219223593595579300 ) ) ;
#288 = DIRECTION ( 'NONE',  ( 0.0000000000000000000, 0.0000000000000000000, -1.000000000000000000 ) ) ;
#289 = DIRECTION ( 'NONE',  ( 0.0000000000000000000, -1.000000000000000000, 0.0000000000000000000 ) ) ;
#290 = CARTESIAN_POINT ( 'NONE',  ( 4.219223593094646700, 3.499565363224519800E-009, 0.0000000000000000000 ) ) ;
#291 = AXIS2_PLACEMENT_3D ( 'NONE', #290, #289, #288 ) ;
#292 = PLANE ( 'NONE',  #291 ) ;
#293 = CARTESIAN_POINT ( 'NONE',  ( -5.009324450199175600E-010, -2.999999996500434900, -1.500000000000000000 ) ) ;
#294 = DIRECTION ( 'NONE',  ( 0.0000000000000000000, 0.0000000000000000000, -1.000000000000000000 ) ) ;
#295 = DIRECTION ( 'NONE',  ( 0.0000000000000000000, -1.000000000000000000, 0.0000000000000000000 ) ) ;
#296 = CARTESIAN_POINT ( 'NONE',  ( -5.009326287108706300E-010, -9.999999996500434900, 0.0000000000000000000 ) ) ;
#297 = AXIS2_PLACEMENT_3D ( 'NONE', #296, #295, #294 ) ;
#298 = DIRECTION ( 'NONE',  ( 0.0000000000000000000, 0.0000000000000000000, 1.000000000000000000 ) ) ;
#299 = DIRECTION ( 'NONE',  ( 0.0000000000000000000, 1.000000000000000000, 0.0000000000000000000 ) ) ;
#300 = AXIS2_PLACEMENT_3D ( 'NONE', #302, #299, #298 ) ;
#301 = TOROIDAL_SURFACE ( 'NONE', #300, 4.219223593595584600, 1.000000000000000400 ) ;
#302 = CARTESIAN_POINT ( 'NONE',  ( -5.009326287108706300E-010, -0.9999999965004345800, 0.0000000000000000000 ) ) ;
#303 = FACE_OUTER_BOUND ( 'NONE', #41, .T. ) ;
#304 = DIRECTION ( 'NONE',  ( 0.0000000000000000000, 1.000000000000000000, 0.0000000000000000000 ) ) ;
#305 = VECTOR ( 'NONE', #304, 1000.000000000000000 ) ;
#306 = CARTESIAN_POINT ( 'NONE',  ( -5.009326287108706300E-010, 2.412507003500041800, 2.500000000000000400 ) ) ;
#307 = LINE ( 'NONE', #306, #305 ) ;
#308 = DIRECTION ( 'NONE',  ( 1.224606353612350900E-016, 0.0000000000000000000, -1.000000000000000000 ) ) ;
#309 = DIRECTION ( 'NONE',  ( 1.000000000000000000, 0.0000000000000000000, 1.224606353822377300E-016 ) ) ;
#310 = CARTESIAN_POINT ( 'NONE',  ( -5.009321120220684800E-010, -0.9999999965004345800, -4.219223593595584600 ) ) ;
#311 = AXIS2_PLACEMENT_3D ( 'NONE', #310, #309, #308 ) ;
#312 = CIRCLE ( 'NONE', #311, 1.000000000000000000 ) ;
#313 = CARTESIAN_POINT ( 'NONE',  ( -5.009323225592821800E-010, 3.499565220943523500E-009, -2.500000000000000400 ) ) ;
#314 = CARTESIAN_POINT ( 'NONE',  ( -5.009326287108706300E-010, -2.999999996500434900, 2.500000000000000400 ) ) ;
#315 = CARTESIAN_POINT ( 'NONE',  ( -5.009323225592821800E-010, -2.999999996500434900, -2.500000000000000400 ) ) ;
#316 = DIRECTION ( 'NONE',  ( 0.0000000000000000000, 0.0000000000000000000, 1.000000000000000000 ) ) ;
#317 = DIRECTION ( 'NONE',  ( 0.0000000000000000000, 1.000000000000000000, 0.0000000000000000000 ) ) ;
#318 = CARTESIAN_POINT ( 'NONE',  ( -5.009326287108706300E-010, 2.412507003500041800, 0.0000000000000000000 ) ) ;
#319 = AXIS2_PLACEMENT_3D ( 'NONE', #318, #317, #316 ) ;
#320 = CIRCLE ( 'NONE', #231, 1.500000000000000000 ) ;
#321 = CARTESIAN_POINT ( 'NONE',  ( -5.009326287108706300E-010, -2.999999996500434900, 0.0000000000000000000 ) ) ;
#322 = CYLINDRICAL_SURFACE ( 'NONE', #319, 1.500000000000000400 ) ;
#323 = FACE_OUTER_BOUND ( 'NONE', #106, .T. ) ;
#324 = DIRECTION ( 'NONE',  ( 0.0000000000000000000, 0.0000000000000000000, 1.000000000000000000 ) ) ;
#325 = DIRECTION ( 'NONE',  ( 0.0000000000000000000, 1.000000000000000000, 0.0000000000000000000 ) ) ;
#326 = CARTESIAN_POINT ( 'NONE',  ( 1.499999999499068000, -9.999999996500434900, 0.0000000000000000000 ) ) ;
#327 = AXIS2_PLACEMENT_3D ( 'NONE', #326, #325, #324 ) ;
#328 = PLANE ( 'NONE',  #327 ) ;
#329 = FACE_BOUND ( 'NONE', #81, .T. ) ;
#330 = FACE_OUTER_BOUND ( 'NONE', #97, .T. ) ;
#331 = SECURITY_CLASSIFICATION ( '', '', #332 ) ;
#332 = SECURITY_CLASSIFICATION_LEVEL ( 'unclassified' ) ;
#333 = CC_DESIGN_PERSON_AND_ORGANIZATION_ASSIGNMENT ( #371, #370, ( #352 ) ) ;
#334 = CALENDAR_DATE ( 2009, 29, 6 ) ;
#335 = LOCAL_TIME ( 11, 40, 4.000000000000000000, #336 ) ;
#336 = COORDINATED_UNIVERSAL_TIME_OFFSET ( 9, 0, .AHEAD. ) ;
#337 = DATE_AND_TIME ( #381, #338 ) ;
#338 = LOCAL_TIME ( 11, 40, 4.000000000000000000, #339 ) ;
#339 = COORDINATED_UNIVERSAL_TIME_OFFSET ( 9, 0, .AHEAD. ) ;
#340 = APPROVAL_PERSON_ORGANIZATION ( #344, #342, #341 ) ;
#341 = APPROVAL_ROLE ( '' ) ;
#342 = APPROVAL ( #343, 'UNSPECIFIED' ) ;
#343 = APPROVAL_STATUS ( 'not_yet_approved' ) ;
#344 = PERSON_AND_ORGANIZATION ( #159, #158 ) ;
#345 = CC_DESIGN_DATE_AND_TIME_ASSIGNMENT ( #347, #346, ( #331 ) ) ;
#346 = DATE_TIME_ROLE ( 'classification_date' ) ;
#347 = DATE_AND_TIME ( #364, #365 ) ;
#348 = APPROVAL_PERSON_ORGANIZATION ( #354, #350, #349 ) ;
#349 = APPROVAL_ROLE ( '' ) ;
#350 = APPROVAL ( #351, 'UNSPECIFIED' ) ;
#351 = APPROVAL_STATUS ( 'not_yet_approved' ) ;
#352 = PRODUCT_DEFINITION_FORMATION_WITH_SPECIFIED_SOURCE ( 'ANY', '', #160, .NOT_KNOWN. ) ;
#353 = DATE_TIME_ROLE ( 'creation_date' ) ;
#354 = PERSON_AND_ORGANIZATION ( #159, #158 ) ;
#355 = CC_DESIGN_DATE_AND_TIME_ASSIGNMENT ( #357, #353, ( #19 ) ) ;
#356 = CC_DESIGN_PERSON_AND_ORGANIZATION_ASSIGNMENT ( #88, #87, ( #19 ) ) ;
#357 = DATE_AND_TIME ( #358, #359 ) ;
#358 = CALENDAR_DATE ( 2009, 29, 6 ) ;
#359 = LOCAL_TIME ( 11, 40, 4.000000000000000000, #374 ) ;
#360 = PERSON_AND_ORGANIZATION ( #159, #158 ) ;
#361 = CC_DESIGN_APPROVAL ( #350, ( #352 ) ) ;
#362 = APPROVAL_DATE_TIME ( #363, #350 ) ;
#363 = DATE_AND_TIME ( #334, #335 ) ;
#364 = CALENDAR_DATE ( 2009, 29, 6 ) ;
#365 = LOCAL_TIME ( 11, 40, 4.000000000000000000, #366 ) ;
#366 = COORDINATED_UNIVERSAL_TIME_OFFSET ( 9, 0, .AHEAD. ) ;
#367 = CC_DESIGN_PERSON_AND_ORGANIZATION_ASSIGNMENT ( #369, #368, ( #331 ) ) ;
#368 = PERSON_AND_ORGANIZATION_ROLE ( 'classification_officer' ) ;
#369 = PERSON_AND_ORGANIZATION ( #159, #158 ) ;
#370 = PERSON_AND_ORGANIZATION_ROLE ( 'design_supplier' ) ;
#371 = PERSON_AND_ORGANIZATION ( #159, #158 ) ;
#372 = CC_DESIGN_PERSON_AND_ORGANIZATION_ASSIGNMENT ( #360, #373, ( #352 ) ) ;
#373 = PERSON_AND_ORGANIZATION_ROLE ( 'creator' ) ;
#374 = COORDINATED_UNIVERSAL_TIME_OFFSET ( 9, 0, .AHEAD. ) ;
#375 = SHAPE_DEFINITION_REPRESENTATION ( #376, #164 ) ;
#376 = PRODUCT_DEFINITION_SHAPE ( 'NONE', 'NONE',  #19 ) ;
#377 = PRODUCT_RELATED_PRODUCT_CATEGORY ( 'detail', '', ( #160 ) ) ;
#378 = CC_DESIGN_SECURITY_CLASSIFICATION ( #331, ( #352 ) ) ;
#379 = CC_DESIGN_APPROVAL ( #342, ( #331 ) ) ;
#380 = APPROVAL_DATE_TIME ( #337, #342 ) ;
#381 = CALENDAR_DATE ( 2009, 29, 6 ) ;
ENDSEC;
END-ISO-10303-21;
