ISO-10303-21;
HEADER;
FILE_DESCRIPTION (( 'STEP AP203' ),
    '1' );
FILE_NAME ('C-30-RK-15-gray.STEP',
    '2009-06-29T01:21:02',
    ( '11sw' ),
    ( '^LQ»¢®ïÐ' ),
    'SwSTEP 2.0',
    'SolidWorks 2007',
    '' );
FILE_SCHEMA (( 'CONFIG_CONTROL_DESIGN' ));
ENDSEC;

DATA;
#1 = CARTESIAN_POINT ( 'NONE',  ( 1.499999999499067800, -7.999999996500434900, 0.0000000000000000000 ) ) ;
#2 = DIRECTION ( 'NONE',  ( 0.0000000000000000000, 1.000000000000000000, 0.0000000000000000000 ) ) ;
#3 = DIRECTION ( 'NONE',  ( 0.0000000000000000000, 0.0000000000000000000, 1.000000000000000000 ) ) ;
#4 = LINE ( 'NONE', #5, #7 ) ;
#5 = CARTESIAN_POINT ( 'NONE',  ( -5.009322613289644800E-010, 2.412507003500041800, -3.000000000000000000 ) ) ;
#6 = APPLICATION_PROTOCOL_DEFINITION ( 'international standard', 'config_control_design', 1994, #9 ) ;
#7 = VECTOR ( 'NONE', #16, 1000.000000000000000 ) ;
#8 = PERSON_AND_ORGANIZATION_ROLE ( 'design_owner' ) ;
#9 = APPLICATION_CONTEXT ( 'configuration controlled 3d designs of mechanical parts and assemblies' ) ;
#10 = CC_DESIGN_PERSON_AND_ORGANIZATION_ASSIGNMENT ( #157, #8, ( #209 ) ) ;
#11 = APPROVAL_ROLE ( '' ) ;
#12 = PERSON_AND_ORGANIZATION ( #208, #47 ) ;
#13 = APPROVAL_STATUS ( 'not_yet_approved' ) ;
#14 = PRODUCT_DEFINITION ( 'UNKNOWN', '', #262, #40 ) ;
#15 = APPROVAL ( #13, 'UNSPECIFIED' ) ;
#16 = DIRECTION ( 'NONE',  ( 0.0000000000000000000, 1.000000000000000000, 0.0000000000000000000 ) ) ;
#17 = CYLINDRICAL_SURFACE ( 'NONE', #28, 3.000000000000000000 ) ;
#18 = DIRECTION ( 'NONE',  ( 0.0000000000000000000, 0.0000000000000000000, 1.000000000000000000 ) ) ;
#19 = FACE_OUTER_BOUND ( 'NONE', #302, .T. ) ;
#20 = PERSON_AND_ORGANIZATION_ROLE ( 'creator' ) ;
#21 = FACE_BOUND ( 'NONE', #298, .T. ) ;
#22 = DIRECTION ( 'NONE',  ( 0.0000000000000000000, 0.0000000000000000000, -1.000000000000000000 ) ) ;
#23 = DIRECTION ( 'NONE',  ( 0.0000000000000000000, -1.000000000000000000, 0.0000000000000000000 ) ) ;
#24 = CARTESIAN_POINT ( 'NONE',  ( 2.999999999499067400, -4.999999996500434900, 0.0000000000000000000 ) ) ;
#25 = AXIS2_PLACEMENT_3D ( 'NONE', #24, #23, #22 ) ;
#26 = PLANE ( 'NONE',  #25 ) ;
#27 = FACE_OUTER_BOUND ( 'NONE', #290, .T. ) ;
#28 = AXIS2_PLACEMENT_3D ( 'NONE', #36, #35, #18 ) ;
#29 = DIRECTION ( 'NONE',  ( 0.0000000000000000000, 0.0000000000000000000, 1.000000000000000000 ) ) ;
#30 = DIRECTION ( 'NONE',  ( 0.0000000000000000000, 1.000000000000000000, 0.0000000000000000000 ) ) ;
#31 = AXIS2_PLACEMENT_3D ( 'NONE', #33, #30, #29 ) ;
#32 = CIRCLE ( 'NONE', #31, 7.175804071345903700 ) ;
#33 = CARTESIAN_POINT ( 'NONE',  ( -5.009326287108706300E-010, -2.812865138034893700, 0.0000000000000000000 ) ) ;
#34 = FACE_BOUND ( 'NONE', #380, .T. ) ;
#35 = DIRECTION ( 'NONE',  ( 0.0000000000000000000, 1.000000000000000000, 0.0000000000000000000 ) ) ;
#36 = CARTESIAN_POINT ( 'NONE',  ( -5.009326287108706300E-010, 2.412507003500041800, 0.0000000000000000000 ) ) ;
#37 = FACE_OUTER_BOUND ( 'NONE', #334, .T. ) ;
#38 = AXIS2_PLACEMENT_3D ( 'NONE', #1, #2, #3 ) ;
#39 = PLANE ( 'NONE',  #38 ) ;
#40 = DESIGN_CONTEXT ( 'detailed design', #9, 'design' ) ;
#41 = FACE_OUTER_BOUND ( 'NONE', #292, .T. ) ;
#42 = DIRECTION ( 'NONE',  ( 0.0000000000000000000, -1.000000000000000000, 0.0000000000000000000 ) ) ;
#43 = CARTESIAN_POINT ( 'NONE',  ( -5.009326287108706300E-010, -7.999999996500434900, 0.0000000000000000000 ) ) ;
#44 = CONICAL_SURFACE ( 'NONE', #45, 7.500000000000000000, 0.06241880999595722500 ) ;
#45 = AXIS2_PLACEMENT_3D ( 'NONE', #43, #42, #48 ) ;
#46 = APPROVAL_PERSON_ORGANIZATION ( #12, #15, #11 ) ;
#47 = ORGANIZATION ( 'UNSPECIFIED', 'UNSPECIFIED', '' ) ;
#48 = DIRECTION ( 'NONE',  ( 0.0000000000000000000, 0.0000000000000000000, -1.000000000000000000 ) ) ;
#49 = CALENDAR_DATE ( 2009, 29, 6 ) ;
#50 = COORDINATED_UNIVERSAL_TIME_OFFSET ( 9, 0, .AHEAD. ) ;
#51 = CC_DESIGN_PERSON_AND_ORGANIZATION_ASSIGNMENT ( #168, #20, ( #14 ) ) ;
#52 = CC_DESIGN_APPROVAL ( #15, ( #14 ) ) ;
#53 = CC_DESIGN_DATE_AND_TIME_ASSIGNMENT ( #54, #56, ( #14 ) ) ;
#54 = DATE_AND_TIME ( #58, #180 ) ;
#55 = DATE_AND_TIME ( #49, #57 ) ;
#56 = DATE_TIME_ROLE ( 'creation_date' ) ;
#57 = LOCAL_TIME ( 10, 21, 2.000000000000000000, #50 ) ;
#58 = CALENDAR_DATE ( 2009, 29, 6 ) ;
#59 = APPROVAL_DATE_TIME ( #55, #15 ) ;
#60 = CARTESIAN_POINT ( 'NONE',  ( -5.009326287108706300E-010, 3.499565220943523500E-009, 0.0000000000000000000 ) ) ;
#61 = AXIS2_PLACEMENT_3D ( 'NONE', #60, #131, #130 ) ;
#62 = CIRCLE ( 'NONE', #61, 3.000000000000000000 ) ;
#63 = DIRECTION ( 'NONE',  ( 0.0000000000000000000, 1.000000000000000000, 0.0000000000000000000 ) ) ;
#64 = VECTOR ( 'NONE', #63, 1000.000000000000000 ) ;
#65 = CARTESIAN_POINT ( 'NONE',  ( -5.009326287108706300E-010, 2.412507003500041800, 3.000000000000000000 ) ) ;
#66 = CARTESIAN_POINT ( 'NONE',  ( -5.009326287108706300E-010, -4.999999996500434900, 0.0000000000000000000 ) ) ;
#67 = DIRECTION ( 'NONE',  ( 0.0000000000000000000, 0.0000000000000000000, 1.000000000000000000 ) ) ;
#68 = AXIS2_PLACEMENT_3D ( 'NONE', #137, #80, #67 ) ;
#69 = CIRCLE ( 'NONE', #68, 1.500000000000000200 ) ;
#70 = DIRECTION ( 'NONE',  ( 0.0000000000000000000, 0.0000000000000000000, 1.000000000000000000 ) ) ;
#71 = DIRECTION ( 'NONE',  ( 0.0000000000000000000, 1.000000000000000000, 0.0000000000000000000 ) ) ;
#72 = CARTESIAN_POINT ( 'NONE',  ( -5.009326287108706300E-010, -7.999999996500434900, 0.0000000000000000000 ) ) ;
#73 = AXIS2_PLACEMENT_3D ( 'NONE', #72, #71, #70 ) ;
#74 = CIRCLE ( 'NONE', #73, 1.500000000000000400 ) ;
#75 = LINE ( 'NONE', #65, #64 ) ;
#76 = DIRECTION ( 'NONE',  ( 7.638884556618435400E-018, -0.9980525784828885300, 0.06237828615518040100 ) ) ;
#77 = VECTOR ( 'NONE', #76, 1000.000000000000200 ) ;
#78 = CARTESIAN_POINT ( 'NONE',  ( -5.009317102561052600E-010, -7.999999996500434900, 7.500000000000000000 ) ) ;
#79 = LINE ( 'NONE', #78, #77 ) ;
#80 = DIRECTION ( 'NONE',  ( 0.0000000000000000000, 1.000000000000000000, 0.0000000000000000000 ) ) ;
#81 = TOROIDAL_SURFACE ( 'NONE', #136, 4.181646335897237800, 3.000000000000000000 ) ;
#82 = FACE_OUTER_BOUND ( 'NONE', #321, .T. ) ;
#83 = CARTESIAN_POINT ( 'NONE',  ( -5.009326287108706300E-010, 3.499565220943523500E-009, 3.000000000000000000 ) ) ;
#84 = DIRECTION ( 'NONE',  ( 0.0000000000000000000, 0.0000000000000000000, 1.000000000000000000 ) ) ;
#85 = DIRECTION ( 'NONE',  ( 0.0000000000000000000, 1.000000000000000000, 0.0000000000000000000 ) ) ;
#86 = AXIS2_PLACEMENT_3D ( 'NONE', #100, #85, #84 ) ;
#87 = CIRCLE ( 'NONE', #86, 7.500000000000000000 ) ;
#88 = CARTESIAN_POINT ( 'NONE',  ( -5.009326287108706300E-010, 3.499565220943523500E-009, 4.181646335897237800 ) ) ;
#89 = DIRECTION ( 'NONE',  ( 0.0000000000000000000, 0.0000000000000000000, 1.000000000000000000 ) ) ;
#90 = DIRECTION ( 'NONE',  ( 0.0000000000000000000, 1.000000000000000000, 0.0000000000000000000 ) ) ;
#91 = CARTESIAN_POINT ( 'NONE',  ( -5.009326287108706300E-010, 3.499565220943523500E-009, 0.0000000000000000000 ) ) ;
#92 = AXIS2_PLACEMENT_3D ( 'NONE', #91, #90, #89 ) ;
#93 = CIRCLE ( 'NONE', #92, 4.181646335897237800 ) ;
#94 = DIRECTION ( 'NONE',  ( 0.0000000000000000000, 0.0000000000000000000, -1.000000000000000000 ) ) ;
#95 = CARTESIAN_POINT ( 'NONE',  ( -5.009326287108706300E-010, 2.412507003500041800, 0.0000000000000000000 ) ) ;
#96 = AXIS2_PLACEMENT_3D ( 'NONE', #95, #132, #144 ) ;
#97 = DIRECTION ( 'NONE',  ( 0.0000000000000000000, 0.0000000000000000000, 1.000000000000000000 ) ) ;
#98 = AXIS2_PLACEMENT_3D ( 'NONE', #66, #138, #97 ) ;
#99 = CIRCLE ( 'NONE', #98, 3.000000000000000000 ) ;
#100 = CARTESIAN_POINT ( 'NONE',  ( -5.009326287108706300E-010, -7.999999996500434900, 0.0000000000000000000 ) ) ;
#101 = DIRECTION ( 'NONE',  ( 0.0000000000000000000, -0.9980525784828885300, -0.06237828615518040100 ) ) ;
#102 = VECTOR ( 'NONE', #101, 1000.000000000000200 ) ;
#103 = CARTESIAN_POINT ( 'NONE',  ( -5.009326287108706300E-010, -7.999999996500434900, -7.500000000000000000 ) ) ;
#104 = LINE ( 'NONE', #103, #102 ) ;
#105 = CARTESIAN_POINT ( 'NONE',  ( -5.009326287108706300E-010, -7.999999996500434900, -7.500000000000000000 ) ) ;
#106 = CARTESIAN_POINT ( 'NONE',  ( -5.009319332905740700E-010, 3.499565220943523500E-009, -4.181646335897237800 ) ) ;
#107 = DIRECTION ( 'NONE',  ( 1.224606353948931500E-016, 0.0000000000000000000, -1.000000000000000000 ) ) ;
#108 = DIRECTION ( 'NONE',  ( 1.000000000000000000, 0.0000000000000000000, 1.224606353822377300E-016 ) ) ;
#109 = AXIS2_PLACEMENT_3D ( 'NONE', #116, #108, #107 ) ;
#110 = CIRCLE ( 'NONE', #109, 3.000000000000000000 ) ;
#111 = DIRECTION ( 'NONE',  ( 0.0000000000000000000, 0.0000000000000000000, 1.000000000000000000 ) ) ;
#112 = DIRECTION ( 'NONE',  ( 0.0000000000000000000, 1.000000000000000000, 0.0000000000000000000 ) ) ;
#113 = CARTESIAN_POINT ( 'NONE',  ( -5.009326287108706300E-010, 3.499565220943523500E-009, 0.0000000000000000000 ) ) ;
#114 = AXIS2_PLACEMENT_3D ( 'NONE', #113, #112, #111 ) ;
#115 = CIRCLE ( 'NONE', #114, 4.181646335897237800 ) ;
#116 = CARTESIAN_POINT ( 'NONE',  ( -5.009321166238033700E-010, -2.999999996500434900, -4.181646335897237800 ) ) ;
#117 = DIRECTION ( 'NONE',  ( 0.0000000000000000000, 0.0000000000000000000, 1.000000000000000000 ) ) ;
#118 = CYLINDRICAL_SURFACE ( 'NONE', #96, 1.500000000000000400 ) ;
#119 = DIRECTION ( 'NONE',  ( 0.0000000000000000000, -1.000000000000000000, 0.0000000000000000000 ) ) ;
#120 = CARTESIAN_POINT ( 'NONE',  ( 4.181646335396305100, 3.499565220943523500E-009, 0.0000000000000000000 ) ) ;
#121 = AXIS2_PLACEMENT_3D ( 'NONE', #120, #119, #94 ) ;
#122 = PLANE ( 'NONE',  #121 ) ;
#123 = FACE_OUTER_BOUND ( 'NONE', #283, .T. ) ;
#124 = FACE_BOUND ( 'NONE', #329, .T. ) ;
#125 = DIRECTION ( 'NONE',  ( 0.0000000000000000000, 0.0000000000000000000, 1.000000000000000000 ) ) ;
#126 = DIRECTION ( 'NONE',  ( 0.0000000000000000000, 1.000000000000000000, 0.0000000000000000000 ) ) ;
#127 = CARTESIAN_POINT ( 'NONE',  ( -5.009326287108706300E-010, 3.499565220943523500E-009, 0.0000000000000000000 ) ) ;
#128 = AXIS2_PLACEMENT_3D ( 'NONE', #127, #126, #125 ) ;
#129 = CIRCLE ( 'NONE', #128, 3.000000000000000000 ) ;
#130 = DIRECTION ( 'NONE',  ( 0.0000000000000000000, 0.0000000000000000000, 1.000000000000000000 ) ) ;
#131 = DIRECTION ( 'NONE',  ( 0.0000000000000000000, 1.000000000000000000, 0.0000000000000000000 ) ) ;
#132 = DIRECTION ( 'NONE',  ( 0.0000000000000000000, 1.000000000000000000, 0.0000000000000000000 ) ) ;
#133 = DIRECTION ( 'NONE',  ( 0.0000000000000000000, 0.0000000000000000000, 1.000000000000000000 ) ) ;
#134 = DIRECTION ( 'NONE',  ( 0.0000000000000000000, 1.000000000000000000, 0.0000000000000000000 ) ) ;
#135 = CARTESIAN_POINT ( 'NONE',  ( -5.009326287108706300E-010, -2.999999996500434900, 0.0000000000000000000 ) ) ;
#136 = AXIS2_PLACEMENT_3D ( 'NONE', #135, #134, #133 ) ;
#137 = CARTESIAN_POINT ( 'NONE',  ( -5.009326287108706300E-010, -4.999999996500434900, 0.0000000000000000000 ) ) ;
#138 = DIRECTION ( 'NONE',  ( 0.0000000000000000000, 1.000000000000000000, 0.0000000000000000000 ) ) ;
#139 = AXIS2_PLACEMENT_3D ( 'NONE', #142, #141, #117 ) ;
#140 = FACE_OUTER_BOUND ( 'NONE', #306, .T. ) ;
#141 = DIRECTION ( 'NONE',  ( 0.0000000000000000000, 1.000000000000000000, 0.0000000000000000000 ) ) ;
#142 = CARTESIAN_POINT ( 'NONE',  ( -5.009326287108706300E-010, -7.999999996500434900, 0.0000000000000000000 ) ) ;
#143 = CIRCLE ( 'NONE', #139, 7.500000000000000000 ) ;
#144 = DIRECTION ( 'NONE',  ( 0.0000000000000000000, 0.0000000000000000000, 1.000000000000000000 ) ) ;
#145 = CARTESIAN_POINT ( 'NONE',  ( -5.009326287108706300E-010, -7.999999996500434900, 0.0000000000000000000 ) ) ;
#146 = DIRECTION ( 'NONE',  ( 0.0000000000000000000, 1.000000000000000000, 0.0000000000000000000 ) ) ;
#147 = CARTESIAN_POINT ( 'NONE',  ( -5.009326287108706300E-010, 2.412507003500041800, 0.0000000000000000000 ) ) ;
#148 = CYLINDRICAL_SURFACE ( 'NONE', #151, 1.500000000000000400 ) ;
#149 = DIRECTION ( 'NONE',  ( 0.0000000000000000000, 0.0000000000000000000, 1.000000000000000000 ) ) ;
#150 = CIRCLE ( 'NONE', #162, 1.500000000000000400 ) ;
#151 = AXIS2_PLACEMENT_3D ( 'NONE', #147, #146, #149 ) ;
#152 = FACE_OUTER_BOUND ( 'NONE', #348, .T. ) ;
#153 = DIRECTION ( 'NONE',  ( 0.0000000000000000000, 1.000000000000000000, 0.0000000000000000000 ) ) ;
#154 = VECTOR ( 'NONE', #153, 1000.000000000000000 ) ;
#155 = CARTESIAN_POINT ( 'NONE',  ( -5.009324450199175600E-010, 2.412507003500041800, -1.500000000000000400 ) ) ;
#156 = LINE ( 'NONE', #155, #154 ) ;
#157 = PERSON_AND_ORGANIZATION ( #208, #47 ) ;
#158 = CARTESIAN_POINT ( 'NONE',  ( -5.009326287108706300E-010, -7.999999996500434900, 1.500000000000000400 ) ) ;
#159 = CARTESIAN_POINT ( 'NONE',  ( -5.009324450199175600E-010, -7.999999996500434900, -1.500000000000000400 ) ) ;
#160 = DIRECTION ( 'NONE',  ( 0.0000000000000000000, 0.0000000000000000000, 1.000000000000000000 ) ) ;
#161 = DIRECTION ( 'NONE',  ( 0.0000000000000000000, 1.000000000000000000, 0.0000000000000000000 ) ) ;
#162 = AXIS2_PLACEMENT_3D ( 'NONE', #145, #161, #160 ) ;
#163 = CARTESIAN_POINT ( 'NONE',  ( -5.009324450199175600E-010, -4.999999996500434900, -1.500000000000000200 ) ) ;
#164 = DIRECTION ( 'NONE',  ( 0.0000000000000000000, 1.000000000000000000, 0.0000000000000000000 ) ) ;
#165 = VECTOR ( 'NONE', #164, 1000.000000000000000 ) ;
#166 = CARTESIAN_POINT ( 'NONE',  ( -5.009326287108706300E-010, 2.412507003500041800, 1.500000000000000400 ) ) ;
#167 = LINE ( 'NONE', #166, #165 ) ;
#168 = PERSON_AND_ORGANIZATION ( #208, #47 ) ;
#169 = CIRCLE ( 'NONE', #174, 1.500000000000000200 ) ;
#170 = CARTESIAN_POINT ( 'NONE',  ( -5.009326287108706300E-010, -4.999999996500434900, 1.500000000000000200 ) ) ;
#171 = DIRECTION ( 'NONE',  ( 0.0000000000000000000, 0.0000000000000000000, 1.000000000000000000 ) ) ;
#172 = DIRECTION ( 'NONE',  ( 0.0000000000000000000, 1.000000000000000000, 0.0000000000000000000 ) ) ;
#173 = CARTESIAN_POINT ( 'NONE',  ( -5.009326287108706300E-010, -4.999999996500434900, 0.0000000000000000000 ) ) ;
#174 = AXIS2_PLACEMENT_3D ( 'NONE', #173, #172, #171 ) ;
#175 = CYLINDRICAL_SURFACE ( 'NONE', #179, 3.000000000000000000 ) ;
#176 = DIRECTION ( 'NONE',  ( 0.0000000000000000000, 0.0000000000000000000, 1.000000000000000000 ) ) ;
#177 = DIRECTION ( 'NONE',  ( 0.0000000000000000000, 1.000000000000000000, 0.0000000000000000000 ) ) ;
#178 = CARTESIAN_POINT ( 'NONE',  ( -5.009326287108706300E-010, 2.412507003500041800, 0.0000000000000000000 ) ) ;
#179 = AXIS2_PLACEMENT_3D ( 'NONE', #178, #177, #176 ) ;
#180 = LOCAL_TIME ( 10, 21, 2.000000000000000000, #181 ) ;
#181 = COORDINATED_UNIVERSAL_TIME_OFFSET ( 9, 0, .AHEAD. ) ;
#182 = FACE_OUTER_BOUND ( 'NONE', #362, .T. ) ;
#183 = CARTESIAN_POINT ( 'NONE',  ( -5.009326287108706300E-010, -4.999999996500434900, 0.0000000000000000000 ) ) ;
#184 = CIRCLE ( 'NONE', #185, 3.000000000000000000 ) ;
#185 = AXIS2_PLACEMENT_3D ( 'NONE', #183, #186, #189 ) ;
#186 = DIRECTION ( 'NONE',  ( 0.0000000000000000000, 1.000000000000000000, 0.0000000000000000000 ) ) ;
#187 = CARTESIAN_POINT ( 'NONE',  ( -5.009326287108706300E-010, -4.999999996500434900, 3.000000000000000000 ) ) ;
#188 = CARTESIAN_POINT ( 'NONE',  ( -5.009322613289644800E-010, -4.999999996500434900, -3.000000000000000000 ) ) ;
#189 = DIRECTION ( 'NONE',  ( 0.0000000000000000000, 0.0000000000000000000, 1.000000000000000000 ) ) ;
#190 = ADVANCED_BREP_SHAPE_REPRESENTATION ( 'C-30-RK-15-gray', ( #370, #215 ), #191 ) ;
#191 =( GEOMETRIC_REPRESENTATION_CONTEXT ( 3 ) GLOBAL_UNCERTAINTY_ASSIGNED_CONTEXT ( ( #192 ) ) GLOBAL_UNIT_ASSIGNED_CONTEXT ( ( #195, #194, #193 ) ) REPRESENTATION_CONTEXT ( 'NONE', 'WORKASPACE' ) );
#192 = UNCERTAINTY_MEASURE_WITH_UNIT (LENGTH_MEASURE( 1.000000000000000100E-005 ), #195, 'distance_accuracy_value', 'NONE');
#193 =( NAMED_UNIT ( * ) SI_UNIT ( $, .STERADIAN. ) SOLID_ANGLE_UNIT ( ) );
#194 =( NAMED_UNIT ( * ) PLANE_ANGLE_UNIT ( ) SI_UNIT ( $, .RADIAN. ) );
#195 =( LENGTH_UNIT ( ) NAMED_UNIT ( * ) SI_UNIT ( .MILLI., .METRE. ) );
#196 = DIRECTION ( 'NONE',  ( 0.0000000000000000000, 0.0000000000000000000, 1.000000000000000000 ) ) ;
#197 = DIRECTION ( 'NONE',  ( -1.000000000000000000, 0.0000000000000000000, 0.0000000000000000000 ) ) ;
#198 = DIRECTION ( 'NONE',  ( 0.0000000000000000000, 0.0000000000000000000, 1.000000000000000000 ) ) ;
#199 = DIRECTION ( 'NONE',  ( 0.0000000000000000000, 1.000000000000000000, 0.0000000000000000000 ) ) ;
#200 = CARTESIAN_POINT ( 'NONE',  ( -5.009326287108706300E-010, -2.812865138034893700, 0.0000000000000000000 ) ) ;
#201 = AXIS2_PLACEMENT_3D ( 'NONE', #200, #199, #198 ) ;
#202 = CIRCLE ( 'NONE', #201, 7.175804071345903700 ) ;
#203 = CARTESIAN_POINT ( 'NONE',  ( -5.009326287108706300E-010, -2.812865138034893700, 7.175804071345903700 ) ) ;
#204 = CARTESIAN_POINT ( 'NONE',  ( -5.009326287108706300E-010, -7.999999996500434900, 0.0000000000000000000 ) ) ;
#205 = CARTESIAN_POINT ( 'NONE',  ( -5.009322613289644800E-010, 3.499565220943523500E-009, -3.000000000000000000 ) ) ;
#206 = DIRECTION ( 'NONE',  ( 0.0000000000000000000, 0.0000000000000000000, -1.000000000000000000 ) ) ;
#207 = DIRECTION ( 'NONE',  ( 0.0000000000000000000, -1.000000000000000000, 0.0000000000000000000 ) ) ;
#208 = PERSON ( 'UNSPECIFIED', 'UNSPECIFIED', 'UNSPECIFIED', ('UNSPECIFIED'), ('UNSPECIFIED'), ('UNSPECIFIED') ) ;
#209 = PRODUCT ( 'C-30-RK-15-gray', 'C-30-RK-15-gray', '', ( #210 ) ) ;
#210 = MECHANICAL_CONTEXT ( 'NONE', #212, 'mechanical' ) ;
#211 = APPLICATION_PROTOCOL_DEFINITION ( 'international standard', 'config_control_design', 1994, #212 ) ;
#212 = APPLICATION_CONTEXT ( 'configuration controlled 3d designs of mechanical parts and assemblies' ) ;
#213 = DIRECTION ( 'NONE',  ( 1.000000000000000000, 0.0000000000000000000, 0.0000000000000000000 ) ) ;
#214 = DIRECTION ( 'NONE',  ( 0.0000000000000000000, 0.0000000000000000000, 1.000000000000000000 ) ) ;
#215 = AXIS2_PLACEMENT_3D ( 'NONE', #227, #214, #213 ) ;
#216 = AXIS2_PLACEMENT_3D ( 'NONE', #204, #207, #206 ) ;
#217 = FACE_OUTER_BOUND ( 'NONE', #372, .T. ) ;
#218 = CARTESIAN_POINT ( 'NONE',  ( -5.009326287108706300E-010, -2.999999996500434900, 0.0000000000000000000 ) ) ;
#219 = DIRECTION ( 'NONE',  ( 0.0000000000000000000, 1.000000000000000000, 0.0000000000000000000 ) ) ;
#220 = FACE_OUTER_BOUND ( 'NONE', #336, .T. ) ;
#221 = CARTESIAN_POINT ( 'NONE',  ( -5.009317102561052600E-010, -7.999999996500434900, 7.500000000000000000 ) ) ;
#222 = CARTESIAN_POINT ( 'NONE',  ( -5.009317499573446600E-010, -2.812865138034893700, -7.175804071345903700 ) ) ;
#223 = CONICAL_SURFACE ( 'NONE', #216, 7.500000000000000000, 0.06241880999595722500 ) ;
#224 = CARTESIAN_POINT ( 'NONE',  ( -5.009326287108706300E-010, -2.999999996500434900, 4.181646335897237800 ) ) ;
#225 = AXIS2_PLACEMENT_3D ( 'NONE', #224, #197, #196 ) ;
#226 = CIRCLE ( 'NONE', #225, 3.000000000000000000 ) ;
#227 = CARTESIAN_POINT ( 'NONE',  ( 0.0000000000000000000, 0.0000000000000000000, 0.0000000000000000000 ) ) ;
#228 = DIRECTION ( 'NONE',  ( 0.0000000000000000000, 0.0000000000000000000, 1.000000000000000000 ) ) ;
#229 = AXIS2_PLACEMENT_3D ( 'NONE', #218, #219, #228 ) ;
#230 = TOROIDAL_SURFACE ( 'NONE', #229, 4.181646335897237800, 3.000000000000000000 ) ;
#231 = COORDINATED_UNIVERSAL_TIME_OFFSET ( 9, 0, .AHEAD. ) ;
#232 = APPROVAL_ROLE ( '' ) ;
#233 = APPROVAL ( #234, 'UNSPECIFIED' ) ;
#234 = APPROVAL_STATUS ( 'not_yet_approved' ) ;
#235 = PERSON_AND_ORGANIZATION ( #208, #47 ) ;
#236 = DATE_AND_TIME ( #238, #237 ) ;
#237 = LOCAL_TIME ( 10, 21, 2.000000000000000000, #231 ) ;
#238 = CALENDAR_DATE ( 2009, 29, 6 ) ;
#239 = APPROVAL_DATE_TIME ( #236, #263 ) ;
#240 = APPROVAL_STATUS ( 'not_yet_approved' ) ;
#241 = PRODUCT_RELATED_PRODUCT_CATEGORY ( 'detail', '', ( #209 ) ) ;
#242 = CC_DESIGN_SECURITY_CLASSIFICATION ( #253, ( #262 ) ) ;
#243 = CC_DESIGN_PERSON_AND_ORGANIZATION_ASSIGNMENT ( #256, #255, ( #262 ) ) ;
#244 = CALENDAR_DATE ( 2009, 29, 6 ) ;
#245 = LOCAL_TIME ( 10, 21, 2.000000000000000000, #246 ) ;
#246 = COORDINATED_UNIVERSAL_TIME_OFFSET ( 9, 0, .AHEAD. ) ;
#247 = APPROVAL_PERSON_ORGANIZATION ( #264, #263, #266 ) ;
#248 = CC_DESIGN_DATE_AND_TIME_ASSIGNMENT ( #250, #249, ( #253 ) ) ;
#249 = DATE_TIME_ROLE ( 'classification_date' ) ;
#250 = DATE_AND_TIME ( #244, #245 ) ;
#251 = CC_DESIGN_APPROVAL ( #263, ( #262 ) ) ;
#252 = PERSON_AND_ORGANIZATION ( #208, #47 ) ;
#253 = SECURITY_CLASSIFICATION ( '', '', #254 ) ;
#254 = SECURITY_CLASSIFICATION_LEVEL ( 'unclassified' ) ;
#255 = PERSON_AND_ORGANIZATION_ROLE ( 'design_supplier' ) ;
#256 = PERSON_AND_ORGANIZATION ( #208, #47 ) ;
#257 = CC_DESIGN_PERSON_AND_ORGANIZATION_ASSIGNMENT ( #252, #258, ( #253 ) ) ;
#258 = PERSON_AND_ORGANIZATION_ROLE ( 'classification_officer' ) ;
#259 = CC_DESIGN_APPROVAL ( #233, ( #253 ) ) ;
#260 = APPROVAL_DATE_TIME ( #271, #233 ) ;
#261 = CALENDAR_DATE ( 2009, 29, 6 ) ;
#262 = PRODUCT_DEFINITION_FORMATION_WITH_SPECIFIED_SOURCE ( 'ANY', '', #209, .NOT_KNOWN. ) ;
#263 = APPROVAL ( #240, 'UNSPECIFIED' ) ;
#264 = PERSON_AND_ORGANIZATION ( #208, #47 ) ;
#265 = CC_DESIGN_PERSON_AND_ORGANIZATION_ASSIGNMENT ( #270, #269, ( #262 ) ) ;
#266 = APPROVAL_ROLE ( '' ) ;
#267 = SHAPE_DEFINITION_REPRESENTATION ( #268, #190 ) ;
#268 = PRODUCT_DEFINITION_SHAPE ( 'NONE', 'NONE',  #14 ) ;
#269 = PERSON_AND_ORGANIZATION_ROLE ( 'creator' ) ;
#270 = PERSON_AND_ORGANIZATION ( #208, #47 ) ;
#271 = DATE_AND_TIME ( #261, #272 ) ;
#272 = LOCAL_TIME ( 10, 21, 2.000000000000000000, #273 ) ;
#273 = COORDINATED_UNIVERSAL_TIME_OFFSET ( 9, 0, .AHEAD. ) ;
#274 = APPROVAL_PERSON_ORGANIZATION ( #235, #233, #232 ) ;
#275 = ADVANCED_FACE ( 'NONE', ( #37 ), #17, .F. ) ;
#276 = ORIENTED_EDGE ( 'NONE', *, *, #333, .T. ) ;
#277 = ORIENTED_EDGE ( 'NONE', *, *, #278, .T. ) ;
#278 = EDGE_CURVE ( 'NONE', #376, #375, #32, .T. ) ;
#279 = ORIENTED_EDGE ( 'NONE', *, *, #328, .T. ) ;
#280 = ADVANCED_FACE ( 'NONE', ( #34, #19 ), #26, .F. ) ;
#281 = ORIENTED_EDGE ( 'NONE', *, *, #368, .F. ) ;
#282 = ORIENTED_EDGE ( 'NONE', *, *, #341, .F. ) ;
#283 = EDGE_LOOP ( 'NONE', ( #284, #276 ) ) ;
#284 = ORIENTED_EDGE ( 'NONE', *, *, #340, .T. ) ;
#285 = ORIENTED_EDGE ( 'NONE', *, *, #278, .F. ) ;
#286 = ORIENTED_EDGE ( 'NONE', *, *, #346, .T. ) ;
#287 = CLOSED_SHELL ( 'NONE', ( #371, #347, #361, #319, #379, #330, #275, #280, #305, #293, #295 ) ) ;
#288 = ORIENTED_EDGE ( 'NONE', *, *, #299, .T. ) ;
#289 = ORIENTED_EDGE ( 'NONE', *, *, #320, .F. ) ;
#290 = EDGE_LOOP ( 'NONE', ( #294, #297 ) ) ;
#291 = ORIENTED_EDGE ( 'NONE', *, *, #350, .T. ) ;
#292 = EDGE_LOOP ( 'NONE', ( #289, #285, #286, #288 ) ) ;
#293 = ADVANCED_FACE ( 'NONE', ( #27, #21 ), #39, .F. ) ;
#294 = ORIENTED_EDGE ( 'NONE', *, *, #299, .F. ) ;
#295 = ADVANCED_FACE ( 'NONE', ( #41 ), #44, .T. ) ;
#296 = ORIENTED_EDGE ( 'NONE', *, *, #309, .T. ) ;
#297 = ORIENTED_EDGE ( 'NONE', *, *, #316, .F. ) ;
#298 = EDGE_LOOP ( 'NONE', ( #296, #291 ) ) ;
#299 = EDGE_CURVE ( 'NONE', #344, #378, #143, .T. ) ;
#300 = ORIENTED_EDGE ( 'NONE', *, *, #360, .T. ) ;
#301 = ORIENTED_EDGE ( 'NONE', *, *, #358, .F. ) ;
#302 = EDGE_LOOP ( 'NONE', ( #303, #304 ) ) ;
#303 = ORIENTED_EDGE ( 'NONE', *, *, #313, .T. ) ;
#304 = ORIENTED_EDGE ( 'NONE', *, *, #364, .T. ) ;
#305 = ADVANCED_FACE ( 'NONE', ( #140 ), #118, .F. ) ;
#306 = EDGE_LOOP ( 'NONE', ( #307, #308, #300, #343 ) ) ;
#307 = ORIENTED_EDGE ( 'NONE', *, *, #354, .F. ) ;
#308 = ORIENTED_EDGE ( 'NONE', *, *, #309, .F. ) ;
#309 = EDGE_CURVE ( 'NONE', #352, #351, #74, .T. ) ;
#310 = EDGE_CURVE ( 'NONE', #356, #355, #69, .T. ) ;
#311 = ORIENTED_EDGE ( 'NONE', *, *, #310, .F. ) ;
#312 = ORIENTED_EDGE ( 'NONE', *, *, #313, .F. ) ;
#313 = EDGE_CURVE ( 'NONE', #366, #365, #99, .T. ) ;
#314 = ORIENTED_EDGE ( 'NONE', *, *, #322, .T. ) ;
#315 = ORIENTED_EDGE ( 'NONE', *, *, #316, .T. ) ;
#316 = EDGE_CURVE ( 'NONE', #378, #344, #87, .T. ) ;
#317 = ORIENTED_EDGE ( 'NONE', *, *, #326, .T. ) ;
#318 = VERTEX_POINT ( 'NONE', #83 ) ;
#319 = ADVANCED_FACE ( 'NONE', ( #82 ), #81, .T. ) ;
#320 = EDGE_CURVE ( 'NONE', #375, #378, #79, .T. ) ;
#321 = EDGE_LOOP ( 'NONE', ( #324, #335, #339, #338 ) ) ;
#322 = EDGE_CURVE ( 'NONE', #366, #318, #75, .T. ) ;
#323 = ORIENTED_EDGE ( 'NONE', *, *, #322, .F. ) ;
#324 = ORIENTED_EDGE ( 'NONE', *, *, #374, .T. ) ;
#325 = ORIENTED_EDGE ( 'NONE', *, *, #326, .F. ) ;
#326 = EDGE_CURVE ( 'NONE', #369, #318, #62, .T. ) ;
#327 = ORIENTED_EDGE ( 'NONE', *, *, #328, .F. ) ;
#328 = EDGE_CURVE ( 'NONE', #318, #369, #129, .T. ) ;
#329 = EDGE_LOOP ( 'NONE', ( #327, #325 ) ) ;
#330 = ADVANCED_FACE ( 'NONE', ( #124, #123 ), #122, .F. ) ;
#331 = ORIENTED_EDGE ( 'NONE', *, *, #333, .F. ) ;
#332 = ORIENTED_EDGE ( 'NONE', *, *, #381, .T. ) ;
#333 = EDGE_CURVE ( 'NONE', #342, #337, #93, .T. ) ;
#334 = EDGE_LOOP ( 'NONE', ( #281, #312, #314, #279 ) ) ;
#335 = ORIENTED_EDGE ( 'NONE', *, *, #341, .T. ) ;
#336 = EDGE_LOOP ( 'NONE', ( #282, #277, #332, #331 ) ) ;
#337 = VERTEX_POINT ( 'NONE', #88 ) ;
#338 = ORIENTED_EDGE ( 'NONE', *, *, #381, .F. ) ;
#339 = ORIENTED_EDGE ( 'NONE', *, *, #340, .F. ) ;
#340 = EDGE_CURVE ( 'NONE', #337, #342, #115, .T. ) ;
#341 = EDGE_CURVE ( 'NONE', #376, #342, #110, .T. ) ;
#342 = VERTEX_POINT ( 'NONE', #106 ) ;
#343 = ORIENTED_EDGE ( 'NONE', *, *, #310, .T. ) ;
#344 = VERTEX_POINT ( 'NONE', #105 ) ;
#345 = ORIENTED_EDGE ( 'NONE', *, *, #346, .F. ) ;
#346 = EDGE_CURVE ( 'NONE', #376, #344, #104, .T. ) ;
#347 = ADVANCED_FACE ( 'NONE', ( #152 ), #148, .F. ) ;
#348 = EDGE_LOOP ( 'NONE', ( #349, #353, #357, #359 ) ) ;
#349 = ORIENTED_EDGE ( 'NONE', *, *, #350, .F. ) ;
#350 = EDGE_CURVE ( 'NONE', #351, #352, #150, .T. ) ;
#351 = VERTEX_POINT ( 'NONE', #159 ) ;
#352 = VERTEX_POINT ( 'NONE', #158 ) ;
#353 = ORIENTED_EDGE ( 'NONE', *, *, #354, .T. ) ;
#354 = EDGE_CURVE ( 'NONE', #351, #355, #156, .T. ) ;
#355 = VERTEX_POINT ( 'NONE', #163 ) ;
#356 = VERTEX_POINT ( 'NONE', #170 ) ;
#357 = ORIENTED_EDGE ( 'NONE', *, *, #358, .T. ) ;
#358 = EDGE_CURVE ( 'NONE', #355, #356, #169, .T. ) ;
#359 = ORIENTED_EDGE ( 'NONE', *, *, #360, .F. ) ;
#360 = EDGE_CURVE ( 'NONE', #352, #356, #167, .T. ) ;
#361 = ADVANCED_FACE ( 'NONE', ( #182 ), #175, .F. ) ;
#362 = EDGE_LOOP ( 'NONE', ( #363, #367, #317, #323 ) ) ;
#363 = ORIENTED_EDGE ( 'NONE', *, *, #364, .F. ) ;
#364 = EDGE_CURVE ( 'NONE', #365, #366, #184, .T. ) ;
#365 = VERTEX_POINT ( 'NONE', #188 ) ;
#366 = VERTEX_POINT ( 'NONE', #187 ) ;
#367 = ORIENTED_EDGE ( 'NONE', *, *, #368, .T. ) ;
#368 = EDGE_CURVE ( 'NONE', #365, #369, #4, .T. ) ;
#369 = VERTEX_POINT ( 'NONE', #205 ) ;
#370 = MANIFOLD_SOLID_BREP ( 'NONE', #287 ) ;
#371 = ADVANCED_FACE ( 'NONE', ( #217 ), #223, .T. ) ;
#372 = EDGE_LOOP ( 'NONE', ( #373, #377, #315, #345 ) ) ;
#373 = ORIENTED_EDGE ( 'NONE', *, *, #374, .F. ) ;
#374 = EDGE_CURVE ( 'NONE', #375, #376, #202, .T. ) ;
#375 = VERTEX_POINT ( 'NONE', #203 ) ;
#376 = VERTEX_POINT ( 'NONE', #222 ) ;
#377 = ORIENTED_EDGE ( 'NONE', *, *, #320, .T. ) ;
#378 = VERTEX_POINT ( 'NONE', #221 ) ;
#379 = ADVANCED_FACE ( 'NONE', ( #220 ), #230, .T. ) ;
#380 = EDGE_LOOP ( 'NONE', ( #311, #301 ) ) ;
#381 = EDGE_CURVE ( 'NONE', #375, #337, #226, .T. ) ;
ENDSEC;
END-ISO-10303-21;
