ISO-10303-21;
HEADER;
FILE_DESCRIPTION (( 'STEP AP203' ),
    '1' );
FILE_NAME ('C-30-RK-12-ÃÞÌ«ÙÄ.STEP',
    '2009-06-29T01:19:06',
    ( '11sw' ),
    ( '^LQ»¢®ïÐ' ),
    'SwSTEP 2.0',
    'SolidWorks 2007',
    '' );
FILE_SCHEMA (( 'CONFIG_CONTROL_DESIGN' ));
ENDSEC;

DATA;
#1 = APPROVAL_STATUS ( 'not_yet_approved' ) ;
#2 = APPROVAL_DATE_TIME ( #11, #5 ) ;
#3 = APPROVAL_ROLE ( '' ) ;
#4 = APPROVAL_PERSON_ORGANIZATION ( #8, #5, #3 ) ;
#5 = APPROVAL ( #1, 'UNSPECIFIED' ) ;
#6 = PRODUCT_DEFINITION ( 'UNKNOWN', '', #373, #7 ) ;
#7 = DESIGN_CONTEXT ( 'detailed design', #291, 'design' ) ;
#8 = PERSON_AND_ORGANIZATION ( #296, #295 ) ;
#9 = COORDINATED_UNIVERSAL_TIME_OFFSET ( 9, 0, .AHEAD. ) ;
#10 = LOCAL_TIME ( 10, 19, 6.000000000000000000, #9 ) ;
#11 = DATE_AND_TIME ( #12, #10 ) ;
#12 = CALENDAR_DATE ( 2009, 29, 6 ) ;
#13 = ADVANCED_FACE ( 'NONE', ( #280 ), #124, .F. ) ;
#14 = ORIENTED_EDGE ( 'NONE', *, *, #75, .F. ) ;
#15 = ORIENTED_EDGE ( 'NONE', *, *, #77, .T. ) ;
#16 = EDGE_LOOP ( 'NONE', ( #69, #70, #84, #22 ) ) ;
#17 = VERTEX_POINT ( 'NONE', #129 ) ;
#18 = EDGE_CURVE ( 'NONE', #34, #17, #224, .T. ) ;
#19 = EDGE_CURVE ( 'NONE', #27, #20, #174, .T. ) ;
#20 = VERTEX_POINT ( 'NONE', #170 ) ;
#21 = EDGE_CURVE ( 'NONE', #46, #86, #169, .T. ) ;
#22 = ORIENTED_EDGE ( 'NONE', *, *, #21, .F. ) ;
#23 = ORIENTED_EDGE ( 'NONE', *, *, #24, .F. ) ;
#24 = EDGE_CURVE ( 'NONE', #68, #20, #164, .T. ) ;
#25 = ORIENTED_EDGE ( 'NONE', *, *, #19, .T. ) ;
#26 = EDGE_LOOP ( 'NONE', ( #14, #15, #88, #81 ) ) ;
#27 = VERTEX_POINT ( 'NONE', #160 ) ;
#28 = EDGE_CURVE ( 'NONE', #46, #35, #159, .T. ) ;
#29 = EDGE_CURVE ( 'NONE', #30, #68, #155, .T. ) ;
#30 = VERTEX_POINT ( 'NONE', #150 ) ;
#31 = ORIENTED_EDGE ( 'NONE', *, *, #67, .T. ) ;
#32 = ORIENTED_EDGE ( 'NONE', *, *, #36, .T. ) ;
#33 = ORIENTED_EDGE ( 'NONE', *, *, #38, .F. ) ;
#34 = VERTEX_POINT ( 'NONE', #149 ) ;
#35 = VERTEX_POINT ( 'NONE', #148 ) ;
#36 = EDGE_CURVE ( 'NONE', #35, #39, #289, .T. ) ;
#37 = ADVANCED_FACE ( 'NONE', ( #147 ), #284, .T. ) ;
#38 = EDGE_CURVE ( 'NONE', #46, #34, #262, .T. ) ;
#39 = VERTEX_POINT ( 'NONE', #257 ) ;
#40 = ORIENTED_EDGE ( 'NONE', *, *, #29, .F. ) ;
#41 = EDGE_CURVE ( 'NONE', #34, #39, #256, .T. ) ;
#42 = ORIENTED_EDGE ( 'NONE', *, *, #28, .T. ) ;
#43 = EDGE_LOOP ( 'NONE', ( #33, #42, #32, #47 ) ) ;
#44 = ADVANCED_FACE ( 'NONE', ( #252 ), #251, .F. ) ;
#45 = EDGE_LOOP ( 'NONE', ( #40, #78, #25, #23 ) ) ;
#46 = VERTEX_POINT ( 'NONE', #246 ) ;
#47 = ORIENTED_EDGE ( 'NONE', *, *, #41, .F. ) ;
#48 = CC_DESIGN_PERSON_AND_ORGANIZATION_ASSIGNMENT ( #50, #49, ( #6 ) ) ;
#49 = PERSON_AND_ORGANIZATION_ROLE ( 'creator' ) ;
#50 = PERSON_AND_ORGANIZATION ( #296, #295 ) ;
#51 = ORIENTED_EDGE ( 'NONE', *, *, #65, .T. ) ;
#52 = ORIENTED_EDGE ( 'NONE', *, *, #53, .F. ) ;
#53 = EDGE_CURVE ( 'NONE', #76, #87, #245, .T. ) ;
#54 = ORIENTED_EDGE ( 'NONE', *, *, #77, .F. ) ;
#55 = EDGE_LOOP ( 'NONE', ( #54, #52, #120, #121 ) ) ;
#56 = ORIENTED_EDGE ( 'NONE', *, *, #85, .T. ) ;
#57 = ORIENTED_EDGE ( 'NONE', *, *, #58, .F. ) ;
#58 = EDGE_CURVE ( 'NONE', #80, #89, #240, .T. ) ;
#59 = ORIENTED_EDGE ( 'NONE', *, *, #79, .F. ) ;
#60 = EDGE_LOOP ( 'NONE', ( #56, #31 ) ) ;
#61 = MANIFOLD_SOLID_BREP ( 'NONE', #114 ) ;
#62 = ADVANCED_FACE ( 'NONE', ( #235, #234 ), #233, .F. ) ;
#63 = EDGE_LOOP ( 'NONE', ( #57, #59 ) ) ;
#64 = ORIENTED_EDGE ( 'NONE', *, *, #67, .F. ) ;
#65 = EDGE_CURVE ( 'NONE', #34, #46, #228, .T. ) ;
#66 = ORIENTED_EDGE ( 'NONE', *, *, #21, .T. ) ;
#67 = EDGE_CURVE ( 'NONE', #17, #86, #141, .T. ) ;
#68 = VERTEX_POINT ( 'NONE', #136 ) ;
#69 = ORIENTED_EDGE ( 'NONE', *, *, #38, .T. ) ;
#70 = ORIENTED_EDGE ( 'NONE', *, *, #18, .T. ) ;
#71 = EDGE_LOOP ( 'NONE', ( #74, #51, #66, #64 ) ) ;
#72 = EDGE_CURVE ( 'NONE', #30, #27, #135, .T. ) ;
#73 = EDGE_CURVE ( 'NONE', #76, #80, #131, .T. ) ;
#74 = ORIENTED_EDGE ( 'NONE', *, *, #18, .F. ) ;
#75 = EDGE_CURVE ( 'NONE', #87, #76, #329, .T. ) ;
#76 = VERTEX_POINT ( 'NONE', #324 ) ;
#77 = EDGE_CURVE ( 'NONE', #87, #89, #323, .T. ) ;
#78 = ORIENTED_EDGE ( 'NONE', *, *, #72, .T. ) ;
#79 = EDGE_CURVE ( 'NONE', #89, #80, #319, .T. ) ;
#80 = VERTEX_POINT ( 'NONE', #314 ) ;
#81 = ORIENTED_EDGE ( 'NONE', *, *, #73, .F. ) ;
#82 = ADVANCED_FACE ( 'NONE', ( #313 ), #312, .T. ) ;
#83 = ADVANCED_FACE ( 'NONE', ( #307 ), #306, .T. ) ;
#84 = ORIENTED_EDGE ( 'NONE', *, *, #85, .F. ) ;
#85 = EDGE_CURVE ( 'NONE', #86, #17, #301, .T. ) ;
#86 = VERTEX_POINT ( 'NONE', #204 ) ;
#87 = VERTEX_POINT ( 'NONE', #203 ) ;
#88 = ORIENTED_EDGE ( 'NONE', *, *, #79, .T. ) ;
#89 = VERTEX_POINT ( 'NONE', #202 ) ;
#90 = CC_DESIGN_APPROVAL ( #5, ( #6 ) ) ;
#91 = ADVANCED_FACE ( 'NONE', ( #201 ), #197, .F. ) ;
#92 = ORIENTED_EDGE ( 'NONE', *, *, #72, .F. ) ;
#93 = ORIENTED_EDGE ( 'NONE', *, *, #75, .T. ) ;
#94 = ORIENTED_EDGE ( 'NONE', *, *, #24, .T. ) ;
#95 = ORIENTED_EDGE ( 'NONE', *, *, #117, .T. ) ;
#96 = ADVANCED_FACE ( 'NONE', ( #199, #198 ), #193, .F. ) ;
#97 = ORIENTED_EDGE ( 'NONE', *, *, #98, .F. ) ;
#98 = EDGE_CURVE ( 'NONE', #39, #35, #188, .T. ) ;
#99 = EDGE_LOOP ( 'NONE', ( #103, #104 ) ) ;
#100 = ORIENTED_EDGE ( 'NONE', *, *, #101, .F. ) ;
#101 = EDGE_CURVE ( 'NONE', #68, #30, #182, .T. ) ;
#102 = ORIENTED_EDGE ( 'NONE', *, *, #36, .F. ) ;
#103 = ORIENTED_EDGE ( 'NONE', *, *, #101, .T. ) ;
#104 = ORIENTED_EDGE ( 'NONE', *, *, #29, .T. ) ;
#105 = ADVANCED_FACE ( 'NONE', ( #177 ), #176, .T. ) ;
#106 = EDGE_LOOP ( 'NONE', ( #107, #108, #109, #110 ) ) ;
#107 = ORIENTED_EDGE ( 'NONE', *, *, #28, .F. ) ;
#108 = ORIENTED_EDGE ( 'NONE', *, *, #65, .F. ) ;
#109 = ORIENTED_EDGE ( 'NONE', *, *, #41, .T. ) ;
#110 = ORIENTED_EDGE ( 'NONE', *, *, #98, .T. ) ;
#111 = EDGE_LOOP ( 'NONE', ( #92, #100, #94, #95 ) ) ;
#112 = ORIENTED_EDGE ( 'NONE', *, *, #53, .T. ) ;
#113 = EDGE_LOOP ( 'NONE', ( #97, #102 ) ) ;
#114 = CLOSED_SHELL ( 'NONE', ( #37, #44, #13, #82, #83, #62, #123, #116, #91, #96, #105 ) ) ;
#115 = ORIENTED_EDGE ( 'NONE', *, *, #117, .F. ) ;
#116 = ADVANCED_FACE ( 'NONE', ( #279, #275 ), #274, .F. ) ;
#117 = EDGE_CURVE ( 'NONE', #20, #27, #269, .T. ) ;
#118 = ORIENTED_EDGE ( 'NONE', *, *, #19, .F. ) ;
#119 = EDGE_LOOP ( 'NONE', ( #112, #93 ) ) ;
#120 = ORIENTED_EDGE ( 'NONE', *, *, #73, .T. ) ;
#121 = ORIENTED_EDGE ( 'NONE', *, *, #58, .T. ) ;
#122 = EDGE_LOOP ( 'NONE', ( #115, #118 ) ) ;
#123 = ADVANCED_FACE ( 'NONE', ( #264 ), #263, .F. ) ;
#124 = CYLINDRICAL_SURFACE ( 'NONE', #128, 2.500000000000000900 ) ;
#125 =( LENGTH_UNIT ( ) NAMED_UNIT ( * ) SI_UNIT ( .MILLI., .METRE. ) );
#126 = CARTESIAN_POINT ( 'NONE',  ( 0.0000000000000000000, 0.0000000000000000000, 0.0000000000000000000 ) ) ;
#127 = CARTESIAN_POINT ( 'NONE',  ( -5.009326287108706300E-010, 2.412507003500041800, 0.0000000000000000000 ) ) ;
#128 = AXIS2_PLACEMENT_3D ( 'NONE', #127, #227, #226 ) ;
#129 = CARTESIAN_POINT ( 'NONE',  ( -5.009321773305299000E-010, 3.499565220943523500E-009, -3.197828393634118100 ) ) ;
#130 = CARTESIAN_POINT ( 'NONE',  ( -5.009326287108706300E-010, 2.412507003500041800, 2.500000000000000900 ) ) ;
#131 = LINE ( 'NONE', #130, #331 ) ;
#132 = DIRECTION ( 'NONE',  ( 0.0000000000000000000, 1.000000000000000000, 0.0000000000000000000 ) ) ;
#133 = VECTOR ( 'NONE', #132, 1000.000000000000000 ) ;
#134 = CARTESIAN_POINT ( 'NONE',  ( -5.009324450199175600E-010, 2.412507003500041800, -1.500000000000000200 ) ) ;
#135 = LINE ( 'NONE', #134, #133 ) ;
#136 = CARTESIAN_POINT ( 'NONE',  ( -5.009326287108706300E-010, -8.999999996500434900, 1.500000000000000400 ) ) ;
#137 = DIRECTION ( 'NONE',  ( 0.0000000000000000000, 0.0000000000000000000, 1.000000000000000000 ) ) ;
#138 = DIRECTION ( 'NONE',  ( 0.0000000000000000000, 1.000000000000000000, 0.0000000000000000000 ) ) ;
#139 = CARTESIAN_POINT ( 'NONE',  ( -5.009326287108706300E-010, 3.499565220943523500E-009, 0.0000000000000000000 ) ) ;
#140 = AXIS2_PLACEMENT_3D ( 'NONE', #139, #138, #137 ) ;
#141 = CIRCLE ( 'NONE', #140, 3.197828393634118100 ) ;
#142 = DIRECTION ( 'NONE',  ( 0.0000000000000000000, 0.0000000000000000000, 1.000000000000000000 ) ) ;
#143 = DIRECTION ( 'NONE',  ( 0.0000000000000000000, 1.000000000000000000, 0.0000000000000000000 ) ) ;
#144 = CARTESIAN_POINT ( 'NONE',  ( -5.009326287108706300E-010, -0.7830695386817840800, 0.0000000000000000000 ) ) ;
#145 = AXIS2_PLACEMENT_3D ( 'NONE', #144, #143, #142 ) ;
#146 = CARTESIAN_POINT ( 'NONE',  ( -5.009326287108706300E-010, -8.999999996500434900, 0.0000000000000000000 ) ) ;
#147 = FACE_OUTER_BOUND ( 'NONE', #43, .T. ) ;
#148 = CARTESIAN_POINT ( 'NONE',  ( -5.009318939470583400E-010, -8.999999996500434900, 6.000000000000000000 ) ) ;
#149 = CARTESIAN_POINT ( 'NONE',  ( -5.009321175582860600E-010, -0.7830695386817840800, -4.174015453818077100 ) ) ;
#150 = CARTESIAN_POINT ( 'NONE',  ( -5.009324450199175600E-010, -8.999999996500434900, -1.500000000000000700 ) ) ;
#151 = DIRECTION ( 'NONE',  ( 0.0000000000000000000, 0.0000000000000000000, 1.000000000000000000 ) ) ;
#152 = DIRECTION ( 'NONE',  ( 0.0000000000000000000, 1.000000000000000000, 0.0000000000000000000 ) ) ;
#153 = CARTESIAN_POINT ( 'NONE',  ( -5.009326287108706300E-010, -8.999999996500434900, 0.0000000000000000000 ) ) ;
#154 = AXIS2_PLACEMENT_3D ( 'NONE', #153, #152, #151 ) ;
#155 = CIRCLE ( 'NONE', #154, 1.500000000000000400 ) ;
#156 = DIRECTION ( 'NONE',  ( 2.656544169823236000E-017, -0.9761870601839527400, 0.2169304578186562200 ) ) ;
#157 = VECTOR ( 'NONE', #156, 1000.000000000000000 ) ;
#158 = CARTESIAN_POINT ( 'NONE',  ( -5.009318939470583400E-010, -8.999999996500434900, 6.000000000000000000 ) ) ;
#159 = LINE ( 'NONE', #158, #157 ) ;
#160 = CARTESIAN_POINT ( 'NONE',  ( -5.009324450199175600E-010, -3.999999996500434900, -1.500000000000000000 ) ) ;
#161 = DIRECTION ( 'NONE',  ( 0.0000000000000000000, 1.000000000000000000, 0.0000000000000000000 ) ) ;
#162 = VECTOR ( 'NONE', #161, 1000.000000000000000 ) ;
#163 = CARTESIAN_POINT ( 'NONE',  ( -5.009326287108706300E-010, 2.412507003500041800, 1.500000000000000200 ) ) ;
#164 = LINE ( 'NONE', #163, #162 ) ;
#165 = DIRECTION ( 'NONE',  ( 0.0000000000000000000, 0.0000000000000000000, 1.000000000000000000 ) ) ;
#166 = DIRECTION ( 'NONE',  ( -1.000000000000000000, 0.0000000000000000000, 0.0000000000000000000 ) ) ;
#167 = CARTESIAN_POINT ( 'NONE',  ( -5.009326287108706300E-010, -0.9999999965004348100, 3.197828393634123900 ) ) ;
#168 = AXIS2_PLACEMENT_3D ( 'NONE', #167, #166, #165 ) ;
#169 = CIRCLE ( 'NONE', #168, 1.000000000000000400 ) ;
#170 = CARTESIAN_POINT ( 'NONE',  ( -5.009326287108706300E-010, -3.999999996500434900, 1.500000000000000000 ) ) ;
#171 = DIRECTION ( 'NONE',  ( 0.0000000000000000000, 0.0000000000000000000, 1.000000000000000000 ) ) ;
#172 = DIRECTION ( 'NONE',  ( 0.0000000000000000000, 1.000000000000000000, 0.0000000000000000000 ) ) ;
#173 = AXIS2_PLACEMENT_3D ( 'NONE', #225, #172, #171 ) ;
#174 = CIRCLE ( 'NONE', #173, 1.500000000000000000 ) ;
#175 = DIRECTION ( 'NONE',  ( 1.224606353612350400E-016, 0.0000000000000000000, -1.000000000000000000 ) ) ;
#176 = CONICAL_SURFACE ( 'NONE', #278, 6.000000000000000000, 0.2186689458739420100 ) ;
#177 = FACE_OUTER_BOUND ( 'NONE', #106, .T. ) ;
#178 = DIRECTION ( 'NONE',  ( 0.0000000000000000000, 0.0000000000000000000, 1.000000000000000000 ) ) ;
#179 = DIRECTION ( 'NONE',  ( 0.0000000000000000000, 1.000000000000000000, 0.0000000000000000000 ) ) ;
#180 = CARTESIAN_POINT ( 'NONE',  ( -5.009326287108706300E-010, -8.999999996500434900, 0.0000000000000000000 ) ) ;
#181 = AXIS2_PLACEMENT_3D ( 'NONE', #180, #179, #178 ) ;
#182 = CIRCLE ( 'NONE', #181, 1.500000000000000400 ) ;
#183 = CARTESIAN_POINT ( 'NONE',  ( -5.009326287108706300E-010, -8.999999996500434900, 0.0000000000000000000 ) ) ;
#184 = DIRECTION ( 'NONE',  ( 0.0000000000000000000, 0.0000000000000000000, 1.000000000000000000 ) ) ;
#185 = DIRECTION ( 'NONE',  ( 0.0000000000000000000, 1.000000000000000000, 0.0000000000000000000 ) ) ;
#186 = CARTESIAN_POINT ( 'NONE',  ( -5.009326287108706300E-010, -8.999999996500434900, 0.0000000000000000000 ) ) ;
#187 = AXIS2_PLACEMENT_3D ( 'NONE', #186, #185, #184 ) ;
#188 = CIRCLE ( 'NONE', #187, 6.000000000000000000 ) ;
#189 = DIRECTION ( 'NONE',  ( 0.0000000000000000000, 0.0000000000000000000, 1.000000000000000000 ) ) ;
#190 = DIRECTION ( 'NONE',  ( 0.0000000000000000000, 1.000000000000000000, 0.0000000000000000000 ) ) ;
#191 = CARTESIAN_POINT ( 'NONE',  ( 1.499999999499067800, -8.999999996500434900, 0.0000000000000000000 ) ) ;
#192 = AXIS2_PLACEMENT_3D ( 'NONE', #191, #190, #189 ) ;
#193 = PLANE ( 'NONE',  #192 ) ;
#194 = DIRECTION ( 'NONE',  ( 0.0000000000000000000, 0.0000000000000000000, 1.000000000000000000 ) ) ;
#195 = DIRECTION ( 'NONE',  ( 0.0000000000000000000, 1.000000000000000000, 0.0000000000000000000 ) ) ;
#196 = AXIS2_PLACEMENT_3D ( 'NONE', #200, #195, #194 ) ;
#197 = CYLINDRICAL_SURFACE ( 'NONE', #196, 1.500000000000000200 ) ;
#198 = FACE_BOUND ( 'NONE', #99, .T. ) ;
#199 = FACE_OUTER_BOUND ( 'NONE', #113, .T. ) ;
#200 = CARTESIAN_POINT ( 'NONE',  ( -5.009326287108706300E-010, 2.412507003500041800, 0.0000000000000000000 ) ) ;
#201 = FACE_OUTER_BOUND ( 'NONE', #111, .T. ) ;
#202 = CARTESIAN_POINT ( 'NONE',  ( -5.009323225592821800E-010, 3.499565220943523500E-009, -2.500000000000000400 ) ) ;
#203 = CARTESIAN_POINT ( 'NONE',  ( -5.009323225592821800E-010, -3.999999996500434900, -2.500000000000001300 ) ) ;
#204 = CARTESIAN_POINT ( 'NONE',  ( -5.009326287108706300E-010, 3.499565220943523500E-009, 3.197828393634118100 ) ) ;
#205 = DIRECTION ( 'NONE',  ( 0.0000000000000000000, 0.0000000000000000000, 1.000000000000000000 ) ) ;
#206 = DIRECTION ( 'NONE',  ( 0.0000000000000000000, 1.000000000000000000, 0.0000000000000000000 ) ) ;
#207 = CARTESIAN_POINT ( 'NONE',  ( -5.009326287108706300E-010, 3.499565220943523500E-009, 0.0000000000000000000 ) ) ;
#208 = AXIS2_PLACEMENT_3D ( 'NONE', #207, #206, #205 ) ;
#209 = DIRECTION ( 'NONE',  ( 1.000000000000000000, 0.0000000000000000000, 0.0000000000000000000 ) ) ;
#210 = DIRECTION ( 'NONE',  ( 0.0000000000000000000, 0.0000000000000000000, 1.000000000000000000 ) ) ;
#211 = AXIS2_PLACEMENT_3D ( 'NONE', #126, #210, #209 ) ;
#212 = ADVANCED_BREP_SHAPE_REPRESENTATION ( 'C-30-RK-12-ÃÞÌ«ÙÄ', ( #61, #211 ), #213 ) ;
#213 =( GEOMETRIC_REPRESENTATION_CONTEXT ( 3 ) GLOBAL_UNCERTAINTY_ASSIGNED_CONTEXT ( ( #214 ) ) GLOBAL_UNIT_ASSIGNED_CONTEXT ( ( #125, #216, #215 ) ) REPRESENTATION_CONTEXT ( 'NONE', 'WORKASPACE' ) );
#214 = UNCERTAINTY_MEASURE_WITH_UNIT (LENGTH_MEASURE( 1.000000000000000100E-005 ), #125, 'distance_accuracy_value', 'NONE');
#215 =( NAMED_UNIT ( * ) SI_UNIT ( $, .STERADIAN. ) SOLID_ANGLE_UNIT ( ) );
#216 =( NAMED_UNIT ( * ) PLANE_ANGLE_UNIT ( ) SI_UNIT ( $, .RADIAN. ) );
#217 = DIRECTION ( 'NONE',  ( 0.0000000000000000000, 0.0000000000000000000, 1.000000000000000000 ) ) ;
#218 = DIRECTION ( 'NONE',  ( 0.0000000000000000000, 1.000000000000000000, 0.0000000000000000000 ) ) ;
#219 = CARTESIAN_POINT ( 'NONE',  ( -5.009326287108706300E-010, 2.412507003500041800, 0.0000000000000000000 ) ) ;
#220 = AXIS2_PLACEMENT_3D ( 'NONE', #219, #218, #217 ) ;
#221 = DIRECTION ( 'NONE',  ( 1.000000000000000000, 0.0000000000000000000, 1.224606353822377300E-016 ) ) ;
#222 = CARTESIAN_POINT ( 'NONE',  ( -5.009322371027737400E-010, -0.9999999965004348100, -3.197828393634123900 ) ) ;
#223 = AXIS2_PLACEMENT_3D ( 'NONE', #222, #221, #175 ) ;
#224 = CIRCLE ( 'NONE', #223, 1.000000000000000400 ) ;
#225 = CARTESIAN_POINT ( 'NONE',  ( -5.009326287108706300E-010, -3.999999996500434900, 0.0000000000000000000 ) ) ;
#226 = DIRECTION ( 'NONE',  ( 0.0000000000000000000, 0.0000000000000000000, 1.000000000000000000 ) ) ;
#227 = DIRECTION ( 'NONE',  ( 0.0000000000000000000, 1.000000000000000000, 0.0000000000000000000 ) ) ;
#228 = CIRCLE ( 'NONE', #145, 4.174015453818077100 ) ;
#229 = DIRECTION ( 'NONE',  ( 0.0000000000000000000, 0.0000000000000000000, -1.000000000000000000 ) ) ;
#230 = DIRECTION ( 'NONE',  ( 0.0000000000000000000, -1.000000000000000000, 0.0000000000000000000 ) ) ;
#231 = CARTESIAN_POINT ( 'NONE',  ( 3.197828393133185500, 3.499565387344820200E-009, 0.0000000000000000000 ) ) ;
#232 = AXIS2_PLACEMENT_3D ( 'NONE', #231, #230, #229 ) ;
#233 = PLANE ( 'NONE',  #232 ) ;
#234 = FACE_OUTER_BOUND ( 'NONE', #60, .T. ) ;
#235 = FACE_BOUND ( 'NONE', #63, .T. ) ;
#236 = DIRECTION ( 'NONE',  ( 0.0000000000000000000, 0.0000000000000000000, 1.000000000000000000 ) ) ;
#237 = DIRECTION ( 'NONE',  ( 0.0000000000000000000, 1.000000000000000000, 0.0000000000000000000 ) ) ;
#238 = CARTESIAN_POINT ( 'NONE',  ( -5.009326287108706300E-010, 3.499565220943523500E-009, 0.0000000000000000000 ) ) ;
#239 = AXIS2_PLACEMENT_3D ( 'NONE', #238, #237, #236 ) ;
#240 = CIRCLE ( 'NONE', #239, 2.500000000000000400 ) ;
#241 = DIRECTION ( 'NONE',  ( 0.0000000000000000000, 0.0000000000000000000, 1.000000000000000000 ) ) ;
#242 = DIRECTION ( 'NONE',  ( 0.0000000000000000000, 1.000000000000000000, 0.0000000000000000000 ) ) ;
#243 = CARTESIAN_POINT ( 'NONE',  ( -5.009326287108706300E-010, -3.999999996500434900, 0.0000000000000000000 ) ) ;
#244 = AXIS2_PLACEMENT_3D ( 'NONE', #243, #242, #241 ) ;
#245 = CIRCLE ( 'NONE', #244, 2.500000000000001300 ) ;
#246 = CARTESIAN_POINT ( 'NONE',  ( -5.009326287108706300E-010, -0.7830695386817840800, 4.174015453818077100 ) ) ;
#247 = DIRECTION ( 'NONE',  ( 0.0000000000000000000, 0.0000000000000000000, 1.000000000000000000 ) ) ;
#248 = DIRECTION ( 'NONE',  ( 0.0000000000000000000, 1.000000000000000000, 0.0000000000000000000 ) ) ;
#249 = CARTESIAN_POINT ( 'NONE',  ( -5.009326287108706300E-010, 2.412507003500041800, 0.0000000000000000000 ) ) ;
#250 = AXIS2_PLACEMENT_3D ( 'NONE', #249, #248, #247 ) ;
#251 = CYLINDRICAL_SURFACE ( 'NONE', #250, 1.500000000000000200 ) ;
#252 = FACE_OUTER_BOUND ( 'NONE', #45, .T. ) ;
#253 = DIRECTION ( 'NONE',  ( 0.0000000000000000000, -0.9761870601839527400, -0.2169304578186562200 ) ) ;
#254 = VECTOR ( 'NONE', #253, 1000.000000000000000 ) ;
#255 = CARTESIAN_POINT ( 'NONE',  ( -5.009326287108706300E-010, -8.999999996500434900, -6.000000000000000000 ) ) ;
#256 = LINE ( 'NONE', #255, #254 ) ;
#257 = CARTESIAN_POINT ( 'NONE',  ( -5.009326287108706300E-010, -8.999999996500434900, -6.000000000000000000 ) ) ;
#258 = DIRECTION ( 'NONE',  ( 0.0000000000000000000, 0.0000000000000000000, 1.000000000000000000 ) ) ;
#259 = DIRECTION ( 'NONE',  ( 0.0000000000000000000, 1.000000000000000000, 0.0000000000000000000 ) ) ;
#260 = CARTESIAN_POINT ( 'NONE',  ( -5.009326287108706300E-010, -0.7830695386817840800, 0.0000000000000000000 ) ) ;
#261 = AXIS2_PLACEMENT_3D ( 'NONE', #260, #259, #258 ) ;
#262 = CIRCLE ( 'NONE', #261, 4.174015453818077100 ) ;
#263 = CYLINDRICAL_SURFACE ( 'NONE', #220, 2.500000000000000900 ) ;
#264 = FACE_OUTER_BOUND ( 'NONE', #55, .T. ) ;
#265 = DIRECTION ( 'NONE',  ( 0.0000000000000000000, 0.0000000000000000000, 1.000000000000000000 ) ) ;
#266 = DIRECTION ( 'NONE',  ( 0.0000000000000000000, 1.000000000000000000, 0.0000000000000000000 ) ) ;
#267 = CARTESIAN_POINT ( 'NONE',  ( -5.009326287108706300E-010, -3.999999996500434900, 0.0000000000000000000 ) ) ;
#268 = AXIS2_PLACEMENT_3D ( 'NONE', #267, #266, #265 ) ;
#269 = CIRCLE ( 'NONE', #268, 1.500000000000000000 ) ;
#270 = DIRECTION ( 'NONE',  ( 0.0000000000000000000, 0.0000000000000000000, -1.000000000000000000 ) ) ;
#271 = DIRECTION ( 'NONE',  ( 0.0000000000000000000, -1.000000000000000000, 0.0000000000000000000 ) ) ;
#272 = CARTESIAN_POINT ( 'NONE',  ( 2.499999999499068700, -3.999999996500434900, 0.0000000000000000000 ) ) ;
#273 = AXIS2_PLACEMENT_3D ( 'NONE', #272, #271, #270 ) ;
#274 = PLANE ( 'NONE',  #273 ) ;
#275 = FACE_OUTER_BOUND ( 'NONE', #119, .T. ) ;
#276 = DIRECTION ( 'NONE',  ( 0.0000000000000000000, 0.0000000000000000000, -1.000000000000000000 ) ) ;
#277 = DIRECTION ( 'NONE',  ( 0.0000000000000000000, -1.000000000000000000, 0.0000000000000000000 ) ) ;
#278 = AXIS2_PLACEMENT_3D ( 'NONE', #183, #277, #276 ) ;
#279 = FACE_BOUND ( 'NONE', #122, .T. ) ;
#280 = FACE_OUTER_BOUND ( 'NONE', #26, .T. ) ;
#281 = DIRECTION ( 'NONE',  ( 0.0000000000000000000, 0.0000000000000000000, -1.000000000000000000 ) ) ;
#282 = DIRECTION ( 'NONE',  ( 0.0000000000000000000, -1.000000000000000000, 0.0000000000000000000 ) ) ;
#283 = AXIS2_PLACEMENT_3D ( 'NONE', #285, #282, #281 ) ;
#284 = CONICAL_SURFACE ( 'NONE', #283, 6.000000000000000000, 0.2186689458739420100 ) ;
#285 = CARTESIAN_POINT ( 'NONE',  ( -5.009326287108706300E-010, -8.999999996500434900, 0.0000000000000000000 ) ) ;
#286 = DIRECTION ( 'NONE',  ( 0.0000000000000000000, 0.0000000000000000000, 1.000000000000000000 ) ) ;
#287 = DIRECTION ( 'NONE',  ( 0.0000000000000000000, 1.000000000000000000, 0.0000000000000000000 ) ) ;
#288 = AXIS2_PLACEMENT_3D ( 'NONE', #146, #287, #286 ) ;
#289 = CIRCLE ( 'NONE', #288, 6.000000000000000000 ) ;
#290 = APPLICATION_PROTOCOL_DEFINITION ( 'international standard', 'config_control_design', 1994, #291 ) ;
#291 = APPLICATION_CONTEXT ( 'configuration controlled 3d designs of mechanical parts and assemblies' ) ;
#292 = CC_DESIGN_PERSON_AND_ORGANIZATION_ASSIGNMENT ( #294, #293, ( #297 ) ) ;
#293 = PERSON_AND_ORGANIZATION_ROLE ( 'design_owner' ) ;
#294 = PERSON_AND_ORGANIZATION ( #296, #295 ) ;
#295 = ORGANIZATION ( 'UNSPECIFIED', 'UNSPECIFIED', '' ) ;
#296 = PERSON ( 'UNSPECIFIED', 'UNSPECIFIED', 'UNSPECIFIED', ('UNSPECIFIED'), ('UNSPECIFIED'), ('UNSPECIFIED') ) ;
#297 = PRODUCT ( 'C-30-RK-12-ÃÞÌ«ÙÄ', 'C-30-RK-12-ÃÞÌ«ÙÄ', '', ( #298 ) ) ;
#298 = MECHANICAL_CONTEXT ( 'NONE', #300, 'mechanical' ) ;
#299 = APPLICATION_PROTOCOL_DEFINITION ( 'international standard', 'config_control_design', 1994, #300 ) ;
#300 = APPLICATION_CONTEXT ( 'configuration controlled 3d designs of mechanical parts and assemblies' ) ;
#301 = CIRCLE ( 'NONE', #208, 3.197828393634118100 ) ;
#302 = DIRECTION ( 'NONE',  ( 0.0000000000000000000, 0.0000000000000000000, 1.000000000000000000 ) ) ;
#303 = DIRECTION ( 'NONE',  ( 0.0000000000000000000, 1.000000000000000000, 0.0000000000000000000 ) ) ;
#304 = CARTESIAN_POINT ( 'NONE',  ( -5.009326287108706300E-010, -0.9999999965004348100, 0.0000000000000000000 ) ) ;
#305 = AXIS2_PLACEMENT_3D ( 'NONE', #304, #303, #302 ) ;
#306 = TOROIDAL_SURFACE ( 'NONE', #305, 3.197828393634123900, 1.000000000000000000 ) ;
#307 = FACE_OUTER_BOUND ( 'NONE', #71, .T. ) ;
#308 = DIRECTION ( 'NONE',  ( 0.0000000000000000000, 0.0000000000000000000, 1.000000000000000000 ) ) ;
#309 = DIRECTION ( 'NONE',  ( 0.0000000000000000000, 1.000000000000000000, 0.0000000000000000000 ) ) ;
#310 = CARTESIAN_POINT ( 'NONE',  ( -5.009326287108706300E-010, -0.9999999965004348100, 0.0000000000000000000 ) ) ;
#311 = AXIS2_PLACEMENT_3D ( 'NONE', #310, #309, #308 ) ;
#312 = TOROIDAL_SURFACE ( 'NONE', #311, 3.197828393634123900, 1.000000000000000000 ) ;
#313 = FACE_OUTER_BOUND ( 'NONE', #16, .T. ) ;
#314 = CARTESIAN_POINT ( 'NONE',  ( -5.009326287108706300E-010, 3.499565220943523500E-009, 2.500000000000000400 ) ) ;
#315 = DIRECTION ( 'NONE',  ( 0.0000000000000000000, 0.0000000000000000000, 1.000000000000000000 ) ) ;
#316 = DIRECTION ( 'NONE',  ( 0.0000000000000000000, 1.000000000000000000, 0.0000000000000000000 ) ) ;
#317 = CARTESIAN_POINT ( 'NONE',  ( -5.009326287108706300E-010, 3.499565220943523500E-009, 0.0000000000000000000 ) ) ;
#318 = AXIS2_PLACEMENT_3D ( 'NONE', #317, #316, #315 ) ;
#319 = CIRCLE ( 'NONE', #318, 2.500000000000000400 ) ;
#320 = DIRECTION ( 'NONE',  ( 0.0000000000000000000, 1.000000000000000000, 0.0000000000000000000 ) ) ;
#321 = VECTOR ( 'NONE', #320, 1000.000000000000000 ) ;
#322 = CARTESIAN_POINT ( 'NONE',  ( -5.009323225592821800E-010, 2.412507003500041800, -2.500000000000000900 ) ) ;
#323 = LINE ( 'NONE', #322, #321 ) ;
#324 = CARTESIAN_POINT ( 'NONE',  ( -5.009326287108706300E-010, -3.999999996500434900, 2.500000000000001300 ) ) ;
#325 = DIRECTION ( 'NONE',  ( 0.0000000000000000000, 0.0000000000000000000, 1.000000000000000000 ) ) ;
#326 = DIRECTION ( 'NONE',  ( 0.0000000000000000000, 1.000000000000000000, 0.0000000000000000000 ) ) ;
#327 = CARTESIAN_POINT ( 'NONE',  ( -5.009326287108706300E-010, -3.999999996500434900, 0.0000000000000000000 ) ) ;
#328 = AXIS2_PLACEMENT_3D ( 'NONE', #327, #326, #325 ) ;
#329 = CIRCLE ( 'NONE', #328, 2.500000000000001300 ) ;
#330 = DIRECTION ( 'NONE',  ( 0.0000000000000000000, 1.000000000000000000, 0.0000000000000000000 ) ) ;
#331 = VECTOR ( 'NONE', #330, 1000.000000000000000 ) ;
#332 = APPROVAL_DATE_TIME ( #333, #339 ) ;
#333 = DATE_AND_TIME ( #334, #335 ) ;
#334 = CALENDAR_DATE ( 2009, 29, 6 ) ;
#335 = LOCAL_TIME ( 10, 19, 6.000000000000000000, #336 ) ;
#336 = COORDINATED_UNIVERSAL_TIME_OFFSET ( 9, 0, .AHEAD. ) ;
#337 = APPROVAL_PERSON_ORGANIZATION ( #351, #339, #338 ) ;
#338 = APPROVAL_ROLE ( '' ) ;
#339 = APPROVAL ( #350, 'UNSPECIFIED' ) ;
#340 = COORDINATED_UNIVERSAL_TIME_OFFSET ( 9, 0, .AHEAD. ) ;
#341 = CC_DESIGN_PERSON_AND_ORGANIZATION_ASSIGNMENT ( #343, #342, ( #373 ) ) ;
#342 = PERSON_AND_ORGANIZATION_ROLE ( 'creator' ) ;
#343 = PERSON_AND_ORGANIZATION ( #296, #295 ) ;
#344 = DATE_AND_TIME ( #354, #355 ) ;
#345 = CC_DESIGN_PERSON_AND_ORGANIZATION_ASSIGNMENT ( #347, #346, ( #348 ) ) ;
#346 = PERSON_AND_ORGANIZATION_ROLE ( 'classification_officer' ) ;
#347 = PERSON_AND_ORGANIZATION ( #296, #295 ) ;
#348 = SECURITY_CLASSIFICATION ( '', '', #349 ) ;
#349 = SECURITY_CLASSIFICATION_LEVEL ( 'unclassified' ) ;
#350 = APPROVAL_STATUS ( 'not_yet_approved' ) ;
#351 = PERSON_AND_ORGANIZATION ( #296, #295 ) ;
#352 = CC_DESIGN_DATE_AND_TIME_ASSIGNMENT ( #344, #353, ( #348 ) ) ;
#353 = DATE_TIME_ROLE ( 'classification_date' ) ;
#354 = CALENDAR_DATE ( 2009, 29, 6 ) ;
#355 = LOCAL_TIME ( 10, 19, 6.000000000000000000, #356 ) ;
#356 = COORDINATED_UNIVERSAL_TIME_OFFSET ( 9, 0, .AHEAD. ) ;
#357 = DATE_AND_TIME ( #358, #359 ) ;
#358 = CALENDAR_DATE ( 2009, 29, 6 ) ;
#359 = LOCAL_TIME ( 10, 19, 6.000000000000000000, #340 ) ;
#360 = CC_DESIGN_PERSON_AND_ORGANIZATION_ASSIGNMENT ( #362, #361, ( #373 ) ) ;
#361 = PERSON_AND_ORGANIZATION_ROLE ( 'design_supplier' ) ;
#362 = PERSON_AND_ORGANIZATION ( #296, #295 ) ;
#363 = PRODUCT_DEFINITION_SHAPE ( 'NONE', 'NONE',  #6 ) ;
#364 = PRODUCT_RELATED_PRODUCT_CATEGORY ( 'detail', '', ( #297 ) ) ;
#365 = CC_DESIGN_SECURITY_CLASSIFICATION ( #348, ( #373 ) ) ;
#366 = CC_DESIGN_APPROVAL ( #339, ( #348 ) ) ;
#367 = APPROVAL_STATUS ( 'not_yet_approved' ) ;
#368 = PERSON_AND_ORGANIZATION ( #296, #295 ) ;
#369 = COORDINATED_UNIVERSAL_TIME_OFFSET ( 9, 0, .AHEAD. ) ;
#370 = APPROVAL_PERSON_ORGANIZATION ( #368, #372, #371 ) ;
#371 = APPROVAL_ROLE ( '' ) ;
#372 = APPROVAL ( #367, 'UNSPECIFIED' ) ;
#373 = PRODUCT_DEFINITION_FORMATION_WITH_SPECIFIED_SOURCE ( 'ANY', '', #297, .NOT_KNOWN. ) ;
#374 = CC_DESIGN_DATE_AND_TIME_ASSIGNMENT ( #357, #375, ( #6 ) ) ;
#375 = DATE_TIME_ROLE ( 'creation_date' ) ;
#376 = CC_DESIGN_APPROVAL ( #372, ( #373 ) ) ;
#377 = APPROVAL_DATE_TIME ( #378, #372 ) ;
#378 = DATE_AND_TIME ( #379, #380 ) ;
#379 = CALENDAR_DATE ( 2009, 29, 6 ) ;
#380 = LOCAL_TIME ( 10, 19, 6.000000000000000000, #369 ) ;
#381 = SHAPE_DEFINITION_REPRESENTATION ( #363, #212 ) ;
ENDSEC;
END-ISO-10303-21;
