ISO-10303-21;
HEADER;
FILE_DESCRIPTION (( 'STEP AP203' ),
    '1' );
FILE_NAME ('C-30-RK-12-gray.STEP',
    '2009-06-29T01:16:43',
    ( '11sw' ),
    ( '^LQ»¢®ïÐ' ),
    'SwSTEP 2.0',
    'SolidWorks 2007',
    '' );
FILE_SCHEMA (( 'CONFIG_CONTROL_DESIGN' ));
ENDSEC;

DATA;
#1 = ORIENTED_EDGE ( 'NONE', *, *, #5, .T. ) ;
#2 = ORIENTED_EDGE ( 'NONE', *, *, #32, .T. ) ;
#3 = ORIENTED_EDGE ( 'NONE', *, *, #41, .F. ) ;
#4 = ORIENTED_EDGE ( 'NONE', *, *, #24, .T. ) ;
#5 = EDGE_CURVE ( 'NONE', #44, #48, #111, .T. ) ;
#6 = ORIENTED_EDGE ( 'NONE', *, *, #66, .T. ) ;
#7 = EDGE_CURVE ( 'NONE', #64, #46, #105, .T. ) ;
#8 = EDGE_LOOP ( 'NONE', ( #70, #3 ) ) ;
#9 = ADVANCED_FACE ( 'NONE', ( #106 ), #161, .F. ) ;
#10 = ORIENTED_EDGE ( 'NONE', *, *, #56, .F. ) ;
#11 = EDGE_CURVE ( 'NONE', #36, #63, #156, .T. ) ;
#12 = ORIENTED_EDGE ( 'NONE', *, *, #43, .F. ) ;
#13 = ORIENTED_EDGE ( 'NONE', *, *, #38, .T. ) ;
#14 = ORIENTED_EDGE ( 'NONE', *, *, #11, .F. ) ;
#15 = EDGE_LOOP ( 'NONE', ( #23, #21 ) ) ;
#16 = ORIENTED_EDGE ( 'NONE', *, *, #18, .T. ) ;
#17 = ADVANCED_FACE ( 'NONE', ( #157, #151 ), #150, .F. ) ;
#18 = EDGE_CURVE ( 'NONE', #119, #118, #144, .T. ) ;
#19 = ORIENTED_EDGE ( 'NONE', *, *, #50, .F. ) ;
#20 = ORIENTED_EDGE ( 'NONE', *, *, #7, .F. ) ;
#21 = ORIENTED_EDGE ( 'NONE', *, *, #11, .T. ) ;
#22 = EDGE_LOOP ( 'NONE', ( #19, #20, #2, #1 ) ) ;
#23 = ORIENTED_EDGE ( 'NONE', *, *, #62, .T. ) ;
#24 = EDGE_CURVE ( 'NONE', #53, #58, #140, .T. ) ;
#25 = EDGE_LOOP ( 'NONE', ( #26, #27 ) ) ;
#26 = ORIENTED_EDGE ( 'NONE', *, *, #7, .T. ) ;
#27 = ORIENTED_EDGE ( 'NONE', *, *, #39, .T. ) ;
#28 = ADVANCED_FACE ( 'NONE', ( #135, #134 ), #133, .F. ) ;
#29 = ORIENTED_EDGE ( 'NONE', *, *, #24, .F. ) ;
#30 = ORIENTED_EDGE ( 'NONE', *, *, #54, .F. ) ;
#31 = ADVANCED_FACE ( 'NONE', ( #179 ), #178, .T. ) ;
#32 = EDGE_CURVE ( 'NONE', #64, #44, #173, .T. ) ;
#33 = ADVANCED_FACE ( 'NONE', ( #169 ), #167, .T. ) ;
#34 = EDGE_LOOP ( 'NONE', ( #35, #42, #61, #60 ) ) ;
#35 = ORIENTED_EDGE ( 'NONE', *, *, #117, .T. ) ;
#36 = VERTEX_POINT ( 'NONE', #163 ) ;
#37 = EDGE_LOOP ( 'NONE', ( #47, #49, #40, #45 ) ) ;
#38 = EDGE_CURVE ( 'NONE', #118, #63, #96, .T. ) ;
#39 = EDGE_CURVE ( 'NONE', #46, #64, #91, .T. ) ;
#40 = ORIENTED_EDGE ( 'NONE', *, *, #41, .T. ) ;
#41 = EDGE_CURVE ( 'NONE', #48, #44, #86, .T. ) ;
#42 = ORIENTED_EDGE ( 'NONE', *, *, #43, .T. ) ;
#43 = EDGE_CURVE ( 'NONE', #119, #36, #309, .T. ) ;
#44 = VERTEX_POINT ( 'NONE', #323 ) ;
#45 = ORIENTED_EDGE ( 'NONE', *, *, #32, .F. ) ;
#46 = VERTEX_POINT ( 'NONE', #311 ) ;
#47 = ORIENTED_EDGE ( 'NONE', *, *, #39, .F. ) ;
#48 = VERTEX_POINT ( 'NONE', #310 ) ;
#49 = ORIENTED_EDGE ( 'NONE', *, *, #50, .T. ) ;
#50 = EDGE_CURVE ( 'NONE', #46, #48, #339, .T. ) ;
#51 = EDGE_LOOP ( 'NONE', ( #12, #16, #13, #14 ) ) ;
#52 = ORIENTED_EDGE ( 'NONE', *, *, #54, .T. ) ;
#53 = VERTEX_POINT ( 'NONE', #327 ) ;
#54 = EDGE_CURVE ( 'NONE', #58, #53, #287, .T. ) ;
#55 = ORIENTED_EDGE ( 'NONE', *, *, #56, .T. ) ;
#56 = EDGE_CURVE ( 'NONE', #68, #58, #288, .T. ) ;
#57 = VERTEX_POINT ( 'NONE', #313 ) ;
#58 = VERTEX_POINT ( 'NONE', #329 ) ;
#59 = EDGE_CURVE ( 'NONE', #68, #57, #328, .T. ) ;
#60 = ORIENTED_EDGE ( 'NONE', *, *, #38, .F. ) ;
#61 = ORIENTED_EDGE ( 'NONE', *, *, #62, .F. ) ;
#62 = EDGE_CURVE ( 'NONE', #63, #36, #278, .T. ) ;
#63 = VERTEX_POINT ( 'NONE', #318 ) ;
#64 = VERTEX_POINT ( 'NONE', #317 ) ;
#65 = ORIENTED_EDGE ( 'NONE', *, *, #66, .F. ) ;
#66 = EDGE_CURVE ( 'NONE', #57, #53, #335, .T. ) ;
#67 = ADVANCED_FACE ( 'NONE', ( #331 ), #330, .F. ) ;
#68 = VERTEX_POINT ( 'NONE', #191 ) ;
#69 = ORIENTED_EDGE ( 'NONE', *, *, #59, .F. ) ;
#70 = ORIENTED_EDGE ( 'NONE', *, *, #5, .F. ) ;
#71 = EDGE_LOOP ( 'NONE', ( #29, #30 ) ) ;
#72 = ORIENTED_EDGE ( 'NONE', *, *, #18, .F. ) ;
#73 = ADVANCED_FACE ( 'NONE', ( #190 ), #187, .T. ) ;
#74 = CLOSED_SHELL ( 'NONE', ( #115, #128, #67, #33, #31, #17, #184, #28, #9, #183, #73 ) ) ;
#75 = EDGE_LOOP ( 'NONE', ( #76, #72, #97, #130 ) ) ;
#76 = ORIENTED_EDGE ( 'NONE', *, *, #121, .F. ) ;
#77 = EDGE_LOOP ( 'NONE', ( #10, #101, #6, #4 ) ) ;
#78 = ORIENTED_EDGE ( 'NONE', *, *, #79, .F. ) ;
#79 = EDGE_CURVE ( 'NONE', #125, #122, #188, .T. ) ;
#80 = EDGE_CURVE ( 'NONE', #57, #68, #300, .T. ) ;
#81 = EDGE_LOOP ( 'NONE', ( #78, #100 ) ) ;
#82 = DIRECTION ( 'NONE',  ( 0.0000000000000000000, 0.0000000000000000000, 1.000000000000000000 ) ) ;
#83 = DIRECTION ( 'NONE',  ( 0.0000000000000000000, 1.000000000000000000, 0.0000000000000000000 ) ) ;
#84 = CARTESIAN_POINT ( 'NONE',  ( -5.009326287108706300E-010, 3.499565220943523500E-009, 0.0000000000000000000 ) ) ;
#85 = AXIS2_PLACEMENT_3D ( 'NONE', #84, #83, #82 ) ;
#86 = CIRCLE ( 'NONE', #85, 2.500000000000000400 ) ;
#87 = DIRECTION ( 'NONE',  ( 0.0000000000000000000, 0.0000000000000000000, 1.000000000000000000 ) ) ;
#88 = DIRECTION ( 'NONE',  ( 0.0000000000000000000, 1.000000000000000000, 0.0000000000000000000 ) ) ;
#89 = CARTESIAN_POINT ( 'NONE',  ( -5.009326287108706300E-010, -3.999999996500434900, 0.0000000000000000000 ) ) ;
#90 = AXIS2_PLACEMENT_3D ( 'NONE', #89, #88, #87 ) ;
#91 = CIRCLE ( 'NONE', #90, 2.500000000000001300 ) ;
#92 = DIRECTION ( 'NONE',  ( 0.0000000000000000000, 0.0000000000000000000, 1.000000000000000000 ) ) ;
#93 = DIRECTION ( 'NONE',  ( -1.000000000000000000, 0.0000000000000000000, 0.0000000000000000000 ) ) ;
#94 = CARTESIAN_POINT ( 'NONE',  ( -5.009326287108706300E-010, -0.9999999965004348100, 3.197828393634123900 ) ) ;
#95 = AXIS2_PLACEMENT_3D ( 'NONE', #94, #93, #92 ) ;
#96 = CIRCLE ( 'NONE', #95, 1.000000000000000400 ) ;
#97 = ORIENTED_EDGE ( 'NONE', *, *, #127, .T. ) ;
#98 = EDGE_LOOP ( 'NONE', ( #99, #131 ) ) ;
#99 = ORIENTED_EDGE ( 'NONE', *, *, #80, .T. ) ;
#100 = ORIENTED_EDGE ( 'NONE', *, *, #124, .F. ) ;
#101 = ORIENTED_EDGE ( 'NONE', *, *, #80, .F. ) ;
#102 = DIRECTION ( 'NONE',  ( 0.0000000000000000000, 0.0000000000000000000, 1.000000000000000000 ) ) ;
#103 = DIRECTION ( 'NONE',  ( 0.0000000000000000000, 1.000000000000000000, 0.0000000000000000000 ) ) ;
#104 = AXIS2_PLACEMENT_3D ( 'NONE', #112, #103, #102 ) ;
#105 = CIRCLE ( 'NONE', #104, 2.500000000000001300 ) ;
#106 = FACE_OUTER_BOUND ( 'NONE', #77, .T. ) ;
#107 = DIRECTION ( 'NONE',  ( 0.0000000000000000000, 0.0000000000000000000, 1.000000000000000000 ) ) ;
#108 = DIRECTION ( 'NONE',  ( 0.0000000000000000000, 1.000000000000000000, 0.0000000000000000000 ) ) ;
#109 = CARTESIAN_POINT ( 'NONE',  ( -5.009326287108706300E-010, 3.499565220943523500E-009, 0.0000000000000000000 ) ) ;
#110 = AXIS2_PLACEMENT_3D ( 'NONE', #109, #108, #107 ) ;
#111 = CIRCLE ( 'NONE', #110, 2.500000000000000400 ) ;
#112 = CARTESIAN_POINT ( 'NONE',  ( -5.009326287108706300E-010, -3.999999996500434900, 0.0000000000000000000 ) ) ;
#113 = MANIFOLD_SOLID_BREP ( 'NONE', #74 ) ;
#114 = EDGE_LOOP ( 'NONE', ( #116, #120, #123, #126 ) ) ;
#115 = ADVANCED_FACE ( 'NONE', ( #295 ), #294, .T. ) ;
#116 = ORIENTED_EDGE ( 'NONE', *, *, #117, .F. ) ;
#117 = EDGE_CURVE ( 'NONE', #118, #119, #277, .T. ) ;
#118 = VERTEX_POINT ( 'NONE', #273 ) ;
#119 = VERTEX_POINT ( 'NONE', #272 ) ;
#120 = ORIENTED_EDGE ( 'NONE', *, *, #121, .T. ) ;
#121 = EDGE_CURVE ( 'NONE', #118, #122, #271, .T. ) ;
#122 = VERTEX_POINT ( 'NONE', #267 ) ;
#123 = ORIENTED_EDGE ( 'NONE', *, *, #124, .T. ) ;
#124 = EDGE_CURVE ( 'NONE', #122, #125, #266, .T. ) ;
#125 = VERTEX_POINT ( 'NONE', #261 ) ;
#126 = ORIENTED_EDGE ( 'NONE', *, *, #127, .F. ) ;
#127 = EDGE_CURVE ( 'NONE', #119, #125, #260, .T. ) ;
#128 = ADVANCED_FACE ( 'NONE', ( #256 ), #254, .F. ) ;
#129 = EDGE_LOOP ( 'NONE', ( #69, #55, #52, #65 ) ) ;
#130 = ORIENTED_EDGE ( 'NONE', *, *, #79, .T. ) ;
#131 = ORIENTED_EDGE ( 'NONE', *, *, #59, .T. ) ;
#132 = AXIS2_PLACEMENT_3D ( 'NONE', #182, #181, #180 ) ;
#133 = PLANE ( 'NONE',  #132 ) ;
#134 = FACE_OUTER_BOUND ( 'NONE', #25, .T. ) ;
#135 = FACE_BOUND ( 'NONE', #71, .T. ) ;
#136 = DIRECTION ( 'NONE',  ( 0.0000000000000000000, 0.0000000000000000000, 1.000000000000000000 ) ) ;
#137 = DIRECTION ( 'NONE',  ( 0.0000000000000000000, 1.000000000000000000, 0.0000000000000000000 ) ) ;
#138 = CARTESIAN_POINT ( 'NONE',  ( -5.009326287108706300E-010, -3.999999996500434900, 0.0000000000000000000 ) ) ;
#139 = AXIS2_PLACEMENT_3D ( 'NONE', #138, #137, #136 ) ;
#140 = CIRCLE ( 'NONE', #139, 1.500000000000000000 ) ;
#141 = DIRECTION ( 'NONE',  ( 0.0000000000000000000, 0.0000000000000000000, 1.000000000000000000 ) ) ;
#142 = DIRECTION ( 'NONE',  ( 0.0000000000000000000, 1.000000000000000000, 0.0000000000000000000 ) ) ;
#143 = AXIS2_PLACEMENT_3D ( 'NONE', #149, #142, #141 ) ;
#144 = CIRCLE ( 'NONE', #143, 4.174015453818077100 ) ;
#145 = DIRECTION ( 'NONE',  ( 0.0000000000000000000, 0.0000000000000000000, -1.000000000000000000 ) ) ;
#146 = DIRECTION ( 'NONE',  ( 0.0000000000000000000, -1.000000000000000000, 0.0000000000000000000 ) ) ;
#147 = CARTESIAN_POINT ( 'NONE',  ( 3.197828393133185500, 3.499565387344820200E-009, 0.0000000000000000000 ) ) ;
#148 = AXIS2_PLACEMENT_3D ( 'NONE', #147, #146, #145 ) ;
#149 = CARTESIAN_POINT ( 'NONE',  ( -5.009326287108706300E-010, -0.7830695386817840800, 0.0000000000000000000 ) ) ;
#150 = PLANE ( 'NONE',  #148 ) ;
#151 = FACE_OUTER_BOUND ( 'NONE', #15, .T. ) ;
#152 = DIRECTION ( 'NONE',  ( 0.0000000000000000000, 0.0000000000000000000, 1.000000000000000000 ) ) ;
#153 = DIRECTION ( 'NONE',  ( 0.0000000000000000000, 1.000000000000000000, 0.0000000000000000000 ) ) ;
#154 = CARTESIAN_POINT ( 'NONE',  ( -5.009326287108706300E-010, 3.499565220943523500E-009, 0.0000000000000000000 ) ) ;
#155 = AXIS2_PLACEMENT_3D ( 'NONE', #154, #153, #152 ) ;
#156 = CIRCLE ( 'NONE', #155, 3.197828393634118100 ) ;
#157 = FACE_BOUND ( 'NONE', #8, .T. ) ;
#158 = DIRECTION ( 'NONE',  ( 0.0000000000000000000, 0.0000000000000000000, 1.000000000000000000 ) ) ;
#159 = DIRECTION ( 'NONE',  ( 0.0000000000000000000, 1.000000000000000000, 0.0000000000000000000 ) ) ;
#160 = AXIS2_PLACEMENT_3D ( 'NONE', #162, #159, #158 ) ;
#161 = CYLINDRICAL_SURFACE ( 'NONE', #160, 1.500000000000000200 ) ;
#162 = CARTESIAN_POINT ( 'NONE',  ( -5.009326287108706300E-010, 2.412507003500041800, 0.0000000000000000000 ) ) ;
#163 = CARTESIAN_POINT ( 'NONE',  ( -5.009321773305299000E-010, 3.499565220943523500E-009, -3.197828393634118100 ) ) ;
#164 = DIRECTION ( 'NONE',  ( 0.0000000000000000000, 0.0000000000000000000, 1.000000000000000000 ) ) ;
#165 = DIRECTION ( 'NONE',  ( 0.0000000000000000000, 1.000000000000000000, 0.0000000000000000000 ) ) ;
#166 = AXIS2_PLACEMENT_3D ( 'NONE', #168, #165, #164 ) ;
#167 = TOROIDAL_SURFACE ( 'NONE', #166, 3.197828393634123900, 1.000000000000000000 ) ;
#168 = CARTESIAN_POINT ( 'NONE',  ( -5.009326287108706300E-010, -0.9999999965004348100, 0.0000000000000000000 ) ) ;
#169 = FACE_OUTER_BOUND ( 'NONE', #34, .T. ) ;
#170 = DIRECTION ( 'NONE',  ( 0.0000000000000000000, 1.000000000000000000, 0.0000000000000000000 ) ) ;
#171 = VECTOR ( 'NONE', #170, 1000.000000000000000 ) ;
#172 = CARTESIAN_POINT ( 'NONE',  ( -5.009326287108706300E-010, 2.412507003500041800, 2.500000000000000900 ) ) ;
#173 = LINE ( 'NONE', #172, #171 ) ;
#174 = DIRECTION ( 'NONE',  ( 0.0000000000000000000, 0.0000000000000000000, 1.000000000000000000 ) ) ;
#175 = DIRECTION ( 'NONE',  ( 0.0000000000000000000, 1.000000000000000000, 0.0000000000000000000 ) ) ;
#176 = CARTESIAN_POINT ( 'NONE',  ( -5.009326287108706300E-010, -0.9999999965004348100, 0.0000000000000000000 ) ) ;
#177 = AXIS2_PLACEMENT_3D ( 'NONE', #176, #175, #174 ) ;
#178 = TOROIDAL_SURFACE ( 'NONE', #177, 3.197828393634123900, 1.000000000000000000 ) ;
#179 = FACE_OUTER_BOUND ( 'NONE', #51, .T. ) ;
#180 = DIRECTION ( 'NONE',  ( 0.0000000000000000000, 0.0000000000000000000, -1.000000000000000000 ) ) ;
#181 = DIRECTION ( 'NONE',  ( 0.0000000000000000000, -1.000000000000000000, 0.0000000000000000000 ) ) ;
#182 = CARTESIAN_POINT ( 'NONE',  ( 2.499999999499068700, -3.999999996500434900, 0.0000000000000000000 ) ) ;
#183 = ADVANCED_FACE ( 'NONE', ( #249, #248 ), #255, .F. ) ;
#184 = ADVANCED_FACE ( 'NONE', ( #243 ), #242, .F. ) ;
#185 = CARTESIAN_POINT ( 'NONE',  ( -5.009326287108706300E-010, -8.999999996500434900, 0.0000000000000000000 ) ) ;
#186 = AXIS2_PLACEMENT_3D ( 'NONE', #185, #189, #305 ) ;
#187 = CONICAL_SURFACE ( 'NONE', #186, 6.000000000000000000, 0.2186689458739420100 ) ;
#188 = CIRCLE ( 'NONE', #304, 6.000000000000000000 ) ;
#189 = DIRECTION ( 'NONE',  ( 0.0000000000000000000, -1.000000000000000000, 0.0000000000000000000 ) ) ;
#190 = FACE_OUTER_BOUND ( 'NONE', #75, .T. ) ;
#191 = CARTESIAN_POINT ( 'NONE',  ( -5.009324450199175600E-010, -8.999999996500434900, -1.500000000000000700 ) ) ;
#192 = DIRECTION ( 'NONE',  ( 0.0000000000000000000, 0.0000000000000000000, 1.000000000000000000 ) ) ;
#193 = DIRECTION ( 'NONE',  ( 0.0000000000000000000, 1.000000000000000000, 0.0000000000000000000 ) ) ;
#194 = CARTESIAN_POINT ( 'NONE',  ( -5.009326287108706300E-010, 2.412507003500041800, 0.0000000000000000000 ) ) ;
#195 = AXIS2_PLACEMENT_3D ( 'NONE', #194, #193, #192 ) ;
#196 = DATE_AND_TIME ( #197, #198 ) ;
#197 = CALENDAR_DATE ( 2009, 29, 6 ) ;
#198 = LOCAL_TIME ( 10, 16, 43.00000000000000000, #199 ) ;
#199 = COORDINATED_UNIVERSAL_TIME_OFFSET ( 9, 0, .AHEAD. ) ;
#200 = CC_DESIGN_PERSON_AND_ORGANIZATION_ASSIGNMENT ( #202, #201, ( #214 ) ) ;
#201 = PERSON_AND_ORGANIZATION_ROLE ( 'creator' ) ;
#202 = PERSON_AND_ORGANIZATION ( #222, #221 ) ;
#203 = CC_DESIGN_APPROVAL ( #211, ( #214 ) ) ;
#204 = APPROVAL_DATE_TIME ( #205, #211 ) ;
#205 = DATE_AND_TIME ( #206, #207 ) ;
#206 = CALENDAR_DATE ( 2009, 29, 6 ) ;
#207 = LOCAL_TIME ( 10, 16, 43.00000000000000000, #208 ) ;
#208 = COORDINATED_UNIVERSAL_TIME_OFFSET ( 9, 0, .AHEAD. ) ;
#209 = APPROVAL_PERSON_ORGANIZATION ( #213, #211, #210 ) ;
#210 = APPROVAL_ROLE ( '' ) ;
#211 = APPROVAL ( #212, 'UNSPECIFIED' ) ;
#212 = APPROVAL_STATUS ( 'not_yet_approved' ) ;
#213 = PERSON_AND_ORGANIZATION ( #222, #221 ) ;
#214 = PRODUCT_DEFINITION ( 'UNKNOWN', '', #379, #215 ) ;
#215 = DESIGN_CONTEXT ( 'detailed design', #217, 'design' ) ;
#216 = APPLICATION_PROTOCOL_DEFINITION ( 'international standard', 'config_control_design', 1994, #217 ) ;
#217 = APPLICATION_CONTEXT ( 'configuration controlled 3d designs of mechanical parts and assemblies' ) ;
#218 = CC_DESIGN_PERSON_AND_ORGANIZATION_ASSIGNMENT ( #220, #219, ( #223 ) ) ;
#219 = PERSON_AND_ORGANIZATION_ROLE ( 'design_owner' ) ;
#220 = PERSON_AND_ORGANIZATION ( #222, #221 ) ;
#221 = ORGANIZATION ( 'UNSPECIFIED', 'UNSPECIFIED', '' ) ;
#222 = PERSON ( 'UNSPECIFIED', 'UNSPECIFIED', 'UNSPECIFIED', ('UNSPECIFIED'), ('UNSPECIFIED'), ('UNSPECIFIED') ) ;
#223 = PRODUCT ( 'C-30-RK-12-gray', 'C-30-RK-12-gray', '', ( #224 ) ) ;
#224 = MECHANICAL_CONTEXT ( 'NONE', #226, 'mechanical' ) ;
#225 = APPLICATION_PROTOCOL_DEFINITION ( 'international standard', 'config_control_design', 1994, #226 ) ;
#226 = APPLICATION_CONTEXT ( 'configuration controlled 3d designs of mechanical parts and assemblies' ) ;
#227 = DIRECTION ( 'NONE',  ( 1.000000000000000000, 0.0000000000000000000, 0.0000000000000000000 ) ) ;
#228 = DIRECTION ( 'NONE',  ( 0.0000000000000000000, 0.0000000000000000000, 1.000000000000000000 ) ) ;
#229 = AXIS2_PLACEMENT_3D ( 'NONE', #241, #228, #227 ) ;
#230 = SHAPE_DEFINITION_REPRESENTATION ( #324, #231 ) ;
#231 = ADVANCED_BREP_SHAPE_REPRESENTATION ( 'C-30-RK-12-gray', ( #113, #229 ), #232 ) ;
#232 =( GEOMETRIC_REPRESENTATION_CONTEXT ( 3 ) GLOBAL_UNCERTAINTY_ASSIGNED_CONTEXT ( ( #233 ) ) GLOBAL_UNIT_ASSIGNED_CONTEXT ( ( #236, #235, #234 ) ) REPRESENTATION_CONTEXT ( 'NONE', 'WORKASPACE' ) );
#233 = UNCERTAINTY_MEASURE_WITH_UNIT (LENGTH_MEASURE( 1.000000000000000100E-005 ), #236, 'distance_accuracy_value', 'NONE');
#234 =( NAMED_UNIT ( * ) SI_UNIT ( $, .STERADIAN. ) SOLID_ANGLE_UNIT ( ) );
#235 =( NAMED_UNIT ( * ) PLANE_ANGLE_UNIT ( ) SI_UNIT ( $, .RADIAN. ) );
#236 =( LENGTH_UNIT ( ) NAMED_UNIT ( * ) SI_UNIT ( .MILLI., .METRE. ) );
#237 = DIRECTION ( 'NONE',  ( 0.0000000000000000000, 0.0000000000000000000, 1.000000000000000000 ) ) ;
#238 = DIRECTION ( 'NONE',  ( 0.0000000000000000000, 1.000000000000000000, 0.0000000000000000000 ) ) ;
#239 = CARTESIAN_POINT ( 'NONE',  ( -5.009326287108706300E-010, 2.412507003500041800, 0.0000000000000000000 ) ) ;
#240 = AXIS2_PLACEMENT_3D ( 'NONE', #239, #238, #237 ) ;
#241 = CARTESIAN_POINT ( 'NONE',  ( 0.0000000000000000000, 0.0000000000000000000, 0.0000000000000000000 ) ) ;
#242 = CYLINDRICAL_SURFACE ( 'NONE', #240, 2.500000000000000900 ) ;
#243 = FACE_OUTER_BOUND ( 'NONE', #22, .T. ) ;
#244 = DIRECTION ( 'NONE',  ( 0.0000000000000000000, 0.0000000000000000000, 1.000000000000000000 ) ) ;
#245 = DIRECTION ( 'NONE',  ( 0.0000000000000000000, 1.000000000000000000, 0.0000000000000000000 ) ) ;
#246 = CARTESIAN_POINT ( 'NONE',  ( 1.499999999499067800, -8.999999996500434900, 0.0000000000000000000 ) ) ;
#247 = AXIS2_PLACEMENT_3D ( 'NONE', #246, #245, #244 ) ;
#248 = FACE_BOUND ( 'NONE', #98, .T. ) ;
#249 = FACE_OUTER_BOUND ( 'NONE', #81, .T. ) ;
#250 = DIRECTION ( 'NONE',  ( 0.0000000000000000000, 0.0000000000000000000, 1.000000000000000000 ) ) ;
#251 = DIRECTION ( 'NONE',  ( 0.0000000000000000000, 1.000000000000000000, 0.0000000000000000000 ) ) ;
#252 = CARTESIAN_POINT ( 'NONE',  ( -5.009326287108706300E-010, 2.412507003500041800, 0.0000000000000000000 ) ) ;
#253 = AXIS2_PLACEMENT_3D ( 'NONE', #252, #251, #250 ) ;
#254 = CYLINDRICAL_SURFACE ( 'NONE', #253, 1.500000000000000200 ) ;
#255 = PLANE ( 'NONE',  #247 ) ;
#256 = FACE_OUTER_BOUND ( 'NONE', #129, .T. ) ;
#257 = DIRECTION ( 'NONE',  ( 0.0000000000000000000, -0.9761870601839527400, -0.2169304578186562200 ) ) ;
#258 = VECTOR ( 'NONE', #257, 1000.000000000000000 ) ;
#259 = CARTESIAN_POINT ( 'NONE',  ( -5.009326287108706300E-010, -8.999999996500434900, -6.000000000000000000 ) ) ;
#260 = LINE ( 'NONE', #259, #258 ) ;
#261 = CARTESIAN_POINT ( 'NONE',  ( -5.009326287108706300E-010, -8.999999996500434900, -6.000000000000000000 ) ) ;
#262 = DIRECTION ( 'NONE',  ( 0.0000000000000000000, 0.0000000000000000000, 1.000000000000000000 ) ) ;
#263 = DIRECTION ( 'NONE',  ( 0.0000000000000000000, 1.000000000000000000, 0.0000000000000000000 ) ) ;
#264 = CARTESIAN_POINT ( 'NONE',  ( -5.009326287108706300E-010, -8.999999996500434900, 0.0000000000000000000 ) ) ;
#265 = AXIS2_PLACEMENT_3D ( 'NONE', #264, #263, #262 ) ;
#266 = CIRCLE ( 'NONE', #265, 6.000000000000000000 ) ;
#267 = CARTESIAN_POINT ( 'NONE',  ( -5.009318939470583400E-010, -8.999999996500434900, 6.000000000000000000 ) ) ;
#268 = DIRECTION ( 'NONE',  ( 2.656544169823236000E-017, -0.9761870601839527400, 0.2169304578186562200 ) ) ;
#269 = VECTOR ( 'NONE', #268, 1000.000000000000000 ) ;
#270 = CARTESIAN_POINT ( 'NONE',  ( -5.009318939470583400E-010, -8.999999996500434900, 6.000000000000000000 ) ) ;
#271 = LINE ( 'NONE', #270, #269 ) ;
#272 = CARTESIAN_POINT ( 'NONE',  ( -5.009321175582860600E-010, -0.7830695386817840800, -4.174015453818077100 ) ) ;
#273 = CARTESIAN_POINT ( 'NONE',  ( -5.009326287108706300E-010, -0.7830695386817840800, 4.174015453818077100 ) ) ;
#274 = DIRECTION ( 'NONE',  ( 0.0000000000000000000, 0.0000000000000000000, 1.000000000000000000 ) ) ;
#275 = DIRECTION ( 'NONE',  ( 0.0000000000000000000, 1.000000000000000000, 0.0000000000000000000 ) ) ;
#276 = AXIS2_PLACEMENT_3D ( 'NONE', #293, #275, #274 ) ;
#277 = CIRCLE ( 'NONE', #276, 4.174015453818077100 ) ;
#278 = CIRCLE ( 'NONE', #322, 3.197828393634118100 ) ;
#279 = DIRECTION ( 'NONE',  ( 0.0000000000000000000, 0.0000000000000000000, 1.000000000000000000 ) ) ;
#280 = DIRECTION ( 'NONE',  ( 0.0000000000000000000, 1.000000000000000000, 0.0000000000000000000 ) ) ;
#281 = CARTESIAN_POINT ( 'NONE',  ( -5.009326287108706300E-010, -8.999999996500434900, 0.0000000000000000000 ) ) ;
#282 = AXIS2_PLACEMENT_3D ( 'NONE', #281, #280, #279 ) ;
#283 = DIRECTION ( 'NONE',  ( 0.0000000000000000000, 0.0000000000000000000, 1.000000000000000000 ) ) ;
#284 = DIRECTION ( 'NONE',  ( 0.0000000000000000000, 1.000000000000000000, 0.0000000000000000000 ) ) ;
#285 = CARTESIAN_POINT ( 'NONE',  ( -5.009326287108706300E-010, -3.999999996500434900, 0.0000000000000000000 ) ) ;
#286 = AXIS2_PLACEMENT_3D ( 'NONE', #285, #284, #283 ) ;
#287 = CIRCLE ( 'NONE', #286, 1.500000000000000000 ) ;
#288 = LINE ( 'NONE', #316, #315 ) ;
#289 = DIRECTION ( 'NONE',  ( 0.0000000000000000000, 0.0000000000000000000, -1.000000000000000000 ) ) ;
#290 = DIRECTION ( 'NONE',  ( 0.0000000000000000000, -1.000000000000000000, 0.0000000000000000000 ) ) ;
#291 = CARTESIAN_POINT ( 'NONE',  ( -5.009326287108706300E-010, -8.999999996500434900, 0.0000000000000000000 ) ) ;
#292 = AXIS2_PLACEMENT_3D ( 'NONE', #291, #290, #289 ) ;
#293 = CARTESIAN_POINT ( 'NONE',  ( -5.009326287108706300E-010, -0.7830695386817840800, 0.0000000000000000000 ) ) ;
#294 = CONICAL_SURFACE ( 'NONE', #292, 6.000000000000000000, 0.2186689458739420100 ) ;
#295 = FACE_OUTER_BOUND ( 'NONE', #114, .T. ) ;
#296 = DIRECTION ( 'NONE',  ( 0.0000000000000000000, 0.0000000000000000000, 1.000000000000000000 ) ) ;
#297 = DIRECTION ( 'NONE',  ( 0.0000000000000000000, 1.000000000000000000, 0.0000000000000000000 ) ) ;
#298 = CARTESIAN_POINT ( 'NONE',  ( -5.009326287108706300E-010, -8.999999996500434900, 0.0000000000000000000 ) ) ;
#299 = AXIS2_PLACEMENT_3D ( 'NONE', #298, #297, #296 ) ;
#300 = CIRCLE ( 'NONE', #299, 1.500000000000000400 ) ;
#301 = DIRECTION ( 'NONE',  ( 0.0000000000000000000, 0.0000000000000000000, 1.000000000000000000 ) ) ;
#302 = DIRECTION ( 'NONE',  ( 0.0000000000000000000, 1.000000000000000000, 0.0000000000000000000 ) ) ;
#303 = CARTESIAN_POINT ( 'NONE',  ( -5.009326287108706300E-010, -8.999999996500434900, 0.0000000000000000000 ) ) ;
#304 = AXIS2_PLACEMENT_3D ( 'NONE', #303, #302, #301 ) ;
#305 = DIRECTION ( 'NONE',  ( 0.0000000000000000000, 0.0000000000000000000, -1.000000000000000000 ) ) ;
#306 = CARTESIAN_POINT ( 'NONE',  ( -5.009322371027737400E-010, -0.9999999965004348100, -3.197828393634123900 ) ) ;
#307 = DIRECTION ( 'NONE',  ( 1.224606353612350400E-016, 0.0000000000000000000, -1.000000000000000000 ) ) ;
#308 = DIRECTION ( 'NONE',  ( 1.000000000000000000, 0.0000000000000000000, 1.224606353822377300E-016 ) ) ;
#309 = CIRCLE ( 'NONE', #312, 1.000000000000000400 ) ;
#310 = CARTESIAN_POINT ( 'NONE',  ( -5.009323225592821800E-010, 3.499565220943523500E-009, -2.500000000000000400 ) ) ;
#311 = CARTESIAN_POINT ( 'NONE',  ( -5.009323225592821800E-010, -3.999999996500434900, -2.500000000000001300 ) ) ;
#312 = AXIS2_PLACEMENT_3D ( 'NONE', #306, #308, #307 ) ;
#313 = CARTESIAN_POINT ( 'NONE',  ( -5.009326287108706300E-010, -8.999999996500434900, 1.500000000000000400 ) ) ;
#314 = DIRECTION ( 'NONE',  ( 0.0000000000000000000, 1.000000000000000000, 0.0000000000000000000 ) ) ;
#315 = VECTOR ( 'NONE', #314, 1000.000000000000000 ) ;
#316 = CARTESIAN_POINT ( 'NONE',  ( -5.009324450199175600E-010, 2.412507003500041800, -1.500000000000000200 ) ) ;
#317 = CARTESIAN_POINT ( 'NONE',  ( -5.009326287108706300E-010, -3.999999996500434900, 2.500000000000001300 ) ) ;
#318 = CARTESIAN_POINT ( 'NONE',  ( -5.009326287108706300E-010, 3.499565220943523500E-009, 3.197828393634118100 ) ) ;
#319 = DIRECTION ( 'NONE',  ( 0.0000000000000000000, 0.0000000000000000000, 1.000000000000000000 ) ) ;
#320 = DIRECTION ( 'NONE',  ( 0.0000000000000000000, 1.000000000000000000, 0.0000000000000000000 ) ) ;
#321 = CARTESIAN_POINT ( 'NONE',  ( -5.009326287108706300E-010, 3.499565220943523500E-009, 0.0000000000000000000 ) ) ;
#322 = AXIS2_PLACEMENT_3D ( 'NONE', #321, #320, #319 ) ;
#323 = CARTESIAN_POINT ( 'NONE',  ( -5.009326287108706300E-010, 3.499565220943523500E-009, 2.500000000000000400 ) ) ;
#324 = PRODUCT_DEFINITION_SHAPE ( 'NONE', 'NONE',  #214 ) ;
#325 = PRODUCT_RELATED_PRODUCT_CATEGORY ( 'detail', '', ( #223 ) ) ;
#326 = CC_DESIGN_SECURITY_CLASSIFICATION ( #360, ( #379 ) ) ;
#327 = CARTESIAN_POINT ( 'NONE',  ( -5.009326287108706300E-010, -3.999999996500434900, 1.500000000000000000 ) ) ;
#328 = CIRCLE ( 'NONE', #282, 1.500000000000000400 ) ;
#329 = CARTESIAN_POINT ( 'NONE',  ( -5.009324450199175600E-010, -3.999999996500434900, -1.500000000000000000 ) ) ;
#330 = CYLINDRICAL_SURFACE ( 'NONE', #195, 2.500000000000000900 ) ;
#331 = FACE_OUTER_BOUND ( 'NONE', #37, .T. ) ;
#332 = DIRECTION ( 'NONE',  ( 0.0000000000000000000, 1.000000000000000000, 0.0000000000000000000 ) ) ;
#333 = VECTOR ( 'NONE', #332, 1000.000000000000000 ) ;
#334 = CARTESIAN_POINT ( 'NONE',  ( -5.009326287108706300E-010, 2.412507003500041800, 1.500000000000000200 ) ) ;
#335 = LINE ( 'NONE', #334, #333 ) ;
#336 = DIRECTION ( 'NONE',  ( 0.0000000000000000000, 1.000000000000000000, 0.0000000000000000000 ) ) ;
#337 = VECTOR ( 'NONE', #336, 1000.000000000000000 ) ;
#338 = CARTESIAN_POINT ( 'NONE',  ( -5.009323225592821800E-010, 2.412507003500041800, -2.500000000000000900 ) ) ;
#339 = LINE ( 'NONE', #338, #337 ) ;
#340 = CC_DESIGN_APPROVAL ( #348, ( #360 ) ) ;
#341 = APPROVAL_DATE_TIME ( #342, #348 ) ;
#342 = DATE_AND_TIME ( #343, #344 ) ;
#343 = CALENDAR_DATE ( 2009, 29, 6 ) ;
#344 = LOCAL_TIME ( 10, 16, 43.00000000000000000, #345 ) ;
#345 = COORDINATED_UNIVERSAL_TIME_OFFSET ( 9, 0, .AHEAD. ) ;
#346 = APPROVAL_PERSON_ORGANIZATION ( #350, #348, #347 ) ;
#347 = APPROVAL_ROLE ( '' ) ;
#348 = APPROVAL ( #349, 'UNSPECIFIED' ) ;
#349 = APPROVAL_STATUS ( 'not_yet_approved' ) ;
#350 = PERSON_AND_ORGANIZATION ( #222, #221 ) ;
#351 = CC_DESIGN_DATE_AND_TIME_ASSIGNMENT ( #353, #352, ( #360 ) ) ;
#352 = DATE_TIME_ROLE ( 'classification_date' ) ;
#353 = DATE_AND_TIME ( #354, #355 ) ;
#354 = CALENDAR_DATE ( 2009, 29, 6 ) ;
#355 = LOCAL_TIME ( 10, 16, 43.00000000000000000, #356 ) ;
#356 = COORDINATED_UNIVERSAL_TIME_OFFSET ( 9, 0, .AHEAD. ) ;
#357 = CC_DESIGN_PERSON_AND_ORGANIZATION_ASSIGNMENT ( #359, #358, ( #360 ) ) ;
#358 = PERSON_AND_ORGANIZATION_ROLE ( 'classification_officer' ) ;
#359 = PERSON_AND_ORGANIZATION ( #222, #221 ) ;
#360 = SECURITY_CLASSIFICATION ( '', '', #361 ) ;
#361 = SECURITY_CLASSIFICATION_LEVEL ( 'unclassified' ) ;
#362 = CC_DESIGN_PERSON_AND_ORGANIZATION_ASSIGNMENT ( #364, #363, ( #379 ) ) ;
#363 = PERSON_AND_ORGANIZATION_ROLE ( 'design_supplier' ) ;
#364 = PERSON_AND_ORGANIZATION ( #222, #221 ) ;
#365 = CC_DESIGN_PERSON_AND_ORGANIZATION_ASSIGNMENT ( #367, #366, ( #379 ) ) ;
#366 = PERSON_AND_ORGANIZATION_ROLE ( 'creator' ) ;
#367 = PERSON_AND_ORGANIZATION ( #222, #221 ) ;
#368 = CC_DESIGN_APPROVAL ( #376, ( #379 ) ) ;
#369 = APPROVAL_DATE_TIME ( #370, #376 ) ;
#370 = DATE_AND_TIME ( #371, #372 ) ;
#371 = CALENDAR_DATE ( 2009, 29, 6 ) ;
#372 = LOCAL_TIME ( 10, 16, 43.00000000000000000, #373 ) ;
#373 = COORDINATED_UNIVERSAL_TIME_OFFSET ( 9, 0, .AHEAD. ) ;
#374 = APPROVAL_PERSON_ORGANIZATION ( #378, #376, #375 ) ;
#375 = APPROVAL_ROLE ( '' ) ;
#376 = APPROVAL ( #377, 'UNSPECIFIED' ) ;
#377 = APPROVAL_STATUS ( 'not_yet_approved' ) ;
#378 = PERSON_AND_ORGANIZATION ( #222, #221 ) ;
#379 = PRODUCT_DEFINITION_FORMATION_WITH_SPECIFIED_SOURCE ( 'ANY', '', #223, .NOT_KNOWN. ) ;
#380 = CC_DESIGN_DATE_AND_TIME_ASSIGNMENT ( #196, #381, ( #214 ) ) ;
#381 = DATE_TIME_ROLE ( 'creation_date' ) ;
ENDSEC;
END-ISO-10303-21;
