ISO-10303-21;
HEADER;
FILE_DESCRIPTION (( 'STEP AP203' ),
    '1' );
FILE_NAME ('C-30-RK-12.STEP',
    '2009-06-26T04:23:20',
    ( '11sw' ),
    ( '^LQ»¢®ïÐ' ),
    'SwSTEP 2.0',
    'SolidWorks 2007',
    '' );
FILE_SCHEMA (( 'CONFIG_CONTROL_DESIGN' ));
ENDSEC;

DATA;
#1 = CIRCLE ( 'NONE', #4, 3.197828393634118100 ) ;
#2 = DIRECTION ( 'NONE',  ( 0.0000000000000000000, 1.000000000000000000, 0.0000000000000000000 ) ) ;
#3 = CARTESIAN_POINT ( 'NONE',  ( -5.009326287108706300E-010, 3.499565220943523500E-009, 0.0000000000000000000 ) ) ;
#4 = AXIS2_PLACEMENT_3D ( 'NONE', #3, #2, #5 ) ;
#5 = DIRECTION ( 'NONE',  ( 0.0000000000000000000, 0.0000000000000000000, 1.000000000000000000 ) ) ;
#6 = DIRECTION ( 'NONE',  ( 0.0000000000000000000, 0.0000000000000000000, 1.000000000000000000 ) ) ;
#7 = DIRECTION ( 'NONE',  ( 0.0000000000000000000, 1.000000000000000000, 0.0000000000000000000 ) ) ;
#8 = CARTESIAN_POINT ( 'NONE',  ( -5.009326287108706300E-010, -0.7830695386817840800, 0.0000000000000000000 ) ) ;
#9 = AXIS2_PLACEMENT_3D ( 'NONE', #8, #7, #6 ) ;
#10 = CIRCLE ( 'NONE', #9, 4.174015453818077100 ) ;
#11 = DIRECTION ( 'NONE',  ( 0.0000000000000000000, 0.0000000000000000000, 1.000000000000000000 ) ) ;
#12 = DIRECTION ( 'NONE',  ( 0.0000000000000000000, 1.000000000000000000, 0.0000000000000000000 ) ) ;
#13 = CARTESIAN_POINT ( 'NONE',  ( 1.499999999499067800, -8.999999996500434900, 0.0000000000000000000 ) ) ;
#14 = AXIS2_PLACEMENT_3D ( 'NONE', #13, #12, #11 ) ;
#15 = FACE_BOUND ( 'NONE', #149, .T. ) ;
#16 = FACE_OUTER_BOUND ( 'NONE', #154, .T. ) ;
#17 = DIRECTION ( 'NONE',  ( 0.0000000000000000000, 0.0000000000000000000, 1.000000000000000000 ) ) ;
#18 = DIRECTION ( 'NONE',  ( 0.0000000000000000000, 1.000000000000000000, 0.0000000000000000000 ) ) ;
#19 = CARTESIAN_POINT ( 'NONE',  ( -5.009326287108706300E-010, 2.412507003500041800, 0.0000000000000000000 ) ) ;
#20 = AXIS2_PLACEMENT_3D ( 'NONE', #19, #18, #17 ) ;
#21 = PLANE ( 'NONE',  #14 ) ;
#22 = CYLINDRICAL_SURFACE ( 'NONE', #20, 1.500000000000000200 ) ;
#23 = FACE_OUTER_BOUND ( 'NONE', #138, .T. ) ;
#24 = DIRECTION ( 'NONE',  ( 0.0000000000000000000, 0.0000000000000000000, 1.000000000000000000 ) ) ;
#25 = DIRECTION ( 'NONE',  ( 0.0000000000000000000, 1.000000000000000000, 0.0000000000000000000 ) ) ;
#26 = CARTESIAN_POINT ( 'NONE',  ( -5.009326287108706300E-010, -8.999999996500434900, 0.0000000000000000000 ) ) ;
#27 = AXIS2_PLACEMENT_3D ( 'NONE', #26, #25, #24 ) ;
#28 = CIRCLE ( 'NONE', #27, 6.000000000000000000 ) ;
#29 = DIRECTION ( 'NONE',  ( 0.0000000000000000000, 0.0000000000000000000, 1.000000000000000000 ) ) ;
#30 = DIRECTION ( 'NONE',  ( 0.0000000000000000000, 1.000000000000000000, 0.0000000000000000000 ) ) ;
#31 = AXIS2_PLACEMENT_3D ( 'NONE', #38, #30, #29 ) ;
#32 = CIRCLE ( 'NONE', #31, 1.500000000000000400 ) ;
#33 = DIRECTION ( 'NONE',  ( 0.0000000000000000000, 0.0000000000000000000, -1.000000000000000000 ) ) ;
#34 = DIRECTION ( 'NONE',  ( 0.0000000000000000000, -1.000000000000000000, 0.0000000000000000000 ) ) ;
#35 = CARTESIAN_POINT ( 'NONE',  ( -5.009326287108706300E-010, -8.999999996500434900, 0.0000000000000000000 ) ) ;
#36 = AXIS2_PLACEMENT_3D ( 'NONE', #35, #34, #33 ) ;
#37 = CONICAL_SURFACE ( 'NONE', #36, 6.000000000000000000, 0.2186689458739420100 ) ;
#38 = CARTESIAN_POINT ( 'NONE',  ( -5.009326287108706300E-010, -8.999999996500434900, 0.0000000000000000000 ) ) ;
#39 = FACE_OUTER_BOUND ( 'NONE', #136, .T. ) ;
#40 = DIRECTION ( 'NONE',  ( 0.0000000000000000000, -0.9761870601839527400, -0.2169304578186562200 ) ) ;
#41 = VECTOR ( 'NONE', #40, 1000.000000000000000 ) ;
#42 = CARTESIAN_POINT ( 'NONE',  ( -5.009326287108706300E-010, -8.999999996500434900, -6.000000000000000000 ) ) ;
#43 = LINE ( 'NONE', #42, #41 ) ;
#44 = CARTESIAN_POINT ( 'NONE',  ( -5.009326287108706300E-010, -8.999999996500434900, -6.000000000000000000 ) ) ;
#45 = DIRECTION ( 'NONE',  ( 0.0000000000000000000, 0.0000000000000000000, 1.000000000000000000 ) ) ;
#46 = DIRECTION ( 'NONE',  ( 0.0000000000000000000, 1.000000000000000000, 0.0000000000000000000 ) ) ;
#47 = CARTESIAN_POINT ( 'NONE',  ( -5.009326287108706300E-010, -8.999999996500434900, 0.0000000000000000000 ) ) ;
#48 = AXIS2_PLACEMENT_3D ( 'NONE', #47, #46, #45 ) ;
#49 = CIRCLE ( 'NONE', #48, 6.000000000000000000 ) ;
#50 = CARTESIAN_POINT ( 'NONE',  ( -5.009318939470583400E-010, -8.999999996500434900, 6.000000000000000000 ) ) ;
#51 = DIRECTION ( 'NONE',  ( 2.656544169823236000E-017, -0.9761870601839527400, 0.2169304578186562200 ) ) ;
#52 = VECTOR ( 'NONE', #51, 1000.000000000000000 ) ;
#53 = CARTESIAN_POINT ( 'NONE',  ( -5.009318939470583400E-010, -8.999999996500434900, 6.000000000000000000 ) ) ;
#54 = LINE ( 'NONE', #53, #52 ) ;
#55 = CARTESIAN_POINT ( 'NONE',  ( -5.009321175582860600E-010, -0.7830695386817840800, -4.174015453818078000 ) ) ;
#56 = CARTESIAN_POINT ( 'NONE',  ( -5.009326287108706300E-010, -0.7830695386817840800, 4.174015453818078000 ) ) ;
#57 = DIRECTION ( 'NONE',  ( 0.0000000000000000000, 0.0000000000000000000, 1.000000000000000000 ) ) ;
#58 = DIRECTION ( 'NONE',  ( 0.0000000000000000000, 1.000000000000000000, 0.0000000000000000000 ) ) ;
#59 = CARTESIAN_POINT ( 'NONE',  ( -5.009326287108706300E-010, -0.7830695386817840800, 0.0000000000000000000 ) ) ;
#60 = AXIS2_PLACEMENT_3D ( 'NONE', #59, #58, #57 ) ;
#61 = DIRECTION ( 'NONE',  ( 0.0000000000000000000, 0.0000000000000000000, -1.000000000000000000 ) ) ;
#62 = DIRECTION ( 'NONE',  ( 0.0000000000000000000, -1.000000000000000000, 0.0000000000000000000 ) ) ;
#63 = CARTESIAN_POINT ( 'NONE',  ( -5.009326287108706300E-010, -8.999999996500434900, 0.0000000000000000000 ) ) ;
#64 = AXIS2_PLACEMENT_3D ( 'NONE', #63, #62, #61 ) ;
#65 = CIRCLE ( 'NONE', #60, 4.174015453818077100 ) ;
#66 = CONICAL_SURFACE ( 'NONE', #64, 6.000000000000000000, 0.2186689458739420100 ) ;
#67 = DIRECTION ( 'NONE',  ( 0.0000000000000000000, 0.0000000000000000000, 1.000000000000000000 ) ) ;
#68 = DIRECTION ( 'NONE',  ( 0.0000000000000000000, 1.000000000000000000, 0.0000000000000000000 ) ) ;
#69 = CARTESIAN_POINT ( 'NONE',  ( -5.009326287108706300E-010, 2.412507003500041800, 0.0000000000000000000 ) ) ;
#70 = AXIS2_PLACEMENT_3D ( 'NONE', #69, #68, #67 ) ;
#71 = CYLINDRICAL_SURFACE ( 'NONE', #70, 2.500000000000000900 ) ;
#72 = FACE_OUTER_BOUND ( 'NONE', #132, .T. ) ;
#73 = FACE_OUTER_BOUND ( 'NONE', #117, .T. ) ;
#74 = DIRECTION ( 'NONE',  ( 0.0000000000000000000, 1.000000000000000000, 0.0000000000000000000 ) ) ;
#75 = VECTOR ( 'NONE', #74, 1000.000000000000000 ) ;
#76 = CARTESIAN_POINT ( 'NONE',  ( -5.009326287108706300E-010, 2.412507003500041800, 1.500000000000000200 ) ) ;
#77 = LINE ( 'NONE', #76, #75 ) ;
#78 = CARTESIAN_POINT ( 'NONE',  ( -5.009326287108706300E-010, -3.999999996500434900, 1.500000000000000000 ) ) ;
#79 = DIRECTION ( 'NONE',  ( 0.0000000000000000000, 0.0000000000000000000, 1.000000000000000000 ) ) ;
#80 = DIRECTION ( 'NONE',  ( 0.0000000000000000000, 1.000000000000000000, 0.0000000000000000000 ) ) ;
#81 = CARTESIAN_POINT ( 'NONE',  ( -5.009326287108706300E-010, -3.999999996500434900, 0.0000000000000000000 ) ) ;
#82 = AXIS2_PLACEMENT_3D ( 'NONE', #81, #80, #79 ) ;
#83 = CIRCLE ( 'NONE', #82, 1.500000000000000000 ) ;
#84 = CARTESIAN_POINT ( 'NONE',  ( -5.009324450199175600E-010, -3.999999996500434900, -1.500000000000000000 ) ) ;
#85 = DIRECTION ( 'NONE',  ( 0.0000000000000000000, 1.000000000000000000, 0.0000000000000000000 ) ) ;
#86 = VECTOR ( 'NONE', #85, 1000.000000000000000 ) ;
#87 = CARTESIAN_POINT ( 'NONE',  ( -5.009324450199175600E-010, 2.412507003500041800, -1.500000000000000200 ) ) ;
#88 = LINE ( 'NONE', #87, #86 ) ;
#89 = CARTESIAN_POINT ( 'NONE',  ( -5.009326287108706300E-010, -8.999999996500434900, 1.500000000000000400 ) ) ;
#90 = CARTESIAN_POINT ( 'NONE',  ( -5.009324450199175600E-010, -8.999999996500434900, -1.500000000000000400 ) ) ;
#91 = DIRECTION ( 'NONE',  ( 0.0000000000000000000, 0.0000000000000000000, 1.000000000000000000 ) ) ;
#92 = DIRECTION ( 'NONE',  ( 0.0000000000000000000, 1.000000000000000000, 0.0000000000000000000 ) ) ;
#93 = CARTESIAN_POINT ( 'NONE',  ( -5.009326287108706300E-010, -8.999999996500434900, 0.0000000000000000000 ) ) ;
#94 = AXIS2_PLACEMENT_3D ( 'NONE', #93, #92, #91 ) ;
#95 = CIRCLE ( 'NONE', #94, 1.500000000000000400 ) ;
#96 = DIRECTION ( 'NONE',  ( 0.0000000000000000000, 0.0000000000000000000, 1.000000000000000000 ) ) ;
#97 = DIRECTION ( 'NONE',  ( 0.0000000000000000000, 1.000000000000000000, 0.0000000000000000000 ) ) ;
#98 = AXIS2_PLACEMENT_3D ( 'NONE', #100, #97, #96 ) ;
#99 = CYLINDRICAL_SURFACE ( 'NONE', #98, 1.500000000000000200 ) ;
#100 = CARTESIAN_POINT ( 'NONE',  ( -5.009326287108706300E-010, 2.412507003500041800, 0.0000000000000000000 ) ) ;
#101 = FACE_OUTER_BOUND ( 'NONE', #103, .T. ) ;
#102 = ADVANCED_FACE ( 'NONE', ( #101 ), #99, .F. ) ;
#103 = EDGE_LOOP ( 'NONE', ( #104, #108, #111, #114 ) ) ;
#104 = ORIENTED_EDGE ( 'NONE', *, *, #105, .F. ) ;
#105 = EDGE_CURVE ( 'NONE', #106, #107, #95, .T. ) ;
#106 = VERTEX_POINT ( 'NONE', #90 ) ;
#107 = VERTEX_POINT ( 'NONE', #89 ) ;
#108 = ORIENTED_EDGE ( 'NONE', *, *, #109, .T. ) ;
#109 = EDGE_CURVE ( 'NONE', #106, #110, #88, .T. ) ;
#110 = VERTEX_POINT ( 'NONE', #84 ) ;
#111 = ORIENTED_EDGE ( 'NONE', *, *, #112, .T. ) ;
#112 = EDGE_CURVE ( 'NONE', #110, #113, #83, .T. ) ;
#113 = VERTEX_POINT ( 'NONE', #78 ) ;
#114 = ORIENTED_EDGE ( 'NONE', *, *, #115, .F. ) ;
#115 = EDGE_CURVE ( 'NONE', #107, #113, #77, .T. ) ;
#116 = ADVANCED_FACE ( 'NONE', ( #73 ), #71, .F. ) ;
#117 = EDGE_LOOP ( 'NONE', ( #196, #200, #205, #202 ) ) ;
#118 = MANIFOLD_SOLID_BREP ( 'NONE', #145 ) ;
#119 = ADVANCED_FACE ( 'NONE', ( #72 ), #66, .T. ) ;
#120 = ORIENTED_EDGE ( 'NONE', *, *, #121, .F. ) ;
#121 = EDGE_CURVE ( 'NONE', #122, #123, #65, .T. ) ;
#122 = VERTEX_POINT ( 'NONE', #56 ) ;
#123 = VERTEX_POINT ( 'NONE', #55 ) ;
#124 = ORIENTED_EDGE ( 'NONE', *, *, #125, .T. ) ;
#125 = EDGE_CURVE ( 'NONE', #122, #126, #54, .T. ) ;
#126 = VERTEX_POINT ( 'NONE', #50 ) ;
#127 = ORIENTED_EDGE ( 'NONE', *, *, #128, .T. ) ;
#128 = EDGE_CURVE ( 'NONE', #126, #129, #49, .T. ) ;
#129 = VERTEX_POINT ( 'NONE', #44 ) ;
#130 = ORIENTED_EDGE ( 'NONE', *, *, #131, .F. ) ;
#131 = EDGE_CURVE ( 'NONE', #123, #129, #43, .T. ) ;
#132 = EDGE_LOOP ( 'NONE', ( #120, #124, #127, #130 ) ) ;
#133 = ORIENTED_EDGE ( 'NONE', *, *, #140, .T. ) ;
#134 = ORIENTED_EDGE ( 'NONE', *, *, #105, .T. ) ;
#135 = ADVANCED_FACE ( 'NONE', ( #39 ), #37, .T. ) ;
#136 = EDGE_LOOP ( 'NONE', ( #137, #142, #143, #144 ) ) ;
#137 = ORIENTED_EDGE ( 'NONE', *, *, #125, .F. ) ;
#138 = EDGE_LOOP ( 'NONE', ( #151, #139, #141, #152 ) ) ;
#139 = ORIENTED_EDGE ( 'NONE', *, *, #140, .F. ) ;
#140 = EDGE_CURVE ( 'NONE', #107, #106, #32, .T. ) ;
#141 = ORIENTED_EDGE ( 'NONE', *, *, #115, .T. ) ;
#142 = ORIENTED_EDGE ( 'NONE', *, *, #160, .F. ) ;
#143 = ORIENTED_EDGE ( 'NONE', *, *, #131, .T. ) ;
#144 = ORIENTED_EDGE ( 'NONE', *, *, #147, .T. ) ;
#145 = CLOSED_SHELL ( 'NONE', ( #119, #102, #116, #195, #185, #162, #168, #178, #150, #153, #135 ) ) ;
#146 = ORIENTED_EDGE ( 'NONE', *, *, #147, .F. ) ;
#147 = EDGE_CURVE ( 'NONE', #129, #126, #28, .T. ) ;
#148 = ORIENTED_EDGE ( 'NONE', *, *, #128, .F. ) ;
#149 = EDGE_LOOP ( 'NONE', ( #133, #134 ) ) ;
#150 = ADVANCED_FACE ( 'NONE', ( #23 ), #22, .F. ) ;
#151 = ORIENTED_EDGE ( 'NONE', *, *, #109, .F. ) ;
#152 = ORIENTED_EDGE ( 'NONE', *, *, #180, .T. ) ;
#153 = ADVANCED_FACE ( 'NONE', ( #16, #15 ), #21, .F. ) ;
#154 = EDGE_LOOP ( 'NONE', ( #146, #148 ) ) ;
#155 = EDGE_LOOP ( 'NONE', ( #169, #170, #172, #177 ) ) ;
#156 = EDGE_LOOP ( 'NONE', ( #163, #165 ) ) ;
#157 = ORIENTED_EDGE ( 'NONE', *, *, #112, .F. ) ;
#158 = ORIENTED_EDGE ( 'NONE', *, *, #171, .T. ) ;
#159 = ORIENTED_EDGE ( 'NONE', *, *, #201, .T. ) ;
#160 = EDGE_CURVE ( 'NONE', #123, #122, #10, .T. ) ;
#161 = EDGE_CURVE ( 'NONE', #193, #190, #1, .T. ) ;
#162 = ADVANCED_FACE ( 'NONE', ( #381, #380 ), #379, .F. ) ;
#163 = ORIENTED_EDGE ( 'NONE', *, *, #164, .F. ) ;
#164 = EDGE_CURVE ( 'NONE', #206, #197, #374, .T. ) ;
#165 = ORIENTED_EDGE ( 'NONE', *, *, #198, .F. ) ;
#166 = ORIENTED_EDGE ( 'NONE', *, *, #189, .T. ) ;
#167 = ORIENTED_EDGE ( 'NONE', *, *, #161, .T. ) ;
#168 = ADVANCED_FACE ( 'NONE', ( #369 ), #368, .F. ) ;
#169 = ORIENTED_EDGE ( 'NONE', *, *, #199, .F. ) ;
#170 = ORIENTED_EDGE ( 'NONE', *, *, #171, .F. ) ;
#171 = EDGE_CURVE ( 'NONE', #204, #203, #362, .T. ) ;
#172 = ORIENTED_EDGE ( 'NONE', *, *, #208, .T. ) ;
#173 = EDGE_LOOP ( 'NONE', ( #179, #157 ) ) ;
#174 = ORIENTED_EDGE ( 'NONE', *, *, #184, .T. ) ;
#175 = ORIENTED_EDGE ( 'NONE', *, *, #161, .F. ) ;
#176 = ORIENTED_EDGE ( 'NONE', *, *, #160, .T. ) ;
#177 = ORIENTED_EDGE ( 'NONE', *, *, #164, .T. ) ;
#178 = ADVANCED_FACE ( 'NONE', ( #358, #357 ), #356, .F. ) ;
#179 = ORIENTED_EDGE ( 'NONE', *, *, #180, .F. ) ;
#180 = EDGE_CURVE ( 'NONE', #113, #110, #351, .T. ) ;
#181 = EDGE_LOOP ( 'NONE', ( #158, #159 ) ) ;
#182 = EDGE_LOOP ( 'NONE', ( #166, #167 ) ) ;
#183 = ORIENTED_EDGE ( 'NONE', *, *, #184, .F. ) ;
#184 = EDGE_CURVE ( 'NONE', #122, #190, #346, .T. ) ;
#185 = ADVANCED_FACE ( 'NONE', ( #341 ), #340, .T. ) ;
#186 = EDGE_LOOP ( 'NONE', ( #207, #176, #174, #175 ) ) ;
#187 = ORIENTED_EDGE ( 'NONE', *, *, #192, .T. ) ;
#188 = ORIENTED_EDGE ( 'NONE', *, *, #189, .F. ) ;
#189 = EDGE_CURVE ( 'NONE', #190, #193, #335, .T. ) ;
#190 = VERTEX_POINT ( 'NONE', #330 ) ;
#191 = ORIENTED_EDGE ( 'NONE', *, *, #121, .T. ) ;
#192 = EDGE_CURVE ( 'NONE', #123, #193, #329, .T. ) ;
#193 = VERTEX_POINT ( 'NONE', #324 ) ;
#194 = EDGE_LOOP ( 'NONE', ( #191, #187, #188, #183 ) ) ;
#195 = ADVANCED_FACE ( 'NONE', ( #323 ), #321, .T. ) ;
#196 = ORIENTED_EDGE ( 'NONE', *, *, #201, .F. ) ;
#197 = VERTEX_POINT ( 'NONE', #317 ) ;
#198 = EDGE_CURVE ( 'NONE', #197, #206, #316, .T. ) ;
#199 = EDGE_CURVE ( 'NONE', #203, #197, #311, .T. ) ;
#200 = ORIENTED_EDGE ( 'NONE', *, *, #199, .T. ) ;
#201 = EDGE_CURVE ( 'NONE', #203, #204, #307, .T. ) ;
#202 = ORIENTED_EDGE ( 'NONE', *, *, #208, .F. ) ;
#203 = VERTEX_POINT ( 'NONE', #302 ) ;
#204 = VERTEX_POINT ( 'NONE', #301 ) ;
#205 = ORIENTED_EDGE ( 'NONE', *, *, #198, .T. ) ;
#206 = VERTEX_POINT ( 'NONE', #300 ) ;
#207 = ORIENTED_EDGE ( 'NONE', *, *, #192, .F. ) ;
#208 = EDGE_CURVE ( 'NONE', #204, #206, #299, .T. ) ;
#209 = PRODUCT_DEFINITION_SHAPE ( 'NONE', 'NONE',  #272 ) ;
#210 = PRODUCT_RELATED_PRODUCT_CATEGORY ( 'detail', '', ( #281 ) ) ;
#211 = CC_DESIGN_SECURITY_CLASSIFICATION ( #232, ( #251 ) ) ;
#212 = CC_DESIGN_APPROVAL ( #220, ( #232 ) ) ;
#213 = APPROVAL_DATE_TIME ( #214, #220 ) ;
#214 = DATE_AND_TIME ( #215, #216 ) ;
#215 = CALENDAR_DATE ( 2009, 26, 6 ) ;
#216 = LOCAL_TIME ( 13, 23, 20.00000000000000000, #217 ) ;
#217 = COORDINATED_UNIVERSAL_TIME_OFFSET ( 9, 0, .AHEAD. ) ;
#218 = APPROVAL_PERSON_ORGANIZATION ( #222, #220, #219 ) ;
#219 = APPROVAL_ROLE ( '' ) ;
#220 = APPROVAL ( #221, 'UNSPECIFIED' ) ;
#221 = APPROVAL_STATUS ( 'not_yet_approved' ) ;
#222 = PERSON_AND_ORGANIZATION ( #280, #279 ) ;
#223 = CC_DESIGN_DATE_AND_TIME_ASSIGNMENT ( #225, #224, ( #232 ) ) ;
#224 = DATE_TIME_ROLE ( 'classification_date' ) ;
#225 = DATE_AND_TIME ( #226, #227 ) ;
#226 = CALENDAR_DATE ( 2009, 26, 6 ) ;
#227 = LOCAL_TIME ( 13, 23, 20.00000000000000000, #228 ) ;
#228 = COORDINATED_UNIVERSAL_TIME_OFFSET ( 9, 0, .AHEAD. ) ;
#229 = CC_DESIGN_PERSON_AND_ORGANIZATION_ASSIGNMENT ( #231, #230, ( #232 ) ) ;
#230 = PERSON_AND_ORGANIZATION_ROLE ( 'classification_officer' ) ;
#231 = PERSON_AND_ORGANIZATION ( #280, #279 ) ;
#232 = SECURITY_CLASSIFICATION ( '', '', #233 ) ;
#233 = SECURITY_CLASSIFICATION_LEVEL ( 'unclassified' ) ;
#234 = CC_DESIGN_PERSON_AND_ORGANIZATION_ASSIGNMENT ( #236, #235, ( #251 ) ) ;
#235 = PERSON_AND_ORGANIZATION_ROLE ( 'design_supplier' ) ;
#236 = PERSON_AND_ORGANIZATION ( #280, #279 ) ;
#237 = CC_DESIGN_PERSON_AND_ORGANIZATION_ASSIGNMENT ( #239, #238, ( #251 ) ) ;
#238 = PERSON_AND_ORGANIZATION_ROLE ( 'creator' ) ;
#239 = PERSON_AND_ORGANIZATION ( #280, #279 ) ;
#240 = CC_DESIGN_APPROVAL ( #248, ( #251 ) ) ;
#241 = APPROVAL_DATE_TIME ( #242, #248 ) ;
#242 = DATE_AND_TIME ( #243, #244 ) ;
#243 = CALENDAR_DATE ( 2009, 26, 6 ) ;
#244 = LOCAL_TIME ( 13, 23, 20.00000000000000000, #245 ) ;
#245 = COORDINATED_UNIVERSAL_TIME_OFFSET ( 9, 0, .AHEAD. ) ;
#246 = APPROVAL_PERSON_ORGANIZATION ( #250, #248, #247 ) ;
#247 = APPROVAL_ROLE ( '' ) ;
#248 = APPROVAL ( #249, 'UNSPECIFIED' ) ;
#249 = APPROVAL_STATUS ( 'not_yet_approved' ) ;
#250 = PERSON_AND_ORGANIZATION ( #280, #279 ) ;
#251 = PRODUCT_DEFINITION_FORMATION_WITH_SPECIFIED_SOURCE ( 'ANY', '', #281, .NOT_KNOWN. ) ;
#252 = CC_DESIGN_DATE_AND_TIME_ASSIGNMENT ( #254, #253, ( #272 ) ) ;
#253 = DATE_TIME_ROLE ( 'creation_date' ) ;
#254 = DATE_AND_TIME ( #255, #256 ) ;
#255 = CALENDAR_DATE ( 2009, 26, 6 ) ;
#256 = LOCAL_TIME ( 13, 23, 20.00000000000000000, #257 ) ;
#257 = COORDINATED_UNIVERSAL_TIME_OFFSET ( 9, 0, .AHEAD. ) ;
#258 = CC_DESIGN_PERSON_AND_ORGANIZATION_ASSIGNMENT ( #260, #259, ( #272 ) ) ;
#259 = PERSON_AND_ORGANIZATION_ROLE ( 'creator' ) ;
#260 = PERSON_AND_ORGANIZATION ( #280, #279 ) ;
#261 = CC_DESIGN_APPROVAL ( #269, ( #272 ) ) ;
#262 = APPROVAL_DATE_TIME ( #263, #269 ) ;
#263 = DATE_AND_TIME ( #264, #265 ) ;
#264 = CALENDAR_DATE ( 2009, 26, 6 ) ;
#265 = LOCAL_TIME ( 13, 23, 20.00000000000000000, #266 ) ;
#266 = COORDINATED_UNIVERSAL_TIME_OFFSET ( 9, 0, .AHEAD. ) ;
#267 = APPROVAL_PERSON_ORGANIZATION ( #271, #269, #268 ) ;
#268 = APPROVAL_ROLE ( '' ) ;
#269 = APPROVAL ( #270, 'UNSPECIFIED' ) ;
#270 = APPROVAL_STATUS ( 'not_yet_approved' ) ;
#271 = PERSON_AND_ORGANIZATION ( #280, #279 ) ;
#272 = PRODUCT_DEFINITION ( 'UNKNOWN', '', #251, #273 ) ;
#273 = DESIGN_CONTEXT ( 'detailed design', #275, 'design' ) ;
#274 = APPLICATION_PROTOCOL_DEFINITION ( 'international standard', 'config_control_design', 1994, #275 ) ;
#275 = APPLICATION_CONTEXT ( 'configuration controlled 3d designs of mechanical parts and assemblies' ) ;
#276 = CC_DESIGN_PERSON_AND_ORGANIZATION_ASSIGNMENT ( #278, #277, ( #281 ) ) ;
#277 = PERSON_AND_ORGANIZATION_ROLE ( 'design_owner' ) ;
#278 = PERSON_AND_ORGANIZATION ( #280, #279 ) ;
#279 = ORGANIZATION ( 'UNSPECIFIED', 'UNSPECIFIED', '' ) ;
#280 = PERSON ( 'UNSPECIFIED', 'UNSPECIFIED', 'UNSPECIFIED', ('UNSPECIFIED'), ('UNSPECIFIED'), ('UNSPECIFIED') ) ;
#281 = PRODUCT ( 'C-30-RK-12', 'C-30-RK-12', '', ( #282 ) ) ;
#282 = MECHANICAL_CONTEXT ( 'NONE', #284, 'mechanical' ) ;
#283 = APPLICATION_PROTOCOL_DEFINITION ( 'international standard', 'config_control_design', 1994, #284 ) ;
#284 = APPLICATION_CONTEXT ( 'configuration controlled 3d designs of mechanical parts and assemblies' ) ;
#285 = DIRECTION ( 'NONE',  ( 1.000000000000000000, 0.0000000000000000000, 0.0000000000000000000 ) ) ;
#286 = DIRECTION ( 'NONE',  ( 0.0000000000000000000, 0.0000000000000000000, 1.000000000000000000 ) ) ;
#287 = CARTESIAN_POINT ( 'NONE',  ( 0.0000000000000000000, 0.0000000000000000000, 0.0000000000000000000 ) ) ;
#288 = AXIS2_PLACEMENT_3D ( 'NONE', #287, #286, #285 ) ;
#289 = SHAPE_DEFINITION_REPRESENTATION ( #209, #290 ) ;
#290 = ADVANCED_BREP_SHAPE_REPRESENTATION ( 'C-30-RK-12', ( #118, #288 ), #291 ) ;
#291 =( GEOMETRIC_REPRESENTATION_CONTEXT ( 3 ) GLOBAL_UNCERTAINTY_ASSIGNED_CONTEXT ( ( #292 ) ) GLOBAL_UNIT_ASSIGNED_CONTEXT ( ( #295, #294, #293 ) ) REPRESENTATION_CONTEXT ( 'NONE', 'WORKASPACE' ) );
#292 = UNCERTAINTY_MEASURE_WITH_UNIT (LENGTH_MEASURE( 1.000000000000000100E-005 ), #295, 'distance_accuracy_value', 'NONE');
#293 =( NAMED_UNIT ( * ) SI_UNIT ( $, .STERADIAN. ) SOLID_ANGLE_UNIT ( ) );
#294 =( NAMED_UNIT ( * ) PLANE_ANGLE_UNIT ( ) SI_UNIT ( $, .RADIAN. ) );
#295 =( LENGTH_UNIT ( ) NAMED_UNIT ( * ) SI_UNIT ( .MILLI., .METRE. ) );
#296 = DIRECTION ( 'NONE',  ( 0.0000000000000000000, 1.000000000000000000, 0.0000000000000000000 ) ) ;
#297 = VECTOR ( 'NONE', #296, 1000.000000000000000 ) ;
#298 = CARTESIAN_POINT ( 'NONE',  ( -5.009326287108706300E-010, 2.412507003500041800, 2.500000000000000900 ) ) ;
#299 = LINE ( 'NONE', #298, #297 ) ;
#300 = CARTESIAN_POINT ( 'NONE',  ( -5.009326287108706300E-010, 3.499565220943523500E-009, 2.500000000000000400 ) ) ;
#301 = CARTESIAN_POINT ( 'NONE',  ( -5.009326287108706300E-010, -3.999999996500434900, 2.500000000000001300 ) ) ;
#302 = CARTESIAN_POINT ( 'NONE',  ( -5.009323225592821800E-010, -3.999999996500434900, -2.500000000000001300 ) ) ;
#303 = DIRECTION ( 'NONE',  ( 0.0000000000000000000, 0.0000000000000000000, 1.000000000000000000 ) ) ;
#304 = DIRECTION ( 'NONE',  ( 0.0000000000000000000, 1.000000000000000000, 0.0000000000000000000 ) ) ;
#305 = CARTESIAN_POINT ( 'NONE',  ( -5.009326287108706300E-010, -3.999999996500434900, 0.0000000000000000000 ) ) ;
#306 = AXIS2_PLACEMENT_3D ( 'NONE', #305, #304, #303 ) ;
#307 = CIRCLE ( 'NONE', #306, 2.500000000000001300 ) ;
#308 = DIRECTION ( 'NONE',  ( 0.0000000000000000000, 1.000000000000000000, 0.0000000000000000000 ) ) ;
#309 = VECTOR ( 'NONE', #308, 1000.000000000000000 ) ;
#310 = CARTESIAN_POINT ( 'NONE',  ( -5.009323225592821800E-010, 2.412507003500041800, -2.500000000000000900 ) ) ;
#311 = LINE ( 'NONE', #310, #309 ) ;
#312 = DIRECTION ( 'NONE',  ( 0.0000000000000000000, 0.0000000000000000000, 1.000000000000000000 ) ) ;
#313 = DIRECTION ( 'NONE',  ( 0.0000000000000000000, 1.000000000000000000, 0.0000000000000000000 ) ) ;
#314 = CARTESIAN_POINT ( 'NONE',  ( -5.009326287108706300E-010, 3.499565220943523500E-009, 0.0000000000000000000 ) ) ;
#315 = AXIS2_PLACEMENT_3D ( 'NONE', #314, #313, #312 ) ;
#316 = CIRCLE ( 'NONE', #315, 2.500000000000000400 ) ;
#317 = CARTESIAN_POINT ( 'NONE',  ( -5.009323225592821800E-010, 3.499565220943523500E-009, -2.500000000000000400 ) ) ;
#318 = DIRECTION ( 'NONE',  ( 0.0000000000000000000, 0.0000000000000000000, 1.000000000000000000 ) ) ;
#319 = DIRECTION ( 'NONE',  ( 0.0000000000000000000, 1.000000000000000000, 0.0000000000000000000 ) ) ;
#320 = AXIS2_PLACEMENT_3D ( 'NONE', #322, #319, #318 ) ;
#321 = TOROIDAL_SURFACE ( 'NONE', #320, 3.197828393634123900, 1.000000000000000000 ) ;
#322 = CARTESIAN_POINT ( 'NONE',  ( -5.009326287108706300E-010, -0.9999999965004348100, 0.0000000000000000000 ) ) ;
#323 = FACE_OUTER_BOUND ( 'NONE', #194, .T. ) ;
#324 = CARTESIAN_POINT ( 'NONE',  ( -5.009321773305299000E-010, 3.499565220943523500E-009, -3.197828393634118100 ) ) ;
#325 = DIRECTION ( 'NONE',  ( 1.224606353612350400E-016, 0.0000000000000000000, -1.000000000000000000 ) ) ;
#326 = DIRECTION ( 'NONE',  ( 1.000000000000000000, 0.0000000000000000000, 1.224606353822377300E-016 ) ) ;
#327 = CARTESIAN_POINT ( 'NONE',  ( -5.009322371027737400E-010, -0.9999999965004348100, -3.197828393634123900 ) ) ;
#328 = AXIS2_PLACEMENT_3D ( 'NONE', #327, #326, #325 ) ;
#329 = CIRCLE ( 'NONE', #328, 1.000000000000000400 ) ;
#330 = CARTESIAN_POINT ( 'NONE',  ( -5.009326287108706300E-010, 3.499565220943523500E-009, 3.197828393634118100 ) ) ;
#331 = DIRECTION ( 'NONE',  ( 0.0000000000000000000, 0.0000000000000000000, 1.000000000000000000 ) ) ;
#332 = DIRECTION ( 'NONE',  ( 0.0000000000000000000, 1.000000000000000000, 0.0000000000000000000 ) ) ;
#333 = CARTESIAN_POINT ( 'NONE',  ( -5.009326287108706300E-010, 3.499565220943523500E-009, 0.0000000000000000000 ) ) ;
#334 = AXIS2_PLACEMENT_3D ( 'NONE', #333, #332, #331 ) ;
#335 = CIRCLE ( 'NONE', #334, 3.197828393634118100 ) ;
#336 = DIRECTION ( 'NONE',  ( 0.0000000000000000000, 0.0000000000000000000, 1.000000000000000000 ) ) ;
#337 = DIRECTION ( 'NONE',  ( 0.0000000000000000000, 1.000000000000000000, 0.0000000000000000000 ) ) ;
#338 = CARTESIAN_POINT ( 'NONE',  ( -5.009326287108706300E-010, -0.9999999965004348100, 0.0000000000000000000 ) ) ;
#339 = AXIS2_PLACEMENT_3D ( 'NONE', #338, #337, #336 ) ;
#340 = TOROIDAL_SURFACE ( 'NONE', #339, 3.197828393634123900, 1.000000000000000000 ) ;
#341 = FACE_OUTER_BOUND ( 'NONE', #186, .T. ) ;
#342 = DIRECTION ( 'NONE',  ( 0.0000000000000000000, 0.0000000000000000000, 1.000000000000000000 ) ) ;
#343 = DIRECTION ( 'NONE',  ( -1.000000000000000000, 0.0000000000000000000, 0.0000000000000000000 ) ) ;
#344 = CARTESIAN_POINT ( 'NONE',  ( -5.009326287108706300E-010, -0.9999999965004348100, 3.197828393634123900 ) ) ;
#345 = AXIS2_PLACEMENT_3D ( 'NONE', #344, #343, #342 ) ;
#346 = CIRCLE ( 'NONE', #345, 1.000000000000000400 ) ;
#347 = DIRECTION ( 'NONE',  ( 0.0000000000000000000, 0.0000000000000000000, 1.000000000000000000 ) ) ;
#348 = DIRECTION ( 'NONE',  ( 0.0000000000000000000, 1.000000000000000000, 0.0000000000000000000 ) ) ;
#349 = AXIS2_PLACEMENT_3D ( 'NONE', #350, #348, #347 ) ;
#350 = CARTESIAN_POINT ( 'NONE',  ( -5.009326287108706300E-010, -3.999999996500434900, 0.0000000000000000000 ) ) ;
#351 = CIRCLE ( 'NONE', #349, 1.500000000000000000 ) ;
#352 = DIRECTION ( 'NONE',  ( 0.0000000000000000000, 0.0000000000000000000, -1.000000000000000000 ) ) ;
#353 = DIRECTION ( 'NONE',  ( 0.0000000000000000000, -1.000000000000000000, 0.0000000000000000000 ) ) ;
#354 = CARTESIAN_POINT ( 'NONE',  ( 2.499999999499068700, -3.999999996500434900, 0.0000000000000000000 ) ) ;
#355 = AXIS2_PLACEMENT_3D ( 'NONE', #354, #353, #352 ) ;
#356 = PLANE ( 'NONE',  #355 ) ;
#357 = FACE_OUTER_BOUND ( 'NONE', #181, .T. ) ;
#358 = FACE_BOUND ( 'NONE', #173, .T. ) ;
#359 = DIRECTION ( 'NONE',  ( 0.0000000000000000000, 0.0000000000000000000, 1.000000000000000000 ) ) ;
#360 = DIRECTION ( 'NONE',  ( 0.0000000000000000000, 1.000000000000000000, 0.0000000000000000000 ) ) ;
#361 = AXIS2_PLACEMENT_3D ( 'NONE', #367, #360, #359 ) ;
#362 = CIRCLE ( 'NONE', #361, 2.500000000000001300 ) ;
#363 = DIRECTION ( 'NONE',  ( 0.0000000000000000000, 0.0000000000000000000, 1.000000000000000000 ) ) ;
#364 = DIRECTION ( 'NONE',  ( 0.0000000000000000000, 1.000000000000000000, 0.0000000000000000000 ) ) ;
#365 = CARTESIAN_POINT ( 'NONE',  ( -5.009326287108706300E-010, 2.412507003500041800, 0.0000000000000000000 ) ) ;
#366 = AXIS2_PLACEMENT_3D ( 'NONE', #365, #364, #363 ) ;
#367 = CARTESIAN_POINT ( 'NONE',  ( -5.009326287108706300E-010, -3.999999996500434900, 0.0000000000000000000 ) ) ;
#368 = CYLINDRICAL_SURFACE ( 'NONE', #366, 2.500000000000000900 ) ;
#369 = FACE_OUTER_BOUND ( 'NONE', #155, .T. ) ;
#370 = DIRECTION ( 'NONE',  ( 0.0000000000000000000, 0.0000000000000000000, 1.000000000000000000 ) ) ;
#371 = DIRECTION ( 'NONE',  ( 0.0000000000000000000, 1.000000000000000000, 0.0000000000000000000 ) ) ;
#372 = CARTESIAN_POINT ( 'NONE',  ( -5.009326287108706300E-010, 3.499565220943523500E-009, 0.0000000000000000000 ) ) ;
#373 = AXIS2_PLACEMENT_3D ( 'NONE', #372, #371, #370 ) ;
#374 = CIRCLE ( 'NONE', #373, 2.500000000000000400 ) ;
#375 = DIRECTION ( 'NONE',  ( 0.0000000000000000000, 0.0000000000000000000, -1.000000000000000000 ) ) ;
#376 = DIRECTION ( 'NONE',  ( 0.0000000000000000000, -1.000000000000000000, 0.0000000000000000000 ) ) ;
#377 = CARTESIAN_POINT ( 'NONE',  ( 3.197828393133185500, 3.499565387344820200E-009, 0.0000000000000000000 ) ) ;
#378 = AXIS2_PLACEMENT_3D ( 'NONE', #377, #376, #375 ) ;
#379 = PLANE ( 'NONE',  #378 ) ;
#380 = FACE_OUTER_BOUND ( 'NONE', #182, .T. ) ;
#381 = FACE_BOUND ( 'NONE', #156, .T. ) ;
ENDSEC;
END-ISO-10303-21;
