ISO-10303-21;
HEADER;
FILE_DESCRIPTION (( 'STEP AP203' ),
    '1' );
FILE_NAME ('C-30-RK-10-ÃÞÌ«ÙÄ.STEP',
    '2009-06-29T01:14:10',
    ( '11sw' ),
    ( '^LQ»¢®ïÐ' ),
    'SwSTEP 2.0',
    'SolidWorks 2007',
    '' );
FILE_SCHEMA (( 'CONFIG_CONTROL_DESIGN' ));
ENDSEC;

DATA;
#1 = DIRECTION ( 'NONE',  ( 0.0000000000000000000, 0.0000000000000000000, 1.000000000000000000 ) ) ;
#2 = DIRECTION ( 'NONE',  ( 1.224606353612350900E-016, 0.0000000000000000000, -1.000000000000000000 ) ) ;
#3 = DIRECTION ( 'NONE',  ( 1.000000000000000000, 0.0000000000000000000, 1.224606353822377300E-016 ) ) ;
#4 = CARTESIAN_POINT ( 'NONE',  ( -5.009321388683291000E-010, -0.9999999965004343600, -4.000000000000000000 ) ) ;
#5 = AXIS2_PLACEMENT_3D ( 'NONE', #4, #3, #2 ) ;
#6 = CIRCLE ( 'NONE', #5, 1.000000000000000000 ) ;
#7 = DIRECTION ( 'NONE',  ( 0.0000000000000000000, 1.000000000000000000, 0.0000000000000000000 ) ) ;
#8 = VECTOR ( 'NONE', #7, 1000.000000000000000 ) ;
#9 = CARTESIAN_POINT ( 'NONE',  ( -5.009324450199175600E-010, 2.412507003500041800, -1.500000000000000000 ) ) ;
#10 = LINE ( 'NONE', #9, #8 ) ;
#11 = CARTESIAN_POINT ( 'NONE',  ( -5.009326287108706300E-010, -2.999999996500434900, 1.499999999999999800 ) ) ;
#12 = CARTESIAN_POINT ( 'NONE',  ( -5.009326287108706300E-010, -2.999999996500434900, 2.500000000000000900 ) ) ;
#13 = DIRECTION ( 'NONE',  ( 0.0000000000000000000, 1.000000000000000000, 0.0000000000000000000 ) ) ;
#14 = VECTOR ( 'NONE', #13, 1000.000000000000000 ) ;
#15 = CARTESIAN_POINT ( 'NONE',  ( -5.009323225592821800E-010, 2.412507003500041800, -2.500000000000000400 ) ) ;
#16 = LINE ( 'NONE', #15, #14 ) ;
#17 = DIRECTION ( 'NONE',  ( 0.0000000000000000000, 0.0000000000000000000, 1.000000000000000000 ) ) ;
#18 = DIRECTION ( 'NONE',  ( 0.0000000000000000000, 1.000000000000000000, 0.0000000000000000000 ) ) ;
#19 = AXIS2_PLACEMENT_3D ( 'NONE', #26, #18, #17 ) ;
#20 = CIRCLE ( 'NONE', #19, 2.500000000000000400 ) ;
#21 = DIRECTION ( 'NONE',  ( 0.0000000000000000000, 0.0000000000000000000, 1.000000000000000000 ) ) ;
#22 = DIRECTION ( 'NONE',  ( 0.0000000000000000000, 1.000000000000000000, 0.0000000000000000000 ) ) ;
#23 = CARTESIAN_POINT ( 'NONE',  ( -5.009326287108706300E-010, 3.499565220943523500E-009, 0.0000000000000000000 ) ) ;
#24 = AXIS2_PLACEMENT_3D ( 'NONE', #23, #22, #21 ) ;
#25 = CIRCLE ( 'NONE', #24, 2.500000000000000400 ) ;
#26 = CARTESIAN_POINT ( 'NONE',  ( -5.009326287108706300E-010, 3.499565220943523500E-009, 0.0000000000000000000 ) ) ;
#27 = CARTESIAN_POINT ( 'NONE',  ( -5.009326287108706300E-010, 3.499565220943523500E-009, 3.999999999999993300 ) ) ;
#28 = DIRECTION ( 'NONE',  ( 0.0000000000000000000, 0.0000000000000000000, 1.000000000000000000 ) ) ;
#29 = DIRECTION ( 'NONE',  ( -1.000000000000000000, 0.0000000000000000000, 0.0000000000000000000 ) ) ;
#30 = CARTESIAN_POINT ( 'NONE',  ( -5.009326287108706300E-010, -0.9999999965004343600, 4.000000000000000000 ) ) ;
#31 = AXIS2_PLACEMENT_3D ( 'NONE', #30, #29, #28 ) ;
#32 = CIRCLE ( 'NONE', #31, 1.000000000000000000 ) ;
#33 = DIRECTION ( 'NONE',  ( 0.0000000000000000000, 1.000000000000000000, 0.0000000000000000000 ) ) ;
#34 = ADVANCED_FACE ( 'NONE', ( #130, #129 ), #128, .F. ) ;
#35 = ORIENTED_EDGE ( 'NONE', *, *, #36, .F. ) ;
#36 = EDGE_CURVE ( 'NONE', #46, #61, #123, .T. ) ;
#37 = EDGE_CURVE ( 'NONE', #74, #38, #32, .T. ) ;
#38 = VERTEX_POINT ( 'NONE', #27 ) ;
#39 = EDGE_CURVE ( 'NONE', #59, #61, #25, .T. ) ;
#40 = ORIENTED_EDGE ( 'NONE', *, *, #44, .T. ) ;
#41 = ORIENTED_EDGE ( 'NONE', *, *, #42, .F. ) ;
#42 = EDGE_CURVE ( 'NONE', #61, #59, #20, .T. ) ;
#43 = ORIENTED_EDGE ( 'NONE', *, *, #89, .F. ) ;
#44 = EDGE_CURVE ( 'NONE', #56, #59, #16, .T. ) ;
#45 = ORIENTED_EDGE ( 'NONE', *, *, #57, .F. ) ;
#46 = VERTEX_POINT ( 'NONE', #12 ) ;
#47 = VERTEX_POINT ( 'NONE', #11 ) ;
#48 = EDGE_CURVE ( 'NONE', #68, #117, #10, .T. ) ;
#49 = ORIENTED_EDGE ( 'NONE', *, *, #62, .T. ) ;
#50 = ORIENTED_EDGE ( 'NONE', *, *, #37, .T. ) ;
#51 = EDGE_CURVE ( 'NONE', #73, #120, #6, .T. ) ;
#52 = EDGE_CURVE ( 'NONE', #73, #74, #179, .T. ) ;
#53 = EDGE_LOOP ( 'NONE', ( #116, #64, #54, #63 ) ) ;
#54 = ORIENTED_EDGE ( 'NONE', *, *, #55, .F. ) ;
#55 = EDGE_CURVE ( 'NONE', #38, #120, #174, .T. ) ;
#56 = VERTEX_POINT ( 'NONE', #169 ) ;
#57 = EDGE_CURVE ( 'NONE', #56, #46, #167, .T. ) ;
#58 = EDGE_CURVE ( 'NONE', #67, #47, #168, .T. ) ;
#59 = VERTEX_POINT ( 'NONE', #159 ) ;
#60 = ORIENTED_EDGE ( 'NONE', *, *, #39, .T. ) ;
#61 = VERTEX_POINT ( 'NONE', #158 ) ;
#62 = EDGE_CURVE ( 'NONE', #117, #47, #157, .T. ) ;
#63 = ORIENTED_EDGE ( 'NONE', *, *, #37, .F. ) ;
#64 = ORIENTED_EDGE ( 'NONE', *, *, #51, .T. ) ;
#65 = ADVANCED_FACE ( 'NONE', ( #152 ), #151, .F. ) ;
#66 = ORIENTED_EDGE ( 'NONE', *, *, #69, .F. ) ;
#67 = VERTEX_POINT ( 'NONE', #208 ) ;
#68 = VERTEX_POINT ( 'NONE', #207 ) ;
#69 = EDGE_CURVE ( 'NONE', #68, #67, #206, .T. ) ;
#70 = EDGE_LOOP ( 'NONE', ( #66, #106, #49, #118 ) ) ;
#71 = EDGE_CURVE ( 'NONE', #72, #85, #201, .T. ) ;
#72 = VERTEX_POINT ( 'NONE', #196 ) ;
#73 = VERTEX_POINT ( 'NONE', #195 ) ;
#74 = VERTEX_POINT ( 'NONE', #194 ) ;
#75 = EDGE_LOOP ( 'NONE', ( #81, #84, #78, #82 ) ) ;
#76 = EDGE_CURVE ( 'NONE', #85, #73, #193, .T. ) ;
#77 = EDGE_CURVE ( 'NONE', #74, #73, #189, .T. ) ;
#78 = ORIENTED_EDGE ( 'NONE', *, *, #77, .F. ) ;
#79 = MANIFOLD_SOLID_BREP ( 'NONE', #86 ) ;
#80 = ADVANCED_FACE ( 'NONE', ( #184 ), #183, .T. ) ;
#81 = ORIENTED_EDGE ( 'NONE', *, *, #71, .T. ) ;
#82 = ORIENTED_EDGE ( 'NONE', *, *, #83, .F. ) ;
#83 = EDGE_CURVE ( 'NONE', #72, #74, #219, .T. ) ;
#84 = ORIENTED_EDGE ( 'NONE', *, *, #76, .T. ) ;
#85 = VERTEX_POINT ( 'NONE', #220 ) ;
#86 = CLOSED_SHELL ( 'NONE', ( #80, #65, #107, #115, #114, #34, #97, #100, #92, #133, #145 ) ) ;
#87 = ORIENTED_EDGE ( 'NONE', *, *, #62, .F. ) ;
#88 = EDGE_LOOP ( 'NONE', ( #90, #91 ) ) ;
#89 = EDGE_CURVE ( 'NONE', #47, #117, #221, .T. ) ;
#90 = ORIENTED_EDGE ( 'NONE', *, *, #105, .T. ) ;
#91 = ORIENTED_EDGE ( 'NONE', *, *, #57, .T. ) ;
#92 = ADVANCED_FACE ( 'NONE', ( #218 ), #217, .F. ) ;
#93 = EDGE_LOOP ( 'NONE', ( #102, #103 ) ) ;
#94 = EDGE_LOOP ( 'NONE', ( #43, #87 ) ) ;
#95 = ORIENTED_EDGE ( 'NONE', *, *, #105, .F. ) ;
#96 = ORIENTED_EDGE ( 'NONE', *, *, #44, .F. ) ;
#97 = ADVANCED_FACE ( 'NONE', ( #243 ), #239, .F. ) ;
#98 = ORIENTED_EDGE ( 'NONE', *, *, #39, .F. ) ;
#99 = ORIENTED_EDGE ( 'NONE', *, *, #42, .T. ) ;
#100 = ADVANCED_FACE ( 'NONE', ( #233, #232 ), #238, .F. ) ;
#101 = EDGE_LOOP ( 'NONE', ( #96, #95, #104, #99 ) ) ;
#102 = ORIENTED_EDGE ( 'NONE', *, *, #55, .T. ) ;
#103 = ORIENTED_EDGE ( 'NONE', *, *, #112, .T. ) ;
#104 = ORIENTED_EDGE ( 'NONE', *, *, #36, .T. ) ;
#105 = EDGE_CURVE ( 'NONE', #46, #56, #227, .T. ) ;
#106 = ORIENTED_EDGE ( 'NONE', *, *, #48, .T. ) ;
#107 = ADVANCED_FACE ( 'NONE', ( #222 ), #250, .F. ) ;
#108 = ORIENTED_EDGE ( 'NONE', *, *, #51, .F. ) ;
#109 = ORIENTED_EDGE ( 'NONE', *, *, #52, .T. ) ;
#110 = EDGE_LOOP ( 'NONE', ( #108, #109, #50, #111 ) ) ;
#111 = ORIENTED_EDGE ( 'NONE', *, *, #112, .F. ) ;
#112 = EDGE_CURVE ( 'NONE', #120, #38, #269, .T. ) ;
#113 = EDGE_LOOP ( 'NONE', ( #41, #98 ) ) ;
#114 = ADVANCED_FACE ( 'NONE', ( #268 ), #256, .T. ) ;
#115 = ADVANCED_FACE ( 'NONE', ( #257 ), #251, .T. ) ;
#116 = ORIENTED_EDGE ( 'NONE', *, *, #77, .T. ) ;
#117 = VERTEX_POINT ( 'NONE', #342 ) ;
#118 = ORIENTED_EDGE ( 'NONE', *, *, #58, .F. ) ;
#119 = EDGE_LOOP ( 'NONE', ( #45, #40, #60, #35 ) ) ;
#120 = VERTEX_POINT ( 'NONE', #370 ) ;
#121 = VECTOR ( 'NONE', #33, 1000.000000000000000 ) ;
#122 = CARTESIAN_POINT ( 'NONE',  ( -5.009326287108706300E-010, 2.412507003500041800, 2.500000000000000400 ) ) ;
#123 = LINE ( 'NONE', #122, #121 ) ;
#124 = DIRECTION ( 'NONE',  ( 0.0000000000000000000, 0.0000000000000000000, -1.000000000000000000 ) ) ;
#125 = DIRECTION ( 'NONE',  ( 0.0000000000000000000, -1.000000000000000000, 0.0000000000000000000 ) ) ;
#126 = CARTESIAN_POINT ( 'NONE',  ( 3.999999999499060700, 3.499565437783958000E-009, 0.0000000000000000000 ) ) ;
#127 = AXIS2_PLACEMENT_3D ( 'NONE', #126, #125, #124 ) ;
#128 = PLANE ( 'NONE',  #127 ) ;
#129 = FACE_OUTER_BOUND ( 'NONE', #93, .T. ) ;
#130 = FACE_BOUND ( 'NONE', #113, .T. ) ;
#131 = ORIENTED_EDGE ( 'NONE', *, *, #58, .T. ) ;
#132 = ORIENTED_EDGE ( 'NONE', *, *, #89, .T. ) ;
#133 = ADVANCED_FACE ( 'NONE', ( #369, #317 ), #316, .F. ) ;
#134 = EDGE_LOOP ( 'NONE', ( #135, #136 ) ) ;
#135 = ORIENTED_EDGE ( 'NONE', *, *, #71, .F. ) ;
#136 = ORIENTED_EDGE ( 'NONE', *, *, #137, .F. ) ;
#137 = EDGE_CURVE ( 'NONE', #85, #72, #364, .T. ) ;
#138 = EDGE_LOOP ( 'NONE', ( #143, #144 ) ) ;
#139 = EDGE_LOOP ( 'NONE', ( #140, #141, #131, #132 ) ) ;
#140 = ORIENTED_EDGE ( 'NONE', *, *, #48, .F. ) ;
#141 = ORIENTED_EDGE ( 'NONE', *, *, #142, .F. ) ;
#142 = EDGE_CURVE ( 'NONE', #67, #68, #360, .T. ) ;
#143 = ORIENTED_EDGE ( 'NONE', *, *, #142, .T. ) ;
#144 = ORIENTED_EDGE ( 'NONE', *, *, #69, .T. ) ;
#145 = ADVANCED_FACE ( 'NONE', ( #355 ), #354, .T. ) ;
#146 = EDGE_LOOP ( 'NONE', ( #147, #148, #149, #150 ) ) ;
#147 = ORIENTED_EDGE ( 'NONE', *, *, #76, .F. ) ;
#148 = ORIENTED_EDGE ( 'NONE', *, *, #137, .T. ) ;
#149 = ORIENTED_EDGE ( 'NONE', *, *, #83, .T. ) ;
#150 = ORIENTED_EDGE ( 'NONE', *, *, #52, .F. ) ;
#151 = CYLINDRICAL_SURFACE ( 'NONE', #212, 1.500000000000000000 ) ;
#152 = FACE_OUTER_BOUND ( 'NONE', #70, .T. ) ;
#153 = DIRECTION ( 'NONE',  ( 0.0000000000000000000, 0.0000000000000000000, 1.000000000000000000 ) ) ;
#154 = DIRECTION ( 'NONE',  ( 0.0000000000000000000, 1.000000000000000000, 0.0000000000000000000 ) ) ;
#155 = CARTESIAN_POINT ( 'NONE',  ( -5.009326287108706300E-010, -2.999999996500434900, 0.0000000000000000000 ) ) ;
#156 = AXIS2_PLACEMENT_3D ( 'NONE', #155, #154, #153 ) ;
#157 = CIRCLE ( 'NONE', #156, 1.499999999999999800 ) ;
#158 = CARTESIAN_POINT ( 'NONE',  ( -5.009326287108706300E-010, 3.499565220943523500E-009, 2.500000000000000400 ) ) ;
#159 = CARTESIAN_POINT ( 'NONE',  ( -5.009323225592821800E-010, 3.499565220943523500E-009, -2.500000000000000400 ) ) ;
#160 = DIRECTION ( 'NONE',  ( 0.0000000000000000000, 1.000000000000000000, 0.0000000000000000000 ) ) ;
#161 = VECTOR ( 'NONE', #160, 1000.000000000000000 ) ;
#162 = CARTESIAN_POINT ( 'NONE',  ( -5.009326287108706300E-010, 2.412507003500041800, 1.500000000000000000 ) ) ;
#163 = DIRECTION ( 'NONE',  ( 0.0000000000000000000, 0.0000000000000000000, 1.000000000000000000 ) ) ;
#164 = DIRECTION ( 'NONE',  ( 0.0000000000000000000, 1.000000000000000000, 0.0000000000000000000 ) ) ;
#165 = CARTESIAN_POINT ( 'NONE',  ( -5.009326287108706300E-010, -2.999999996500434900, 0.0000000000000000000 ) ) ;
#166 = AXIS2_PLACEMENT_3D ( 'NONE', #165, #164, #163 ) ;
#167 = CIRCLE ( 'NONE', #166, 2.500000000000000900 ) ;
#168 = LINE ( 'NONE', #162, #161 ) ;
#169 = CARTESIAN_POINT ( 'NONE',  ( -5.009323225592821800E-010, -2.999999996500434900, -2.500000000000000900 ) ) ;
#170 = DIRECTION ( 'NONE',  ( 0.0000000000000000000, 0.0000000000000000000, 1.000000000000000000 ) ) ;
#171 = DIRECTION ( 'NONE',  ( 0.0000000000000000000, 1.000000000000000000, 0.0000000000000000000 ) ) ;
#172 = CARTESIAN_POINT ( 'NONE',  ( -5.009326287108706300E-010, 3.499565220943523500E-009, 0.0000000000000000000 ) ) ;
#173 = AXIS2_PLACEMENT_3D ( 'NONE', #172, #171, #170 ) ;
#174 = CIRCLE ( 'NONE', #173, 3.999999999999993300 ) ;
#175 = DIRECTION ( 'NONE',  ( 0.0000000000000000000, 0.0000000000000000000, 1.000000000000000000 ) ) ;
#176 = DIRECTION ( 'NONE',  ( 0.0000000000000000000, 1.000000000000000000, 0.0000000000000000000 ) ) ;
#177 = CARTESIAN_POINT ( 'NONE',  ( -5.009326287108706300E-010, -0.9999999965004416900, 0.0000000000000000000 ) ) ;
#178 = AXIS2_PLACEMENT_3D ( 'NONE', #177, #176, #175 ) ;
#179 = CIRCLE ( 'NONE', #178, 5.000000000000000000 ) ;
#180 = DIRECTION ( 'NONE',  ( 0.0000000000000000000, 1.000000000000000000, 0.0000000000000000000 ) ) ;
#181 = CARTESIAN_POINT ( 'NONE',  ( -5.009326287108706300E-010, 2.412507003500041800, 0.0000000000000000000 ) ) ;
#182 = AXIS2_PLACEMENT_3D ( 'NONE', #181, #180, #1 ) ;
#183 = CYLINDRICAL_SURFACE ( 'NONE', #182, 5.000000000000000000 ) ;
#184 = FACE_OUTER_BOUND ( 'NONE', #75, .T. ) ;
#185 = DIRECTION ( 'NONE',  ( 0.0000000000000000000, 0.0000000000000000000, 1.000000000000000000 ) ) ;
#186 = DIRECTION ( 'NONE',  ( 0.0000000000000000000, 1.000000000000000000, 0.0000000000000000000 ) ) ;
#187 = CARTESIAN_POINT ( 'NONE',  ( -5.009326287108706300E-010, -0.9999999965004416900, 0.0000000000000000000 ) ) ;
#188 = AXIS2_PLACEMENT_3D ( 'NONE', #187, #186, #185 ) ;
#189 = CIRCLE ( 'NONE', #188, 5.000000000000000000 ) ;
#190 = DIRECTION ( 'NONE',  ( 0.0000000000000000000, 1.000000000000000000, 0.0000000000000000000 ) ) ;
#191 = VECTOR ( 'NONE', #190, 1000.000000000000000 ) ;
#192 = CARTESIAN_POINT ( 'NONE',  ( -5.009320164076937200E-010, 2.412507003500041800, -5.000000000000000000 ) ) ;
#193 = LINE ( 'NONE', #192, #191 ) ;
#194 = CARTESIAN_POINT ( 'NONE',  ( -5.009326287108706300E-010, -0.9999999965004416900, 5.000000000000000000 ) ) ;
#195 = CARTESIAN_POINT ( 'NONE',  ( -5.009320164076937200E-010, -0.9999999965004416900, -5.000000000000000000 ) ) ;
#196 = CARTESIAN_POINT ( 'NONE',  ( -5.009326287108706300E-010, -4.999999996500434900, 5.000000000000000000 ) ) ;
#197 = DIRECTION ( 'NONE',  ( 0.0000000000000000000, 0.0000000000000000000, 1.000000000000000000 ) ) ;
#198 = DIRECTION ( 'NONE',  ( 0.0000000000000000000, 1.000000000000000000, 0.0000000000000000000 ) ) ;
#199 = CARTESIAN_POINT ( 'NONE',  ( -5.009326287108706300E-010, -4.999999996500434900, 0.0000000000000000000 ) ) ;
#200 = AXIS2_PLACEMENT_3D ( 'NONE', #199, #198, #197 ) ;
#201 = CIRCLE ( 'NONE', #200, 5.000000000000000000 ) ;
#202 = DIRECTION ( 'NONE',  ( 0.0000000000000000000, 0.0000000000000000000, 1.000000000000000000 ) ) ;
#203 = DIRECTION ( 'NONE',  ( 0.0000000000000000000, 1.000000000000000000, 0.0000000000000000000 ) ) ;
#204 = CARTESIAN_POINT ( 'NONE',  ( -5.009326287108706300E-010, -4.999999996500434900, 0.0000000000000000000 ) ) ;
#205 = AXIS2_PLACEMENT_3D ( 'NONE', #204, #203, #202 ) ;
#206 = CIRCLE ( 'NONE', #205, 1.500000000000000200 ) ;
#207 = CARTESIAN_POINT ( 'NONE',  ( -5.009324450199175600E-010, -4.999999996500434900, -1.500000000000000400 ) ) ;
#208 = CARTESIAN_POINT ( 'NONE',  ( -5.009326287108706300E-010, -4.999999996500434900, 1.500000000000000200 ) ) ;
#209 = DIRECTION ( 'NONE',  ( 0.0000000000000000000, 0.0000000000000000000, 1.000000000000000000 ) ) ;
#210 = DIRECTION ( 'NONE',  ( 0.0000000000000000000, 1.000000000000000000, 0.0000000000000000000 ) ) ;
#211 = CARTESIAN_POINT ( 'NONE',  ( -5.009326287108706300E-010, 2.412507003500041800, 0.0000000000000000000 ) ) ;
#212 = AXIS2_PLACEMENT_3D ( 'NONE', #211, #210, #209 ) ;
#213 = DIRECTION ( 'NONE',  ( 0.0000000000000000000, 0.0000000000000000000, 1.000000000000000000 ) ) ;
#214 = DIRECTION ( 'NONE',  ( 0.0000000000000000000, 1.000000000000000000, 0.0000000000000000000 ) ) ;
#215 = CARTESIAN_POINT ( 'NONE',  ( -5.009326287108706300E-010, -2.999999996500434900, 0.0000000000000000000 ) ) ;
#216 = DIRECTION ( 'NONE',  ( 0.0000000000000000000, 1.000000000000000000, 0.0000000000000000000 ) ) ;
#217 = CYLINDRICAL_SURFACE ( 'NONE', #244, 1.500000000000000000 ) ;
#218 = FACE_OUTER_BOUND ( 'NONE', #139, .T. ) ;
#219 = LINE ( 'NONE', #245, #247 ) ;
#220 = CARTESIAN_POINT ( 'NONE',  ( -5.009320164076937200E-010, -4.999999996500434900, -5.000000000000000000 ) ) ;
#221 = CIRCLE ( 'NONE', #246, 1.499999999999999800 ) ;
#222 = FACE_OUTER_BOUND ( 'NONE', #119, .T. ) ;
#223 = DIRECTION ( 'NONE',  ( 0.0000000000000000000, 0.0000000000000000000, 1.000000000000000000 ) ) ;
#224 = DIRECTION ( 'NONE',  ( 0.0000000000000000000, 1.000000000000000000, 0.0000000000000000000 ) ) ;
#225 = CARTESIAN_POINT ( 'NONE',  ( -5.009326287108706300E-010, -2.999999996500434900, 0.0000000000000000000 ) ) ;
#226 = AXIS2_PLACEMENT_3D ( 'NONE', #225, #224, #223 ) ;
#227 = CIRCLE ( 'NONE', #226, 2.500000000000000900 ) ;
#228 = DIRECTION ( 'NONE',  ( 0.0000000000000000000, 0.0000000000000000000, -1.000000000000000000 ) ) ;
#229 = DIRECTION ( 'NONE',  ( 0.0000000000000000000, -1.000000000000000000, 0.0000000000000000000 ) ) ;
#230 = CARTESIAN_POINT ( 'NONE',  ( 1.499999999499067100, -2.999999996500434900, 0.0000000000000000000 ) ) ;
#231 = AXIS2_PLACEMENT_3D ( 'NONE', #230, #229, #228 ) ;
#232 = FACE_OUTER_BOUND ( 'NONE', #88, .T. ) ;
#233 = FACE_BOUND ( 'NONE', #94, .T. ) ;
#234 = DIRECTION ( 'NONE',  ( 0.0000000000000000000, 0.0000000000000000000, 1.000000000000000000 ) ) ;
#235 = DIRECTION ( 'NONE',  ( 0.0000000000000000000, 1.000000000000000000, 0.0000000000000000000 ) ) ;
#236 = CARTESIAN_POINT ( 'NONE',  ( -5.009326287108706300E-010, 2.412507003500041800, 0.0000000000000000000 ) ) ;
#237 = AXIS2_PLACEMENT_3D ( 'NONE', #236, #235, #234 ) ;
#238 = PLANE ( 'NONE',  #231 ) ;
#239 = CYLINDRICAL_SURFACE ( 'NONE', #237, 2.500000000000000400 ) ;
#240 = DIRECTION ( 'NONE',  ( 0.0000000000000000000, 0.0000000000000000000, 1.000000000000000000 ) ) ;
#241 = DIRECTION ( 'NONE',  ( 0.0000000000000000000, 1.000000000000000000, 0.0000000000000000000 ) ) ;
#242 = CARTESIAN_POINT ( 'NONE',  ( -5.009326287108706300E-010, 2.412507003500041800, 0.0000000000000000000 ) ) ;
#243 = FACE_OUTER_BOUND ( 'NONE', #101, .T. ) ;
#244 = AXIS2_PLACEMENT_3D ( 'NONE', #242, #241, #240 ) ;
#245 = CARTESIAN_POINT ( 'NONE',  ( -5.009326287108706300E-010, 2.412507003500041800, 5.000000000000000000 ) ) ;
#246 = AXIS2_PLACEMENT_3D ( 'NONE', #215, #216, #213 ) ;
#247 = VECTOR ( 'NONE', #214, 1000.000000000000000 ) ;
#248 = DIRECTION ( 'NONE',  ( 0.0000000000000000000, 1.000000000000000000, 0.0000000000000000000 ) ) ;
#249 = AXIS2_PLACEMENT_3D ( 'NONE', #262, #248, #261 ) ;
#250 = CYLINDRICAL_SURFACE ( 'NONE', #255, 2.500000000000000400 ) ;
#251 = TOROIDAL_SURFACE ( 'NONE', #267, 4.000000000000000000, 1.000000000000000000 ) ;
#252 = DIRECTION ( 'NONE',  ( 0.0000000000000000000, 0.0000000000000000000, 1.000000000000000000 ) ) ;
#253 = DIRECTION ( 'NONE',  ( 0.0000000000000000000, 1.000000000000000000, 0.0000000000000000000 ) ) ;
#254 = CARTESIAN_POINT ( 'NONE',  ( -5.009326287108706300E-010, -0.9999999965004343600, 0.0000000000000000000 ) ) ;
#255 = AXIS2_PLACEMENT_3D ( 'NONE', #259, #258, #260 ) ;
#256 = TOROIDAL_SURFACE ( 'NONE', #263, 4.000000000000000000, 1.000000000000000000 ) ;
#257 = FACE_OUTER_BOUND ( 'NONE', #53, .T. ) ;
#258 = DIRECTION ( 'NONE',  ( 0.0000000000000000000, 1.000000000000000000, 0.0000000000000000000 ) ) ;
#259 = CARTESIAN_POINT ( 'NONE',  ( -5.009326287108706300E-010, 2.412507003500041800, 0.0000000000000000000 ) ) ;
#260 = DIRECTION ( 'NONE',  ( 0.0000000000000000000, 0.0000000000000000000, 1.000000000000000000 ) ) ;
#261 = DIRECTION ( 'NONE',  ( 0.0000000000000000000, 0.0000000000000000000, 1.000000000000000000 ) ) ;
#262 = CARTESIAN_POINT ( 'NONE',  ( -5.009326287108706300E-010, 3.499565220943523500E-009, 0.0000000000000000000 ) ) ;
#263 = AXIS2_PLACEMENT_3D ( 'NONE', #254, #253, #252 ) ;
#264 = DIRECTION ( 'NONE',  ( 0.0000000000000000000, 0.0000000000000000000, 1.000000000000000000 ) ) ;
#265 = DIRECTION ( 'NONE',  ( 0.0000000000000000000, 1.000000000000000000, 0.0000000000000000000 ) ) ;
#266 = CARTESIAN_POINT ( 'NONE',  ( -5.009326287108706300E-010, -0.9999999965004343600, 0.0000000000000000000 ) ) ;
#267 = AXIS2_PLACEMENT_3D ( 'NONE', #266, #265, #264 ) ;
#268 = FACE_OUTER_BOUND ( 'NONE', #110, .T. ) ;
#269 = CIRCLE ( 'NONE', #249, 3.999999999999993300 ) ;
#270 = CC_DESIGN_SECURITY_CLASSIFICATION ( #291, ( #310 ) ) ;
#271 = CC_DESIGN_APPROVAL ( #279, ( #291 ) ) ;
#272 = APPROVAL_DATE_TIME ( #273, #279 ) ;
#273 = DATE_AND_TIME ( #274, #275 ) ;
#274 = CALENDAR_DATE ( 2009, 29, 6 ) ;
#275 = LOCAL_TIME ( 10, 14, 10.00000000000000000, #276 ) ;
#276 = COORDINATED_UNIVERSAL_TIME_OFFSET ( 9, 0, .AHEAD. ) ;
#277 = APPROVAL_PERSON_ORGANIZATION ( #281, #279, #278 ) ;
#278 = APPROVAL_ROLE ( '' ) ;
#279 = APPROVAL ( #280, 'UNSPECIFIED' ) ;
#280 = APPROVAL_STATUS ( 'not_yet_approved' ) ;
#281 = PERSON_AND_ORGANIZATION ( #335, #334 ) ;
#282 = CC_DESIGN_DATE_AND_TIME_ASSIGNMENT ( #284, #283, ( #291 ) ) ;
#283 = DATE_TIME_ROLE ( 'classification_date' ) ;
#284 = DATE_AND_TIME ( #285, #286 ) ;
#285 = CALENDAR_DATE ( 2009, 29, 6 ) ;
#286 = LOCAL_TIME ( 10, 14, 10.00000000000000000, #287 ) ;
#287 = COORDINATED_UNIVERSAL_TIME_OFFSET ( 9, 0, .AHEAD. ) ;
#288 = CC_DESIGN_PERSON_AND_ORGANIZATION_ASSIGNMENT ( #290, #289, ( #291 ) ) ;
#289 = PERSON_AND_ORGANIZATION_ROLE ( 'classification_officer' ) ;
#290 = PERSON_AND_ORGANIZATION ( #335, #334 ) ;
#291 = SECURITY_CLASSIFICATION ( '', '', #292 ) ;
#292 = SECURITY_CLASSIFICATION_LEVEL ( 'unclassified' ) ;
#293 = CC_DESIGN_PERSON_AND_ORGANIZATION_ASSIGNMENT ( #295, #294, ( #310 ) ) ;
#294 = PERSON_AND_ORGANIZATION_ROLE ( 'design_supplier' ) ;
#295 = PERSON_AND_ORGANIZATION ( #335, #334 ) ;
#296 = CC_DESIGN_PERSON_AND_ORGANIZATION_ASSIGNMENT ( #298, #297, ( #310 ) ) ;
#297 = PERSON_AND_ORGANIZATION_ROLE ( 'creator' ) ;
#298 = PERSON_AND_ORGANIZATION ( #335, #334 ) ;
#299 = CC_DESIGN_APPROVAL ( #307, ( #310 ) ) ;
#300 = APPROVAL_DATE_TIME ( #301, #307 ) ;
#301 = DATE_AND_TIME ( #302, #303 ) ;
#302 = CALENDAR_DATE ( 2009, 29, 6 ) ;
#303 = LOCAL_TIME ( 10, 14, 10.00000000000000000, #304 ) ;
#304 = COORDINATED_UNIVERSAL_TIME_OFFSET ( 9, 0, .AHEAD. ) ;
#305 = APPROVAL_PERSON_ORGANIZATION ( #309, #307, #306 ) ;
#306 = APPROVAL_ROLE ( '' ) ;
#307 = APPROVAL ( #308, 'UNSPECIFIED' ) ;
#308 = APPROVAL_STATUS ( 'not_yet_approved' ) ;
#309 = PERSON_AND_ORGANIZATION ( #335, #334 ) ;
#310 = PRODUCT_DEFINITION_FORMATION_WITH_SPECIFIED_SOURCE ( 'ANY', '', #336, .NOT_KNOWN. ) ;
#311 = CARTESIAN_POINT ( 'NONE',  ( -5.009326287108706300E-010, -4.999999996500434900, 0.0000000000000000000 ) ) ;
#312 = DIRECTION ( 'NONE',  ( 0.0000000000000000000, 0.0000000000000000000, 1.000000000000000000 ) ) ;
#313 = DIRECTION ( 'NONE',  ( 0.0000000000000000000, 1.000000000000000000, 0.0000000000000000000 ) ) ;
#314 = CARTESIAN_POINT ( 'NONE',  ( 1.499999999499067600, -4.999999996500434900, 0.0000000000000000000 ) ) ;
#315 = AXIS2_PLACEMENT_3D ( 'NONE', #314, #313, #312 ) ;
#316 = PLANE ( 'NONE',  #315 ) ;
#317 = FACE_BOUND ( 'NONE', #138, .T. ) ;
#318 = DATE_AND_TIME ( #319, #320 ) ;
#319 = CALENDAR_DATE ( 2009, 29, 6 ) ;
#320 = LOCAL_TIME ( 10, 14, 10.00000000000000000, #321 ) ;
#321 = COORDINATED_UNIVERSAL_TIME_OFFSET ( 9, 0, .AHEAD. ) ;
#322 = APPROVAL_PERSON_ORGANIZATION ( #326, #324, #323 ) ;
#323 = APPROVAL_ROLE ( '' ) ;
#324 = APPROVAL ( #325, 'UNSPECIFIED' ) ;
#325 = APPROVAL_STATUS ( 'not_yet_approved' ) ;
#326 = PERSON_AND_ORGANIZATION ( #335, #334 ) ;
#327 = PRODUCT_DEFINITION ( 'UNKNOWN', '', #310, #328 ) ;
#328 = DESIGN_CONTEXT ( 'detailed design', #330, 'design' ) ;
#329 = APPLICATION_PROTOCOL_DEFINITION ( 'international standard', 'config_control_design', 1994, #330 ) ;
#330 = APPLICATION_CONTEXT ( 'configuration controlled 3d designs of mechanical parts and assemblies' ) ;
#331 = CC_DESIGN_PERSON_AND_ORGANIZATION_ASSIGNMENT ( #333, #332, ( #336 ) ) ;
#332 = PERSON_AND_ORGANIZATION_ROLE ( 'design_owner' ) ;
#333 = PERSON_AND_ORGANIZATION ( #335, #334 ) ;
#334 = ORGANIZATION ( 'UNSPECIFIED', 'UNSPECIFIED', '' ) ;
#335 = PERSON ( 'UNSPECIFIED', 'UNSPECIFIED', 'UNSPECIFIED', ('UNSPECIFIED'), ('UNSPECIFIED'), ('UNSPECIFIED') ) ;
#336 = PRODUCT ( 'C-30-RK-10-ÃÞÌ«ÙÄ', 'C-30-RK-10-ÃÞÌ«ÙÄ', '', ( #337 ) ) ;
#337 = MECHANICAL_CONTEXT ( 'NONE', #339, 'mechanical' ) ;
#338 = APPLICATION_PROTOCOL_DEFINITION ( 'international standard', 'config_control_design', 1994, #339 ) ;
#339 = APPLICATION_CONTEXT ( 'configuration controlled 3d designs of mechanical parts and assemblies' ) ;
#340 = PRODUCT_DEFINITION_SHAPE ( 'NONE', 'NONE',  #327 ) ;
#341 = PRODUCT_RELATED_PRODUCT_CATEGORY ( 'detail', '', ( #336 ) ) ;
#342 = CARTESIAN_POINT ( 'NONE',  ( -5.009324450199175600E-010, -2.999999996500434900, -1.499999999999999800 ) ) ;
#343 = ADVANCED_BREP_SHAPE_REPRESENTATION ( 'C-30-RK-10-ÃÞÌ«ÙÄ', ( #79, #367 ), #344 ) ;
#344 =( GEOMETRIC_REPRESENTATION_CONTEXT ( 3 ) GLOBAL_UNCERTAINTY_ASSIGNED_CONTEXT ( ( #345 ) ) GLOBAL_UNIT_ASSIGNED_CONTEXT ( ( #348, #347, #346 ) ) REPRESENTATION_CONTEXT ( 'NONE', 'WORKASPACE' ) );
#345 = UNCERTAINTY_MEASURE_WITH_UNIT (LENGTH_MEASURE( 1.000000000000000100E-005 ), #348, 'distance_accuracy_value', 'NONE');
#346 =( NAMED_UNIT ( * ) SI_UNIT ( $, .STERADIAN. ) SOLID_ANGLE_UNIT ( ) );
#347 =( NAMED_UNIT ( * ) PLANE_ANGLE_UNIT ( ) SI_UNIT ( $, .RADIAN. ) );
#348 =( LENGTH_UNIT ( ) NAMED_UNIT ( * ) SI_UNIT ( .MILLI., .METRE. ) );
#349 = CARTESIAN_POINT ( 'NONE',  ( 0.0000000000000000000, 0.0000000000000000000, 0.0000000000000000000 ) ) ;
#350 = DIRECTION ( 'NONE',  ( 0.0000000000000000000, 0.0000000000000000000, 1.000000000000000000 ) ) ;
#351 = DIRECTION ( 'NONE',  ( 0.0000000000000000000, 1.000000000000000000, 0.0000000000000000000 ) ) ;
#352 = CARTESIAN_POINT ( 'NONE',  ( -5.009326287108706300E-010, 2.412507003500041800, 0.0000000000000000000 ) ) ;
#353 = AXIS2_PLACEMENT_3D ( 'NONE', #352, #351, #350 ) ;
#354 = CYLINDRICAL_SURFACE ( 'NONE', #353, 5.000000000000000000 ) ;
#355 = FACE_OUTER_BOUND ( 'NONE', #146, .T. ) ;
#356 = DIRECTION ( 'NONE',  ( 0.0000000000000000000, 0.0000000000000000000, 1.000000000000000000 ) ) ;
#357 = DIRECTION ( 'NONE',  ( 0.0000000000000000000, 1.000000000000000000, 0.0000000000000000000 ) ) ;
#358 = CARTESIAN_POINT ( 'NONE',  ( -5.009326287108706300E-010, -4.999999996500434900, 0.0000000000000000000 ) ) ;
#359 = AXIS2_PLACEMENT_3D ( 'NONE', #358, #357, #356 ) ;
#360 = CIRCLE ( 'NONE', #359, 1.500000000000000200 ) ;
#361 = DIRECTION ( 'NONE',  ( 0.0000000000000000000, 0.0000000000000000000, 1.000000000000000000 ) ) ;
#362 = DIRECTION ( 'NONE',  ( 0.0000000000000000000, 1.000000000000000000, 0.0000000000000000000 ) ) ;
#363 = AXIS2_PLACEMENT_3D ( 'NONE', #311, #362, #361 ) ;
#364 = CIRCLE ( 'NONE', #363, 5.000000000000000000 ) ;
#365 = DIRECTION ( 'NONE',  ( 1.000000000000000000, 0.0000000000000000000, 0.0000000000000000000 ) ) ;
#366 = DIRECTION ( 'NONE',  ( 0.0000000000000000000, 0.0000000000000000000, 1.000000000000000000 ) ) ;
#367 = AXIS2_PLACEMENT_3D ( 'NONE', #349, #366, #365 ) ;
#368 = SHAPE_DEFINITION_REPRESENTATION ( #340, #343 ) ;
#369 = FACE_OUTER_BOUND ( 'NONE', #134, .T. ) ;
#370 = CARTESIAN_POINT ( 'NONE',  ( -5.009320776380114100E-010, 3.499565220943523500E-009, -3.999999999999993300 ) ) ;
#371 = CC_DESIGN_DATE_AND_TIME_ASSIGNMENT ( #373, #372, ( #327 ) ) ;
#372 = DATE_TIME_ROLE ( 'creation_date' ) ;
#373 = DATE_AND_TIME ( #374, #375 ) ;
#374 = CALENDAR_DATE ( 2009, 29, 6 ) ;
#375 = LOCAL_TIME ( 10, 14, 10.00000000000000000, #376 ) ;
#376 = COORDINATED_UNIVERSAL_TIME_OFFSET ( 9, 0, .AHEAD. ) ;
#377 = CC_DESIGN_PERSON_AND_ORGANIZATION_ASSIGNMENT ( #379, #378, ( #327 ) ) ;
#378 = PERSON_AND_ORGANIZATION_ROLE ( 'creator' ) ;
#379 = PERSON_AND_ORGANIZATION ( #335, #334 ) ;
#380 = CC_DESIGN_APPROVAL ( #324, ( #327 ) ) ;
#381 = APPROVAL_DATE_TIME ( #318, #324 ) ;
ENDSEC;
END-ISO-10303-21;
