ISO-10303-21;
HEADER;
FILE_DESCRIPTION (( 'STEP AP203' ),
    '1' );
FILE_NAME ('C-30-RK-10-gray.STEP',
    '2009-06-29T01:11:47',
    ( '11sw' ),
    ( '^LQ»¢®ïÐ' ),
    'SwSTEP 2.0',
    'SolidWorks 2007',
    '' );
FILE_SCHEMA (( 'CONFIG_CONTROL_DESIGN' ));
ENDSEC;

DATA;
#1 = ORIENTED_EDGE ( 'NONE', *, *, #107, .T. ) ;
#2 = ORIENTED_EDGE ( 'NONE', *, *, #13, .T. ) ;
#3 = ORIENTED_EDGE ( 'NONE', *, *, #111, .T. ) ;
#4 = ORIENTED_EDGE ( 'NONE', *, *, #101, .F. ) ;
#5 = ADVANCED_FACE ( 'NONE', ( #91 ), #89, .T. ) ;
#6 = EDGE_LOOP ( 'NONE', ( #4, #2, #1, #14 ) ) ;
#7 = ORIENTED_EDGE ( 'NONE', *, *, #25, .T. ) ;
#8 = EDGE_LOOP ( 'NONE', ( #7, #3 ) ) ;
#9 = VERTEX_POINT ( 'NONE', #85 ) ;
#10 = EDGE_LOOP ( 'NONE', ( #11, #12 ) ) ;
#11 = ORIENTED_EDGE ( 'NONE', *, *, #97, .F. ) ;
#12 = ORIENTED_EDGE ( 'NONE', *, *, #13, .F. ) ;
#13 = EDGE_CURVE ( 'NONE', #99, #98, #300, .T. ) ;
#14 = ORIENTED_EDGE ( 'NONE', *, *, #32, .F. ) ;
#15 = CLOSED_SHELL ( 'NONE', ( #94, #109, #69, #77, #28, #36, #44, #51, #24, #23, #5 ) ) ;
#16 = ORIENTED_EDGE ( 'NONE', *, *, #68, .T. ) ;
#17 = ORIENTED_EDGE ( 'NONE', *, *, #115, .F. ) ;
#18 = EDGE_CURVE ( 'NONE', #66, #63, #295, .T. ) ;
#19 = ORIENTED_EDGE ( 'NONE', *, *, #65, .F. ) ;
#20 = ORIENTED_EDGE ( 'NONE', *, *, #72, .T. ) ;
#21 = ORIENTED_EDGE ( 'NONE', *, *, #18, .T. ) ;
#22 = ORIENTED_EDGE ( 'NONE', *, *, #25, .F. ) ;
#23 = ADVANCED_FACE ( 'NONE', ( #290, #289 ), #288, .F. ) ;
#24 = ADVANCED_FACE ( 'NONE', ( #283 ), #282, .F. ) ;
#25 = EDGE_CURVE ( 'NONE', #113, #112, #276, .T. ) ;
#26 = ORIENTED_EDGE ( 'NONE', *, *, #27, .F. ) ;
#27 = EDGE_CURVE ( 'NONE', #105, #9, #271, .T. ) ;
#28 = ADVANCED_FACE ( 'NONE', ( #272 ), #266, .T. ) ;
#29 = EDGE_LOOP ( 'NONE', ( #30, #31, #33, #34 ) ) ;
#30 = ORIENTED_EDGE ( 'NONE', *, *, #84, .F. ) ;
#31 = ORIENTED_EDGE ( 'NONE', *, *, #32, .T. ) ;
#32 = EDGE_CURVE ( 'NONE', #102, #105, #260, .T. ) ;
#33 = ORIENTED_EDGE ( 'NONE', *, *, #27, .T. ) ;
#34 = ORIENTED_EDGE ( 'NONE', *, *, #35, .F. ) ;
#35 = EDGE_CURVE ( 'NONE', #80, #9, #256, .T. ) ;
#36 = ADVANCED_FACE ( 'NONE', ( #251, #250 ), #249, .F. ) ;
#37 = EDGE_LOOP ( 'NONE', ( #38, #40 ) ) ;
#38 = ORIENTED_EDGE ( 'NONE', *, *, #39, .F. ) ;
#39 = EDGE_CURVE ( 'NONE', #60, #57, #244, .T. ) ;
#40 = ORIENTED_EDGE ( 'NONE', *, *, #59, .F. ) ;
#41 = EDGE_LOOP ( 'NONE', ( #42, #43 ) ) ;
#42 = ORIENTED_EDGE ( 'NONE', *, *, #79, .T. ) ;
#43 = ORIENTED_EDGE ( 'NONE', *, *, #35, .T. ) ;
#44 = ADVANCED_FACE ( 'NONE', ( #239 ), #238, .F. ) ;
#45 = EDGE_LOOP ( 'NONE', ( #46, #47, #49, #50 ) ) ;
#46 = ORIENTED_EDGE ( 'NONE', *, *, #76, .F. ) ;
#47 = ORIENTED_EDGE ( 'NONE', *, *, #48, .F. ) ;
#48 = EDGE_CURVE ( 'NONE', #74, #73, #237, .T. ) ;
#49 = ORIENTED_EDGE ( 'NONE', *, *, #62, .T. ) ;
#50 = ORIENTED_EDGE ( 'NONE', *, *, #39, .T. ) ;
#51 = ADVANCED_FACE ( 'NONE', ( #228, #227 ), #226, .F. ) ;
#52 = EDGE_LOOP ( 'NONE', ( #53, #19 ) ) ;
#53 = ORIENTED_EDGE ( 'NONE', *, *, #18, .F. ) ;
#54 = EDGE_LOOP ( 'NONE', ( #55, #20 ) ) ;
#55 = ORIENTED_EDGE ( 'NONE', *, *, #48, .T. ) ;
#56 = EDGE_LOOP ( 'NONE', ( #17, #22, #16, #21 ) ) ;
#57 = VERTEX_POINT ( 'NONE', #221 ) ;
#58 = ORIENTED_EDGE ( 'NONE', *, *, #59, .T. ) ;
#59 = EDGE_CURVE ( 'NONE', #57, #60, #220, .T. ) ;
#60 = VERTEX_POINT ( 'NONE', #215 ) ;
#61 = ORIENTED_EDGE ( 'NONE', *, *, #62, .F. ) ;
#62 = EDGE_CURVE ( 'NONE', #74, #60, #214, .T. ) ;
#63 = VERTEX_POINT ( 'NONE', #210 ) ;
#64 = ORIENTED_EDGE ( 'NONE', *, *, #65, .T. ) ;
#65 = EDGE_CURVE ( 'NONE', #63, #66, #209, .T. ) ;
#66 = VERTEX_POINT ( 'NONE', #204 ) ;
#67 = ORIENTED_EDGE ( 'NONE', *, *, #68, .F. ) ;
#68 = EDGE_CURVE ( 'NONE', #113, #66, #203, .T. ) ;
#69 = ADVANCED_FACE ( 'NONE', ( #199 ), #198, .F. ) ;
#70 = EDGE_LOOP ( 'NONE', ( #71, #75, #58, #61 ) ) ;
#71 = ORIENTED_EDGE ( 'NONE', *, *, #72, .F. ) ;
#72 = EDGE_CURVE ( 'NONE', #73, #74, #192, .T. ) ;
#73 = VERTEX_POINT ( 'NONE', #188 ) ;
#74 = VERTEX_POINT ( 'NONE', #187 ) ;
#75 = ORIENTED_EDGE ( 'NONE', *, *, #76, .T. ) ;
#76 = EDGE_CURVE ( 'NONE', #73, #57, #186, .T. ) ;
#77 = ADVANCED_FACE ( 'NONE', ( #182 ), #181, .T. ) ;
#78 = EDGE_LOOP ( 'NONE', ( #82, #83, #81, #26 ) ) ;
#79 = EDGE_CURVE ( 'NONE', #9, #80, #175, .T. ) ;
#80 = VERTEX_POINT ( 'NONE', #171 ) ;
#81 = ORIENTED_EDGE ( 'NONE', *, *, #79, .F. ) ;
#82 = ORIENTED_EDGE ( 'NONE', *, *, #104, .T. ) ;
#83 = ORIENTED_EDGE ( 'NONE', *, *, #84, .T. ) ;
#84 = EDGE_CURVE ( 'NONE', #102, #80, #170, .T. ) ;
#85 = CARTESIAN_POINT ( 'NONE',  ( -5.009326287108706300E-010, 3.499565220943523500E-009, 3.999999999999993300 ) ) ;
#86 = DIRECTION ( 'NONE',  ( 0.0000000000000000000, 0.0000000000000000000, 1.000000000000000000 ) ) ;
#87 = DIRECTION ( 'NONE',  ( 0.0000000000000000000, 1.000000000000000000, 0.0000000000000000000 ) ) ;
#88 = AXIS2_PLACEMENT_3D ( 'NONE', #90, #87, #86 ) ;
#89 = CYLINDRICAL_SURFACE ( 'NONE', #88, 5.000000000000000000 ) ;
#90 = CARTESIAN_POINT ( 'NONE',  ( -5.009326287108706300E-010, 2.412507003500041800, 0.0000000000000000000 ) ) ;
#91 = FACE_OUTER_BOUND ( 'NONE', #6, .T. ) ;
#92 =( LENGTH_UNIT ( ) NAMED_UNIT ( * ) SI_UNIT ( .MILLI., .METRE. ) );
#93 = MANIFOLD_SOLID_BREP ( 'NONE', #15 ) ;
#94 = ADVANCED_FACE ( 'NONE', ( #165 ), #164, .T. ) ;
#95 = EDGE_LOOP ( 'NONE', ( #96, #100, #103, #106 ) ) ;
#96 = ORIENTED_EDGE ( 'NONE', *, *, #97, .T. ) ;
#97 = EDGE_CURVE ( 'NONE', #98, #99, #163, .T. ) ;
#98 = VERTEX_POINT ( 'NONE', #154 ) ;
#99 = VERTEX_POINT ( 'NONE', #153 ) ;
#100 = ORIENTED_EDGE ( 'NONE', *, *, #101, .T. ) ;
#101 = EDGE_CURVE ( 'NONE', #99, #102, #152, .T. ) ;
#102 = VERTEX_POINT ( 'NONE', #148 ) ;
#103 = ORIENTED_EDGE ( 'NONE', *, *, #104, .F. ) ;
#104 = EDGE_CURVE ( 'NONE', #105, #102, #147, .T. ) ;
#105 = VERTEX_POINT ( 'NONE', #142 ) ;
#106 = ORIENTED_EDGE ( 'NONE', *, *, #107, .F. ) ;
#107 = EDGE_CURVE ( 'NONE', #98, #105, #141, .T. ) ;
#108 = EDGE_LOOP ( 'NONE', ( #110, #114, #64, #67 ) ) ;
#109 = ADVANCED_FACE ( 'NONE', ( #137 ), #136, .F. ) ;
#110 = ORIENTED_EDGE ( 'NONE', *, *, #111, .F. ) ;
#111 = EDGE_CURVE ( 'NONE', #112, #113, #135, .T. ) ;
#112 = VERTEX_POINT ( 'NONE', #126 ) ;
#113 = VERTEX_POINT ( 'NONE', #125 ) ;
#114 = ORIENTED_EDGE ( 'NONE', *, *, #115, .T. ) ;
#115 = EDGE_CURVE ( 'NONE', #112, #63, #124, .T. ) ;
#116 = ADVANCED_BREP_SHAPE_REPRESENTATION ( 'C-30-RK-10-gray', ( #93, #381 ), #117 ) ;
#117 =( GEOMETRIC_REPRESENTATION_CONTEXT ( 3 ) GLOBAL_UNCERTAINTY_ASSIGNED_CONTEXT ( ( #118 ) ) GLOBAL_UNIT_ASSIGNED_CONTEXT ( ( #92, #120, #119 ) ) REPRESENTATION_CONTEXT ( 'NONE', 'WORKASPACE' ) );
#118 = UNCERTAINTY_MEASURE_WITH_UNIT (LENGTH_MEASURE( 1.000000000000000100E-005 ), #92, 'distance_accuracy_value', 'NONE');
#119 =( NAMED_UNIT ( * ) SI_UNIT ( $, .STERADIAN. ) SOLID_ANGLE_UNIT ( ) );
#120 =( NAMED_UNIT ( * ) PLANE_ANGLE_UNIT ( ) SI_UNIT ( $, .RADIAN. ) );
#121 = DIRECTION ( 'NONE',  ( 0.0000000000000000000, 1.000000000000000000, 0.0000000000000000000 ) ) ;
#122 = VECTOR ( 'NONE', #121, 1000.000000000000000 ) ;
#123 = CARTESIAN_POINT ( 'NONE',  ( -5.009324450199175600E-010, 2.412507003500041800, -1.500000000000000000 ) ) ;
#124 = LINE ( 'NONE', #123, #122 ) ;
#125 = CARTESIAN_POINT ( 'NONE',  ( -5.009326287108706300E-010, -4.999999996500434900, 1.500000000000000200 ) ) ;
#126 = CARTESIAN_POINT ( 'NONE',  ( -5.009324450199175600E-010, -4.999999996500434900, -1.500000000000000200 ) ) ;
#127 = DIRECTION ( 'NONE',  ( 0.0000000000000000000, 0.0000000000000000000, 1.000000000000000000 ) ) ;
#128 = DIRECTION ( 'NONE',  ( 0.0000000000000000000, 1.000000000000000000, 0.0000000000000000000 ) ) ;
#129 = CARTESIAN_POINT ( 'NONE',  ( -5.009326287108706300E-010, -4.999999996500434900, 0.0000000000000000000 ) ) ;
#130 = AXIS2_PLACEMENT_3D ( 'NONE', #129, #128, #127 ) ;
#131 = DIRECTION ( 'NONE',  ( 0.0000000000000000000, 0.0000000000000000000, 1.000000000000000000 ) ) ;
#132 = DIRECTION ( 'NONE',  ( 0.0000000000000000000, 1.000000000000000000, 0.0000000000000000000 ) ) ;
#133 = CARTESIAN_POINT ( 'NONE',  ( -5.009326287108706300E-010, 2.412507003500041800, 0.0000000000000000000 ) ) ;
#134 = AXIS2_PLACEMENT_3D ( 'NONE', #133, #132, #131 ) ;
#135 = CIRCLE ( 'NONE', #130, 1.500000000000000200 ) ;
#136 = CYLINDRICAL_SURFACE ( 'NONE', #134, 1.500000000000000000 ) ;
#137 = FACE_OUTER_BOUND ( 'NONE', #108, .T. ) ;
#138 = DIRECTION ( 'NONE',  ( 0.0000000000000000000, 1.000000000000000000, 0.0000000000000000000 ) ) ;
#139 = VECTOR ( 'NONE', #138, 1000.000000000000000 ) ;
#140 = CARTESIAN_POINT ( 'NONE',  ( -5.009326287108706300E-010, 2.412507003500041800, 5.000000000000000000 ) ) ;
#141 = LINE ( 'NONE', #140, #139 ) ;
#142 = CARTESIAN_POINT ( 'NONE',  ( -5.009326287108706300E-010, -0.9999999965004416900, 5.000000000000000000 ) ) ;
#143 = DIRECTION ( 'NONE',  ( 0.0000000000000000000, 0.0000000000000000000, 1.000000000000000000 ) ) ;
#144 = DIRECTION ( 'NONE',  ( 0.0000000000000000000, 1.000000000000000000, 0.0000000000000000000 ) ) ;
#145 = CARTESIAN_POINT ( 'NONE',  ( -5.009326287108706300E-010, -0.9999999965004416900, 0.0000000000000000000 ) ) ;
#146 = AXIS2_PLACEMENT_3D ( 'NONE', #145, #144, #143 ) ;
#147 = CIRCLE ( 'NONE', #146, 5.000000000000000000 ) ;
#148 = CARTESIAN_POINT ( 'NONE',  ( -5.009320164076937200E-010, -0.9999999965004416900, -5.000000000000000000 ) ) ;
#149 = DIRECTION ( 'NONE',  ( 0.0000000000000000000, 1.000000000000000000, 0.0000000000000000000 ) ) ;
#150 = VECTOR ( 'NONE', #149, 1000.000000000000000 ) ;
#151 = CARTESIAN_POINT ( 'NONE',  ( -5.009320164076937200E-010, 2.412507003500041800, -5.000000000000000000 ) ) ;
#152 = LINE ( 'NONE', #151, #150 ) ;
#153 = CARTESIAN_POINT ( 'NONE',  ( -5.009320164076937200E-010, -4.999999996500434900, -5.000000000000000000 ) ) ;
#154 = CARTESIAN_POINT ( 'NONE',  ( -5.009326287108706300E-010, -4.999999996500434900, 5.000000000000000000 ) ) ;
#155 = DIRECTION ( 'NONE',  ( 0.0000000000000000000, 0.0000000000000000000, 1.000000000000000000 ) ) ;
#156 = DIRECTION ( 'NONE',  ( 0.0000000000000000000, 1.000000000000000000, 0.0000000000000000000 ) ) ;
#157 = CARTESIAN_POINT ( 'NONE',  ( -5.009326287108706300E-010, -4.999999996500434900, 0.0000000000000000000 ) ) ;
#158 = AXIS2_PLACEMENT_3D ( 'NONE', #157, #156, #155 ) ;
#159 = DIRECTION ( 'NONE',  ( 0.0000000000000000000, 0.0000000000000000000, 1.000000000000000000 ) ) ;
#160 = DIRECTION ( 'NONE',  ( 0.0000000000000000000, 1.000000000000000000, 0.0000000000000000000 ) ) ;
#161 = CARTESIAN_POINT ( 'NONE',  ( -5.009326287108706300E-010, 2.412507003500041800, 0.0000000000000000000 ) ) ;
#162 = AXIS2_PLACEMENT_3D ( 'NONE', #161, #160, #159 ) ;
#163 = CIRCLE ( 'NONE', #158, 5.000000000000000000 ) ;
#164 = CYLINDRICAL_SURFACE ( 'NONE', #162, 5.000000000000000000 ) ;
#165 = FACE_OUTER_BOUND ( 'NONE', #95, .T. ) ;
#166 = DIRECTION ( 'NONE',  ( 1.224606353612350900E-016, 0.0000000000000000000, -1.000000000000000000 ) ) ;
#167 = DIRECTION ( 'NONE',  ( 1.000000000000000000, 0.0000000000000000000, 1.224606353822377300E-016 ) ) ;
#168 = CARTESIAN_POINT ( 'NONE',  ( -5.009321388683291000E-010, -0.9999999965004343600, -4.000000000000000000 ) ) ;
#169 = AXIS2_PLACEMENT_3D ( 'NONE', #168, #167, #166 ) ;
#170 = CIRCLE ( 'NONE', #169, 1.000000000000000000 ) ;
#171 = CARTESIAN_POINT ( 'NONE',  ( -5.009320776380114100E-010, 3.499565220943523500E-009, -3.999999999999993300 ) ) ;
#172 = DIRECTION ( 'NONE',  ( 0.0000000000000000000, 0.0000000000000000000, 1.000000000000000000 ) ) ;
#173 = DIRECTION ( 'NONE',  ( 0.0000000000000000000, 1.000000000000000000, 0.0000000000000000000 ) ) ;
#174 = AXIS2_PLACEMENT_3D ( 'NONE', #180, #173, #172 ) ;
#175 = CIRCLE ( 'NONE', #174, 3.999999999999993300 ) ;
#176 = DIRECTION ( 'NONE',  ( 0.0000000000000000000, 0.0000000000000000000, 1.000000000000000000 ) ) ;
#177 = DIRECTION ( 'NONE',  ( 0.0000000000000000000, 1.000000000000000000, 0.0000000000000000000 ) ) ;
#178 = CARTESIAN_POINT ( 'NONE',  ( -5.009326287108706300E-010, -0.9999999965004343600, 0.0000000000000000000 ) ) ;
#179 = AXIS2_PLACEMENT_3D ( 'NONE', #178, #177, #176 ) ;
#180 = CARTESIAN_POINT ( 'NONE',  ( -5.009326287108706300E-010, 3.499565220943523500E-009, 0.0000000000000000000 ) ) ;
#181 = TOROIDAL_SURFACE ( 'NONE', #179, 4.000000000000000000, 1.000000000000000000 ) ;
#182 = FACE_OUTER_BOUND ( 'NONE', #78, .T. ) ;
#183 = DIRECTION ( 'NONE',  ( 0.0000000000000000000, 1.000000000000000000, 0.0000000000000000000 ) ) ;
#184 = VECTOR ( 'NONE', #183, 1000.000000000000000 ) ;
#185 = CARTESIAN_POINT ( 'NONE',  ( -5.009323225592821800E-010, 2.412507003500041800, -2.500000000000000400 ) ) ;
#186 = LINE ( 'NONE', #185, #184 ) ;
#187 = CARTESIAN_POINT ( 'NONE',  ( -5.009326287108706300E-010, -2.999999996500434900, 2.500000000000000900 ) ) ;
#188 = CARTESIAN_POINT ( 'NONE',  ( -5.009323225592821800E-010, -2.999999996500434900, -2.500000000000000900 ) ) ;
#189 = DIRECTION ( 'NONE',  ( 0.0000000000000000000, 0.0000000000000000000, 1.000000000000000000 ) ) ;
#190 = DIRECTION ( 'NONE',  ( 0.0000000000000000000, 1.000000000000000000, 0.0000000000000000000 ) ) ;
#191 = AXIS2_PLACEMENT_3D ( 'NONE', #197, #190, #189 ) ;
#192 = CIRCLE ( 'NONE', #191, 2.500000000000000900 ) ;
#193 = DIRECTION ( 'NONE',  ( 0.0000000000000000000, 0.0000000000000000000, 1.000000000000000000 ) ) ;
#194 = DIRECTION ( 'NONE',  ( 0.0000000000000000000, 1.000000000000000000, 0.0000000000000000000 ) ) ;
#195 = CARTESIAN_POINT ( 'NONE',  ( -5.009326287108706300E-010, 2.412507003500041800, 0.0000000000000000000 ) ) ;
#196 = AXIS2_PLACEMENT_3D ( 'NONE', #195, #194, #193 ) ;
#197 = CARTESIAN_POINT ( 'NONE',  ( -5.009326287108706300E-010, -2.999999996500434900, 0.0000000000000000000 ) ) ;
#198 = CYLINDRICAL_SURFACE ( 'NONE', #196, 2.500000000000000400 ) ;
#199 = FACE_OUTER_BOUND ( 'NONE', #70, .T. ) ;
#200 = DIRECTION ( 'NONE',  ( 0.0000000000000000000, 1.000000000000000000, 0.0000000000000000000 ) ) ;
#201 = VECTOR ( 'NONE', #200, 1000.000000000000000 ) ;
#202 = CARTESIAN_POINT ( 'NONE',  ( -5.009326287108706300E-010, 2.412507003500041800, 1.500000000000000000 ) ) ;
#203 = LINE ( 'NONE', #202, #201 ) ;
#204 = CARTESIAN_POINT ( 'NONE',  ( -5.009326287108706300E-010, -2.999999996500434900, 1.499999999999999800 ) ) ;
#205 = DIRECTION ( 'NONE',  ( 0.0000000000000000000, 0.0000000000000000000, 1.000000000000000000 ) ) ;
#206 = DIRECTION ( 'NONE',  ( 0.0000000000000000000, 1.000000000000000000, 0.0000000000000000000 ) ) ;
#207 = CARTESIAN_POINT ( 'NONE',  ( -5.009326287108706300E-010, -2.999999996500434900, 0.0000000000000000000 ) ) ;
#208 = AXIS2_PLACEMENT_3D ( 'NONE', #207, #206, #205 ) ;
#209 = CIRCLE ( 'NONE', #208, 1.499999999999999800 ) ;
#210 = CARTESIAN_POINT ( 'NONE',  ( -5.009324450199175600E-010, -2.999999996500434900, -1.499999999999999800 ) ) ;
#211 = DIRECTION ( 'NONE',  ( 0.0000000000000000000, 1.000000000000000000, 0.0000000000000000000 ) ) ;
#212 = VECTOR ( 'NONE', #211, 1000.000000000000000 ) ;
#213 = CARTESIAN_POINT ( 'NONE',  ( -5.009326287108706300E-010, 2.412507003500041800, 2.500000000000000400 ) ) ;
#214 = LINE ( 'NONE', #213, #212 ) ;
#215 = CARTESIAN_POINT ( 'NONE',  ( -5.009326287108706300E-010, 3.499565220943523500E-009, 2.500000000000000400 ) ) ;
#216 = DIRECTION ( 'NONE',  ( 0.0000000000000000000, 0.0000000000000000000, 1.000000000000000000 ) ) ;
#217 = DIRECTION ( 'NONE',  ( 0.0000000000000000000, 1.000000000000000000, 0.0000000000000000000 ) ) ;
#218 = CARTESIAN_POINT ( 'NONE',  ( -5.009326287108706300E-010, 3.499565220943523500E-009, 0.0000000000000000000 ) ) ;
#219 = AXIS2_PLACEMENT_3D ( 'NONE', #218, #217, #216 ) ;
#220 = CIRCLE ( 'NONE', #219, 2.500000000000000400 ) ;
#221 = CARTESIAN_POINT ( 'NONE',  ( -5.009323225592821800E-010, 3.499565220943523500E-009, -2.500000000000000400 ) ) ;
#222 = DIRECTION ( 'NONE',  ( 0.0000000000000000000, 0.0000000000000000000, -1.000000000000000000 ) ) ;
#223 = DIRECTION ( 'NONE',  ( 0.0000000000000000000, -1.000000000000000000, 0.0000000000000000000 ) ) ;
#224 = CARTESIAN_POINT ( 'NONE',  ( 1.499999999499067100, -2.999999996500434900, 0.0000000000000000000 ) ) ;
#225 = AXIS2_PLACEMENT_3D ( 'NONE', #224, #223, #222 ) ;
#226 = PLANE ( 'NONE',  #225 ) ;
#227 = FACE_OUTER_BOUND ( 'NONE', #54, .T. ) ;
#228 = FACE_BOUND ( 'NONE', #52, .T. ) ;
#229 = DIRECTION ( 'NONE',  ( 0.0000000000000000000, 0.0000000000000000000, 1.000000000000000000 ) ) ;
#230 = DIRECTION ( 'NONE',  ( 0.0000000000000000000, 1.000000000000000000, 0.0000000000000000000 ) ) ;
#231 = CARTESIAN_POINT ( 'NONE',  ( -5.009326287108706300E-010, -2.999999996500434900, 0.0000000000000000000 ) ) ;
#232 = AXIS2_PLACEMENT_3D ( 'NONE', #231, #230, #229 ) ;
#233 = DIRECTION ( 'NONE',  ( 0.0000000000000000000, 0.0000000000000000000, 1.000000000000000000 ) ) ;
#234 = DIRECTION ( 'NONE',  ( 0.0000000000000000000, 1.000000000000000000, 0.0000000000000000000 ) ) ;
#235 = CARTESIAN_POINT ( 'NONE',  ( -5.009326287108706300E-010, 2.412507003500041800, 0.0000000000000000000 ) ) ;
#236 = AXIS2_PLACEMENT_3D ( 'NONE', #235, #234, #233 ) ;
#237 = CIRCLE ( 'NONE', #232, 2.500000000000000900 ) ;
#238 = CYLINDRICAL_SURFACE ( 'NONE', #236, 2.500000000000000400 ) ;
#239 = FACE_OUTER_BOUND ( 'NONE', #45, .T. ) ;
#240 = DIRECTION ( 'NONE',  ( 0.0000000000000000000, 0.0000000000000000000, 1.000000000000000000 ) ) ;
#241 = DIRECTION ( 'NONE',  ( 0.0000000000000000000, 1.000000000000000000, 0.0000000000000000000 ) ) ;
#242 = CARTESIAN_POINT ( 'NONE',  ( -5.009326287108706300E-010, 3.499565220943523500E-009, 0.0000000000000000000 ) ) ;
#243 = AXIS2_PLACEMENT_3D ( 'NONE', #242, #241, #240 ) ;
#244 = CIRCLE ( 'NONE', #243, 2.500000000000000400 ) ;
#245 = DIRECTION ( 'NONE',  ( 0.0000000000000000000, 0.0000000000000000000, -1.000000000000000000 ) ) ;
#246 = DIRECTION ( 'NONE',  ( 0.0000000000000000000, -1.000000000000000000, 0.0000000000000000000 ) ) ;
#247 = CARTESIAN_POINT ( 'NONE',  ( 3.999999999499060700, 3.499565437783958000E-009, 0.0000000000000000000 ) ) ;
#248 = AXIS2_PLACEMENT_3D ( 'NONE', #247, #246, #245 ) ;
#249 = PLANE ( 'NONE',  #248 ) ;
#250 = FACE_OUTER_BOUND ( 'NONE', #41, .T. ) ;
#251 = FACE_BOUND ( 'NONE', #37, .T. ) ;
#252 = DIRECTION ( 'NONE',  ( 0.0000000000000000000, 0.0000000000000000000, 1.000000000000000000 ) ) ;
#253 = DIRECTION ( 'NONE',  ( 0.0000000000000000000, 1.000000000000000000, 0.0000000000000000000 ) ) ;
#254 = CARTESIAN_POINT ( 'NONE',  ( -5.009326287108706300E-010, 3.499565220943523500E-009, 0.0000000000000000000 ) ) ;
#255 = AXIS2_PLACEMENT_3D ( 'NONE', #254, #253, #252 ) ;
#256 = CIRCLE ( 'NONE', #255, 3.999999999999993300 ) ;
#257 = DIRECTION ( 'NONE',  ( 0.0000000000000000000, 0.0000000000000000000, 1.000000000000000000 ) ) ;
#258 = DIRECTION ( 'NONE',  ( 0.0000000000000000000, 1.000000000000000000, 0.0000000000000000000 ) ) ;
#259 = AXIS2_PLACEMENT_3D ( 'NONE', #265, #258, #257 ) ;
#260 = CIRCLE ( 'NONE', #259, 5.000000000000000000 ) ;
#261 = DIRECTION ( 'NONE',  ( 0.0000000000000000000, 0.0000000000000000000, 1.000000000000000000 ) ) ;
#262 = DIRECTION ( 'NONE',  ( 0.0000000000000000000, 1.000000000000000000, 0.0000000000000000000 ) ) ;
#263 = CARTESIAN_POINT ( 'NONE',  ( -5.009326287108706300E-010, -0.9999999965004343600, 0.0000000000000000000 ) ) ;
#264 = AXIS2_PLACEMENT_3D ( 'NONE', #263, #262, #261 ) ;
#265 = CARTESIAN_POINT ( 'NONE',  ( -5.009326287108706300E-010, -0.9999999965004416900, 0.0000000000000000000 ) ) ;
#266 = TOROIDAL_SURFACE ( 'NONE', #264, 4.000000000000000000, 1.000000000000000000 ) ;
#267 = DIRECTION ( 'NONE',  ( 0.0000000000000000000, 0.0000000000000000000, 1.000000000000000000 ) ) ;
#268 = DIRECTION ( 'NONE',  ( -1.000000000000000000, 0.0000000000000000000, 0.0000000000000000000 ) ) ;
#269 = CARTESIAN_POINT ( 'NONE',  ( -5.009326287108706300E-010, -0.9999999965004343600, 4.000000000000000000 ) ) ;
#270 = AXIS2_PLACEMENT_3D ( 'NONE', #269, #268, #267 ) ;
#271 = CIRCLE ( 'NONE', #270, 1.000000000000000000 ) ;
#272 = FACE_OUTER_BOUND ( 'NONE', #29, .T. ) ;
#273 = DIRECTION ( 'NONE',  ( 0.0000000000000000000, 0.0000000000000000000, 1.000000000000000000 ) ) ;
#274 = DIRECTION ( 'NONE',  ( 0.0000000000000000000, 1.000000000000000000, 0.0000000000000000000 ) ) ;
#275 = AXIS2_PLACEMENT_3D ( 'NONE', #281, #274, #273 ) ;
#276 = CIRCLE ( 'NONE', #275, 1.500000000000000200 ) ;
#277 = DIRECTION ( 'NONE',  ( 0.0000000000000000000, 0.0000000000000000000, 1.000000000000000000 ) ) ;
#278 = DIRECTION ( 'NONE',  ( 0.0000000000000000000, 1.000000000000000000, 0.0000000000000000000 ) ) ;
#279 = CARTESIAN_POINT ( 'NONE',  ( -5.009326287108706300E-010, 2.412507003500041800, 0.0000000000000000000 ) ) ;
#280 = AXIS2_PLACEMENT_3D ( 'NONE', #279, #278, #277 ) ;
#281 = CARTESIAN_POINT ( 'NONE',  ( -5.009326287108706300E-010, -4.999999996500434900, 0.0000000000000000000 ) ) ;
#282 = CYLINDRICAL_SURFACE ( 'NONE', #280, 1.500000000000000000 ) ;
#283 = FACE_OUTER_BOUND ( 'NONE', #56, .T. ) ;
#284 = DIRECTION ( 'NONE',  ( 0.0000000000000000000, 0.0000000000000000000, 1.000000000000000000 ) ) ;
#285 = DIRECTION ( 'NONE',  ( 0.0000000000000000000, 1.000000000000000000, 0.0000000000000000000 ) ) ;
#286 = CARTESIAN_POINT ( 'NONE',  ( 1.499999999499067600, -4.999999996500434900, 0.0000000000000000000 ) ) ;
#287 = AXIS2_PLACEMENT_3D ( 'NONE', #286, #285, #284 ) ;
#288 = PLANE ( 'NONE',  #287 ) ;
#289 = FACE_BOUND ( 'NONE', #8, .T. ) ;
#290 = FACE_OUTER_BOUND ( 'NONE', #10, .T. ) ;
#291 = DIRECTION ( 'NONE',  ( 0.0000000000000000000, 0.0000000000000000000, 1.000000000000000000 ) ) ;
#292 = DIRECTION ( 'NONE',  ( 0.0000000000000000000, 1.000000000000000000, 0.0000000000000000000 ) ) ;
#293 = CARTESIAN_POINT ( 'NONE',  ( -5.009326287108706300E-010, -2.999999996500434900, 0.0000000000000000000 ) ) ;
#294 = AXIS2_PLACEMENT_3D ( 'NONE', #293, #292, #291 ) ;
#295 = CIRCLE ( 'NONE', #294, 1.499999999999999800 ) ;
#296 = DIRECTION ( 'NONE',  ( 0.0000000000000000000, 0.0000000000000000000, 1.000000000000000000 ) ) ;
#297 = DIRECTION ( 'NONE',  ( 0.0000000000000000000, 1.000000000000000000, 0.0000000000000000000 ) ) ;
#298 = CARTESIAN_POINT ( 'NONE',  ( -5.009326287108706300E-010, -4.999999996500434900, 0.0000000000000000000 ) ) ;
#299 = AXIS2_PLACEMENT_3D ( 'NONE', #298, #297, #296 ) ;
#300 = CIRCLE ( 'NONE', #299, 5.000000000000000000 ) ;
#301 = SHAPE_DEFINITION_REPRESENTATION ( #305, #116 ) ;
#302 = DIRECTION ( 'NONE',  ( 1.000000000000000000, 0.0000000000000000000, 0.0000000000000000000 ) ) ;
#303 = DIRECTION ( 'NONE',  ( 0.0000000000000000000, 0.0000000000000000000, 1.000000000000000000 ) ) ;
#304 = CARTESIAN_POINT ( 'NONE',  ( 0.0000000000000000000, 0.0000000000000000000, 0.0000000000000000000 ) ) ;
#305 = PRODUCT_DEFINITION_SHAPE ( 'NONE', 'NONE',  #373 ) ;
#306 = PRODUCT_RELATED_PRODUCT_CATEGORY ( 'detail', '', ( #334 ) ) ;
#307 = CC_DESIGN_SECURITY_CLASSIFICATION ( #328, ( #352 ) ) ;
#308 = CC_DESIGN_APPROVAL ( #316, ( #328 ) ) ;
#309 = APPROVAL_DATE_TIME ( #310, #316 ) ;
#310 = DATE_AND_TIME ( #311, #312 ) ;
#311 = CALENDAR_DATE ( 2009, 29, 6 ) ;
#312 = LOCAL_TIME ( 10, 11, 47.00000000000000000, #313 ) ;
#313 = COORDINATED_UNIVERSAL_TIME_OFFSET ( 9, 0, .AHEAD. ) ;
#314 = APPROVAL_PERSON_ORGANIZATION ( #318, #316, #315 ) ;
#315 = APPROVAL_ROLE ( '' ) ;
#316 = APPROVAL ( #317, 'UNSPECIFIED' ) ;
#317 = APPROVAL_STATUS ( 'not_yet_approved' ) ;
#318 = PERSON_AND_ORGANIZATION ( #333, #380 ) ;
#319 = CC_DESIGN_DATE_AND_TIME_ASSIGNMENT ( #321, #320, ( #328 ) ) ;
#320 = DATE_TIME_ROLE ( 'classification_date' ) ;
#321 = DATE_AND_TIME ( #322, #323 ) ;
#322 = CALENDAR_DATE ( 2009, 29, 6 ) ;
#323 = LOCAL_TIME ( 10, 11, 47.00000000000000000, #324 ) ;
#324 = COORDINATED_UNIVERSAL_TIME_OFFSET ( 9, 0, .AHEAD. ) ;
#325 = CC_DESIGN_PERSON_AND_ORGANIZATION_ASSIGNMENT ( #327, #326, ( #328 ) ) ;
#326 = PERSON_AND_ORGANIZATION_ROLE ( 'classification_officer' ) ;
#327 = PERSON_AND_ORGANIZATION ( #333, #380 ) ;
#328 = SECURITY_CLASSIFICATION ( '', '', #329 ) ;
#329 = SECURITY_CLASSIFICATION_LEVEL ( 'unclassified' ) ;
#330 = CC_DESIGN_PERSON_AND_ORGANIZATION_ASSIGNMENT ( #332, #331, ( #352 ) ) ;
#331 = PERSON_AND_ORGANIZATION_ROLE ( 'design_supplier' ) ;
#332 = PERSON_AND_ORGANIZATION ( #333, #380 ) ;
#333 = PERSON ( 'UNSPECIFIED', 'UNSPECIFIED', 'UNSPECIFIED', ('UNSPECIFIED'), ('UNSPECIFIED'), ('UNSPECIFIED') ) ;
#334 = PRODUCT ( 'C-30-RK-10-gray', 'C-30-RK-10-gray', '', ( #335 ) ) ;
#335 = MECHANICAL_CONTEXT ( 'NONE', #337, 'mechanical' ) ;
#336 = APPLICATION_PROTOCOL_DEFINITION ( 'international standard', 'config_control_design', 1994, #337 ) ;
#337 = APPLICATION_CONTEXT ( 'configuration controlled 3d designs of mechanical parts and assemblies' ) ;
#338 = CC_DESIGN_PERSON_AND_ORGANIZATION_ASSIGNMENT ( #340, #339, ( #352 ) ) ;
#339 = PERSON_AND_ORGANIZATION_ROLE ( 'creator' ) ;
#340 = PERSON_AND_ORGANIZATION ( #333, #380 ) ;
#341 = CC_DESIGN_APPROVAL ( #349, ( #352 ) ) ;
#342 = APPROVAL_DATE_TIME ( #343, #349 ) ;
#343 = DATE_AND_TIME ( #344, #345 ) ;
#344 = CALENDAR_DATE ( 2009, 29, 6 ) ;
#345 = LOCAL_TIME ( 10, 11, 47.00000000000000000, #346 ) ;
#346 = COORDINATED_UNIVERSAL_TIME_OFFSET ( 9, 0, .AHEAD. ) ;
#347 = APPROVAL_PERSON_ORGANIZATION ( #351, #349, #348 ) ;
#348 = APPROVAL_ROLE ( '' ) ;
#349 = APPROVAL ( #350, 'UNSPECIFIED' ) ;
#350 = APPROVAL_STATUS ( 'not_yet_approved' ) ;
#351 = PERSON_AND_ORGANIZATION ( #333, #380 ) ;
#352 = PRODUCT_DEFINITION_FORMATION_WITH_SPECIFIED_SOURCE ( 'ANY', '', #334, .NOT_KNOWN. ) ;
#353 = CC_DESIGN_DATE_AND_TIME_ASSIGNMENT ( #355, #354, ( #373 ) ) ;
#354 = DATE_TIME_ROLE ( 'creation_date' ) ;
#355 = DATE_AND_TIME ( #356, #357 ) ;
#356 = CALENDAR_DATE ( 2009, 29, 6 ) ;
#357 = LOCAL_TIME ( 10, 11, 47.00000000000000000, #358 ) ;
#358 = COORDINATED_UNIVERSAL_TIME_OFFSET ( 9, 0, .AHEAD. ) ;
#359 = CC_DESIGN_PERSON_AND_ORGANIZATION_ASSIGNMENT ( #361, #360, ( #373 ) ) ;
#360 = PERSON_AND_ORGANIZATION_ROLE ( 'creator' ) ;
#361 = PERSON_AND_ORGANIZATION ( #333, #380 ) ;
#362 = CC_DESIGN_APPROVAL ( #370, ( #373 ) ) ;
#363 = APPROVAL_DATE_TIME ( #364, #370 ) ;
#364 = DATE_AND_TIME ( #365, #366 ) ;
#365 = CALENDAR_DATE ( 2009, 29, 6 ) ;
#366 = LOCAL_TIME ( 10, 11, 47.00000000000000000, #367 ) ;
#367 = COORDINATED_UNIVERSAL_TIME_OFFSET ( 9, 0, .AHEAD. ) ;
#368 = APPROVAL_PERSON_ORGANIZATION ( #372, #370, #369 ) ;
#369 = APPROVAL_ROLE ( '' ) ;
#370 = APPROVAL ( #371, 'UNSPECIFIED' ) ;
#371 = APPROVAL_STATUS ( 'not_yet_approved' ) ;
#372 = PERSON_AND_ORGANIZATION ( #333, #380 ) ;
#373 = PRODUCT_DEFINITION ( 'UNKNOWN', '', #352, #374 ) ;
#374 = DESIGN_CONTEXT ( 'detailed design', #376, 'design' ) ;
#375 = APPLICATION_PROTOCOL_DEFINITION ( 'international standard', 'config_control_design', 1994, #376 ) ;
#376 = APPLICATION_CONTEXT ( 'configuration controlled 3d designs of mechanical parts and assemblies' ) ;
#377 = CC_DESIGN_PERSON_AND_ORGANIZATION_ASSIGNMENT ( #379, #378, ( #334 ) ) ;
#378 = PERSON_AND_ORGANIZATION_ROLE ( 'design_owner' ) ;
#379 = PERSON_AND_ORGANIZATION ( #333, #380 ) ;
#380 = ORGANIZATION ( 'UNSPECIFIED', 'UNSPECIFIED', '' ) ;
#381 = AXIS2_PLACEMENT_3D ( 'NONE', #304, #303, #302 ) ;
ENDSEC;
END-ISO-10303-21;
