ISO-10303-21;
HEADER;
FILE_DESCRIPTION (( 'STEP AP203' ),
    '1' );
FILE_NAME ('C-30-RK-10.STEP',
    '2009-06-26T04:21:15',
    ( '11sw' ),
    ( '^LQ»¢®ïÐ' ),
    'SwSTEP 2.0',
    'SolidWorks 2007',
    '' );
FILE_SCHEMA (( 'CONFIG_CONTROL_DESIGN' ));
ENDSEC;

DATA;
#1 = VERTEX_POINT ( 'NONE', #140 ) ;
#2 = EDGE_CURVE ( 'NONE', #1, #27, #138, .T. ) ;
#3 = ORIENTED_EDGE ( 'NONE', *, *, #2, .F. ) ;
#4 = EDGE_LOOP ( 'NONE', ( #3, #28, #24, #22 ) ) ;
#5 = ADVANCED_FACE ( 'NONE', ( #287 ), #137, .F. ) ;
#6 = EDGE_CURVE ( 'NONE', #14, #8, #292, .T. ) ;
#7 = EDGE_CURVE ( 'NONE', #11, #8, #288, .T. ) ;
#8 = VERTEX_POINT ( 'NONE', #279 ) ;
#9 = ORIENTED_EDGE ( 'NONE', *, *, #7, .T. ) ;
#10 = ORIENTED_EDGE ( 'NONE', *, *, #6, .F. ) ;
#11 = VERTEX_POINT ( 'NONE', #278 ) ;
#12 = EDGE_CURVE ( 'NONE', #53, #11, #277, .T. ) ;
#13 = ORIENTED_EDGE ( 'NONE', *, *, #12, .T. ) ;
#14 = VERTEX_POINT ( 'NONE', #273 ) ;
#15 = EDGE_LOOP ( 'NONE', ( #16, #17, #111, #113 ) ) ;
#16 = ORIENTED_EDGE ( 'NONE', *, *, #46, .T. ) ;
#17 = ORIENTED_EDGE ( 'NONE', *, *, #120, .T. ) ;
#18 = EDGE_CURVE ( 'NONE', #53, #14, #271, .T. ) ;
#19 = EDGE_CURVE ( 'NONE', #29, #23, #266, .T. ) ;
#20 = ADVANCED_FACE ( 'NONE', ( #131 ), #130, .T. ) ;
#21 = EDGE_CURVE ( 'NONE', #27, #23, #129, .T. ) ;
#22 = ORIENTED_EDGE ( 'NONE', *, *, #21, .F. ) ;
#23 = VERTEX_POINT ( 'NONE', #121 ) ;
#24 = ORIENTED_EDGE ( 'NONE', *, *, #19, .T. ) ;
#25 = APPLICATION_PROTOCOL_DEFINITION ( 'international standard', 'config_control_design', 1994, #30 ) ;
#26 = EDGE_CURVE ( 'NONE', #1, #29, #323, .T. ) ;
#27 = VERTEX_POINT ( 'NONE', #319 ) ;
#28 = ORIENTED_EDGE ( 'NONE', *, *, #26, .T. ) ;
#29 = VERTEX_POINT ( 'NONE', #318 ) ;
#30 = APPLICATION_CONTEXT ( 'configuration controlled 3d designs of mechanical parts and assemblies' ) ;
#31 = APPROVAL_PERSON_ORGANIZATION ( #34, #36, #35 ) ;
#32 = PRODUCT_DEFINITION ( 'UNKNOWN', '', #367, #37 ) ;
#33 = APPROVAL_STATUS ( 'not_yet_approved' ) ;
#34 = PERSON_AND_ORGANIZATION ( #144, #143 ) ;
#35 = APPROVAL_ROLE ( '' ) ;
#36 = APPROVAL ( #33, 'UNSPECIFIED' ) ;
#37 = DESIGN_CONTEXT ( 'detailed design', #30, 'design' ) ;
#38 = ORIENTED_EDGE ( 'NONE', *, *, #39, .T. ) ;
#39 = EDGE_CURVE ( 'NONE', #40, #41, #317, .T. ) ;
#40 = VERTEX_POINT ( 'NONE', #312 ) ;
#41 = VERTEX_POINT ( 'NONE', #311 ) ;
#42 = ORIENTED_EDGE ( 'NONE', *, *, #43, .T. ) ;
#43 = EDGE_CURVE ( 'NONE', #41, #44, #310, .T. ) ;
#44 = VERTEX_POINT ( 'NONE', #306 ) ;
#45 = ORIENTED_EDGE ( 'NONE', *, *, #46, .F. ) ;
#46 = EDGE_CURVE ( 'NONE', #47, #44, #305, .T. ) ;
#47 = VERTEX_POINT ( 'NONE', #300 ) ;
#48 = ORIENTED_EDGE ( 'NONE', *, *, #49, .F. ) ;
#49 = EDGE_CURVE ( 'NONE', #40, #47, #299, .T. ) ;
#50 = ADVANCED_FACE ( 'NONE', ( #295 ), #265, .F. ) ;
#51 = EDGE_LOOP ( 'NONE', ( #52, #13, #9, #10 ) ) ;
#52 = ORIENTED_EDGE ( 'NONE', *, *, #18, .F. ) ;
#53 = VERTEX_POINT ( 'NONE', #260 ) ;
#54 = MANIFOLD_SOLID_BREP ( 'NONE', #60 ) ;
#55 = ADVANCED_FACE ( 'NONE', ( #259 ), #258, .T. ) ;
#56 = EDGE_LOOP ( 'NONE', ( #38, #42, #45, #48 ) ) ;
#57 = ORIENTED_EDGE ( 'NONE', *, *, #71, .T. ) ;
#58 = ORIENTED_EDGE ( 'NONE', *, *, #49, .T. ) ;
#59 = ORIENTED_EDGE ( 'NONE', *, *, #103, .F. ) ;
#60 = CLOSED_SHELL ( 'NONE', ( #55, #50, #5, #20, #108, #102, #91, #84, #76, #64, #74 ) ) ;
#61 = ORIENTED_EDGE ( 'NONE', *, *, #62, .F. ) ;
#62 = EDGE_CURVE ( 'NONE', #14, #53, #257, .T. ) ;
#63 = ORIENTED_EDGE ( 'NONE', *, *, #6, .T. ) ;
#64 = ADVANCED_FACE ( 'NONE', ( #248, #247 ), #246, .F. ) ;
#65 = ORIENTED_EDGE ( 'NONE', *, *, #39, .F. ) ;
#66 = ORIENTED_EDGE ( 'NONE', *, *, #71, .F. ) ;
#67 = ORIENTED_EDGE ( 'NONE', *, *, #12, .F. ) ;
#68 = ORIENTED_EDGE ( 'NONE', *, *, #109, .T. ) ;
#69 = EDGE_LOOP ( 'NONE', ( #65, #66 ) ) ;
#70 = EDGE_LOOP ( 'NONE', ( #72, #73 ) ) ;
#71 = EDGE_CURVE ( 'NONE', #41, #40, #241, .T. ) ;
#72 = ORIENTED_EDGE ( 'NONE', *, *, #62, .T. ) ;
#73 = ORIENTED_EDGE ( 'NONE', *, *, #18, .T. ) ;
#74 = ADVANCED_FACE ( 'NONE', ( #236 ), #235, .T. ) ;
#75 = ORIENTED_EDGE ( 'NONE', *, *, #43, .F. ) ;
#76 = ADVANCED_FACE ( 'NONE', ( #234 ), #233, .F. ) ;
#77 = EDGE_LOOP ( 'NONE', ( #67, #61, #63, #68 ) ) ;
#78 = EDGE_LOOP ( 'NONE', ( #75, #57, #58, #59 ) ) ;
#79 = ORIENTED_EDGE ( 'NONE', *, *, #2, .T. ) ;
#80 = ORIENTED_EDGE ( 'NONE', *, *, #89, .T. ) ;
#81 = ORIENTED_EDGE ( 'NONE', *, *, #7, .F. ) ;
#82 = EDGE_LOOP ( 'NONE', ( #80, #79 ) ) ;
#83 = ORIENTED_EDGE ( 'NONE', *, *, #26, .F. ) ;
#84 = ADVANCED_FACE ( 'NONE', ( #223, #222 ), #226, .F. ) ;
#85 = EDGE_LOOP ( 'NONE', ( #87, #81 ) ) ;
#86 = ORIENTED_EDGE ( 'NONE', *, *, #95, .T. ) ;
#87 = ORIENTED_EDGE ( 'NONE', *, *, #109, .F. ) ;
#88 = EDGE_LOOP ( 'NONE', ( #83, #94, #90, #86 ) ) ;
#89 = EDGE_CURVE ( 'NONE', #27, #1, #217, .T. ) ;
#90 = ORIENTED_EDGE ( 'NONE', *, *, #21, .T. ) ;
#91 = ADVANCED_FACE ( 'NONE', ( #212 ), #211, .F. ) ;
#92 = ORIENTED_EDGE ( 'NONE', *, *, #112, .T. ) ;
#93 = ORIENTED_EDGE ( 'NONE', *, *, #99, .T. ) ;
#94 = ORIENTED_EDGE ( 'NONE', *, *, #89, .F. ) ;
#95 = EDGE_CURVE ( 'NONE', #23, #29, #205, .T. ) ;
#96 = EDGE_LOOP ( 'NONE', ( #104, #115 ) ) ;
#97 = ORIENTED_EDGE ( 'NONE', *, *, #103, .T. ) ;
#98 = ORIENTED_EDGE ( 'NONE', *, *, #120, .F. ) ;
#99 = EDGE_CURVE ( 'NONE', #114, #110, #200, .T. ) ;
#100 = ORIENTED_EDGE ( 'NONE', *, *, #99, .F. ) ;
#101 = ORIENTED_EDGE ( 'NONE', *, *, #107, .T. ) ;
#102 = ADVANCED_FACE ( 'NONE', ( #201, #195 ), #194, .F. ) ;
#103 = EDGE_CURVE ( 'NONE', #44, #47, #189, .T. ) ;
#104 = ORIENTED_EDGE ( 'NONE', *, *, #95, .F. ) ;
#105 = EDGE_LOOP ( 'NONE', ( #92, #93 ) ) ;
#106 = EDGE_LOOP ( 'NONE', ( #98, #97, #101, #100 ) ) ;
#107 = EDGE_CURVE ( 'NONE', #47, #110, #184, .T. ) ;
#108 = ADVANCED_FACE ( 'NONE', ( #179 ), #178, .T. ) ;
#109 = EDGE_CURVE ( 'NONE', #8, #11, #173, .T. ) ;
#110 = VERTEX_POINT ( 'NONE', #168 ) ;
#111 = ORIENTED_EDGE ( 'NONE', *, *, #112, .F. ) ;
#112 = EDGE_CURVE ( 'NONE', #110, #114, #167, .T. ) ;
#113 = ORIENTED_EDGE ( 'NONE', *, *, #107, .F. ) ;
#114 = VERTEX_POINT ( 'NONE', #162 ) ;
#115 = ORIENTED_EDGE ( 'NONE', *, *, #19, .F. ) ;
#116 = COORDINATED_UNIVERSAL_TIME_OFFSET ( 9, 0, .AHEAD. ) ;
#117 = CC_DESIGN_PERSON_AND_ORGANIZATION_ASSIGNMENT ( #119, #118, ( #145 ) ) ;
#118 = PERSON_AND_ORGANIZATION_ROLE ( 'design_owner' ) ;
#119 = PERSON_AND_ORGANIZATION ( #144, #143 ) ;
#120 = EDGE_CURVE ( 'NONE', #44, #114, #161, .T. ) ;
#121 = CARTESIAN_POINT ( 'NONE',  ( -5.009326287108706300E-010, 3.499565220943523500E-009, 2.500000000000000400 ) ) ;
#122 = DIRECTION ( 'NONE',  ( 0.0000000000000000000, 1.000000000000000000, 0.0000000000000000000 ) ) ;
#123 = VECTOR ( 'NONE', #122, 1000.000000000000000 ) ;
#124 = CARTESIAN_POINT ( 'NONE',  ( -5.009326287108706300E-010, 2.412507003500041800, 2.500000000000000400 ) ) ;
#125 = DIRECTION ( 'NONE',  ( 0.0000000000000000000, 0.0000000000000000000, 1.000000000000000000 ) ) ;
#126 = DIRECTION ( 'NONE',  ( 0.0000000000000000000, 1.000000000000000000, 0.0000000000000000000 ) ) ;
#127 = CARTESIAN_POINT ( 'NONE',  ( -5.009326287108706300E-010, -0.9999999965004343600, 0.0000000000000000000 ) ) ;
#128 = AXIS2_PLACEMENT_3D ( 'NONE', #127, #126, #125 ) ;
#129 = LINE ( 'NONE', #124, #123 ) ;
#130 = TOROIDAL_SURFACE ( 'NONE', #128, 4.000000000000000000, 1.000000000000000000 ) ;
#131 = FACE_OUTER_BOUND ( 'NONE', #15, .T. ) ;
#132 = DIRECTION ( 'NONE',  ( 0.0000000000000000000, 0.0000000000000000000, 1.000000000000000000 ) ) ;
#133 = DIRECTION ( 'NONE',  ( 0.0000000000000000000, 1.000000000000000000, 0.0000000000000000000 ) ) ;
#134 = AXIS2_PLACEMENT_3D ( 'NONE', #272, #133, #132 ) ;
#135 = CARTESIAN_POINT ( 'NONE',  ( -5.009326287108706300E-010, 2.412507003500041800, 0.0000000000000000000 ) ) ;
#136 = AXIS2_PLACEMENT_3D ( 'NONE', #135, #294, #293 ) ;
#137 = CYLINDRICAL_SURFACE ( 'NONE', #136, 2.500000000000000400 ) ;
#138 = CIRCLE ( 'NONE', #139, 2.500000000000000900 ) ;
#139 = AXIS2_PLACEMENT_3D ( 'NONE', #286, #285, #284 ) ;
#140 = CARTESIAN_POINT ( 'NONE',  ( -5.009323225592821800E-010, -2.999999996500434900, -2.500000000000000900 ) ) ;
#141 =( LENGTH_UNIT ( ) NAMED_UNIT ( * ) SI_UNIT ( .MILLI., .METRE. ) );
#142 = DIRECTION ( 'NONE',  ( 0.0000000000000000000, 0.0000000000000000000, 1.000000000000000000 ) ) ;
#143 = ORGANIZATION ( 'UNSPECIFIED', 'UNSPECIFIED', '' ) ;
#144 = PERSON ( 'UNSPECIFIED', 'UNSPECIFIED', 'UNSPECIFIED', ('UNSPECIFIED'), ('UNSPECIFIED'), ('UNSPECIFIED') ) ;
#145 = PRODUCT ( 'C-30-RK-10', 'C-30-RK-10', '', ( #146 ) ) ;
#146 = MECHANICAL_CONTEXT ( 'NONE', #148, 'mechanical' ) ;
#147 = APPLICATION_PROTOCOL_DEFINITION ( 'international standard', 'config_control_design', 1994, #148 ) ;
#148 = APPLICATION_CONTEXT ( 'configuration controlled 3d designs of mechanical parts and assemblies' ) ;
#149 = DIRECTION ( 'NONE',  ( 1.000000000000000000, 0.0000000000000000000, 0.0000000000000000000 ) ) ;
#150 = CARTESIAN_POINT ( 'NONE',  ( 0.0000000000000000000, 0.0000000000000000000, 0.0000000000000000000 ) ) ;
#151 = AXIS2_PLACEMENT_3D ( 'NONE', #150, #142, #149 ) ;
#152 = ADVANCED_BREP_SHAPE_REPRESENTATION ( 'C-30-RK-10', ( #54, #151 ), #153 ) ;
#153 =( GEOMETRIC_REPRESENTATION_CONTEXT ( 3 ) GLOBAL_UNCERTAINTY_ASSIGNED_CONTEXT ( ( #154 ) ) GLOBAL_UNIT_ASSIGNED_CONTEXT ( ( #141, #156, #155 ) ) REPRESENTATION_CONTEXT ( 'NONE', 'WORKASPACE' ) );
#154 = UNCERTAINTY_MEASURE_WITH_UNIT (LENGTH_MEASURE( 1.000000000000000100E-005 ), #141, 'distance_accuracy_value', 'NONE');
#155 =( NAMED_UNIT ( * ) SI_UNIT ( $, .STERADIAN. ) SOLID_ANGLE_UNIT ( ) );
#156 =( NAMED_UNIT ( * ) PLANE_ANGLE_UNIT ( ) SI_UNIT ( $, .RADIAN. ) );
#157 = DIRECTION ( 'NONE',  ( 1.224606353612350900E-016, 0.0000000000000000000, -1.000000000000000000 ) ) ;
#158 = DIRECTION ( 'NONE',  ( 1.000000000000000000, 0.0000000000000000000, 1.224606353822377300E-016 ) ) ;
#159 = CARTESIAN_POINT ( 'NONE',  ( -5.009321388683291000E-010, -0.9999999965004343600, -4.000000000000000000 ) ) ;
#160 = AXIS2_PLACEMENT_3D ( 'NONE', #159, #158, #157 ) ;
#161 = CIRCLE ( 'NONE', #160, 1.000000000000000000 ) ;
#162 = CARTESIAN_POINT ( 'NONE',  ( -5.009320776380114100E-010, 3.499565220943523500E-009, -3.999999999999993300 ) ) ;
#163 = DIRECTION ( 'NONE',  ( 0.0000000000000000000, 0.0000000000000000000, 1.000000000000000000 ) ) ;
#164 = DIRECTION ( 'NONE',  ( 0.0000000000000000000, 1.000000000000000000, 0.0000000000000000000 ) ) ;
#165 = CARTESIAN_POINT ( 'NONE',  ( -5.009326287108706300E-010, 3.499565220943523500E-009, 0.0000000000000000000 ) ) ;
#166 = AXIS2_PLACEMENT_3D ( 'NONE', #165, #164, #163 ) ;
#167 = CIRCLE ( 'NONE', #166, 3.999999999999993300 ) ;
#168 = CARTESIAN_POINT ( 'NONE',  ( -5.009326287108706300E-010, 3.499565220943523500E-009, 3.999999999999993300 ) ) ;
#169 = DIRECTION ( 'NONE',  ( 0.0000000000000000000, 0.0000000000000000000, 1.000000000000000000 ) ) ;
#170 = DIRECTION ( 'NONE',  ( 0.0000000000000000000, 1.000000000000000000, 0.0000000000000000000 ) ) ;
#171 = CARTESIAN_POINT ( 'NONE',  ( -5.009326287108706300E-010, -2.999999996500434900, 0.0000000000000000000 ) ) ;
#172 = AXIS2_PLACEMENT_3D ( 'NONE', #171, #170, #169 ) ;
#173 = CIRCLE ( 'NONE', #172, 1.499999999999999800 ) ;
#174 = DIRECTION ( 'NONE',  ( 0.0000000000000000000, 0.0000000000000000000, 1.000000000000000000 ) ) ;
#175 = DIRECTION ( 'NONE',  ( 0.0000000000000000000, 1.000000000000000000, 0.0000000000000000000 ) ) ;
#176 = CARTESIAN_POINT ( 'NONE',  ( -5.009326287108706300E-010, -0.9999999965004343600, 0.0000000000000000000 ) ) ;
#177 = AXIS2_PLACEMENT_3D ( 'NONE', #176, #175, #174 ) ;
#178 = TOROIDAL_SURFACE ( 'NONE', #177, 4.000000000000000000, 1.000000000000000000 ) ;
#179 = FACE_OUTER_BOUND ( 'NONE', #106, .T. ) ;
#180 = DIRECTION ( 'NONE',  ( 0.0000000000000000000, 0.0000000000000000000, 1.000000000000000000 ) ) ;
#181 = DIRECTION ( 'NONE',  ( -1.000000000000000000, 0.0000000000000000000, 0.0000000000000000000 ) ) ;
#182 = CARTESIAN_POINT ( 'NONE',  ( -5.009326287108706300E-010, -0.9999999965004343600, 4.000000000000000000 ) ) ;
#183 = AXIS2_PLACEMENT_3D ( 'NONE', #182, #181, #180 ) ;
#184 = CIRCLE ( 'NONE', #183, 1.000000000000000000 ) ;
#185 = DIRECTION ( 'NONE',  ( 0.0000000000000000000, 0.0000000000000000000, 1.000000000000000000 ) ) ;
#186 = DIRECTION ( 'NONE',  ( 0.0000000000000000000, 1.000000000000000000, 0.0000000000000000000 ) ) ;
#187 = CARTESIAN_POINT ( 'NONE',  ( -5.009326287108706300E-010, -0.9999999965004416900, 0.0000000000000000000 ) ) ;
#188 = AXIS2_PLACEMENT_3D ( 'NONE', #187, #186, #185 ) ;
#189 = CIRCLE ( 'NONE', #188, 5.000000000000000000 ) ;
#190 = DIRECTION ( 'NONE',  ( 0.0000000000000000000, 0.0000000000000000000, -1.000000000000000000 ) ) ;
#191 = DIRECTION ( 'NONE',  ( 0.0000000000000000000, -1.000000000000000000, 0.0000000000000000000 ) ) ;
#192 = CARTESIAN_POINT ( 'NONE',  ( 3.999999999499060700, 3.499565437783958000E-009, 0.0000000000000000000 ) ) ;
#193 = AXIS2_PLACEMENT_3D ( 'NONE', #192, #191, #190 ) ;
#194 = PLANE ( 'NONE',  #193 ) ;
#195 = FACE_OUTER_BOUND ( 'NONE', #105, .T. ) ;
#196 = DIRECTION ( 'NONE',  ( 0.0000000000000000000, 0.0000000000000000000, 1.000000000000000000 ) ) ;
#197 = DIRECTION ( 'NONE',  ( 0.0000000000000000000, 1.000000000000000000, 0.0000000000000000000 ) ) ;
#198 = CARTESIAN_POINT ( 'NONE',  ( -5.009326287108706300E-010, 3.499565220943523500E-009, 0.0000000000000000000 ) ) ;
#199 = AXIS2_PLACEMENT_3D ( 'NONE', #198, #197, #196 ) ;
#200 = CIRCLE ( 'NONE', #199, 3.999999999999993300 ) ;
#201 = FACE_BOUND ( 'NONE', #96, .T. ) ;
#202 = DIRECTION ( 'NONE',  ( 0.0000000000000000000, 0.0000000000000000000, 1.000000000000000000 ) ) ;
#203 = DIRECTION ( 'NONE',  ( 0.0000000000000000000, 1.000000000000000000, 0.0000000000000000000 ) ) ;
#204 = AXIS2_PLACEMENT_3D ( 'NONE', #210, #203, #202 ) ;
#205 = CIRCLE ( 'NONE', #204, 2.500000000000000400 ) ;
#206 = DIRECTION ( 'NONE',  ( 0.0000000000000000000, 0.0000000000000000000, 1.000000000000000000 ) ) ;
#207 = DIRECTION ( 'NONE',  ( 0.0000000000000000000, 1.000000000000000000, 0.0000000000000000000 ) ) ;
#208 = CARTESIAN_POINT ( 'NONE',  ( -5.009326287108706300E-010, 2.412507003500041800, 0.0000000000000000000 ) ) ;
#209 = AXIS2_PLACEMENT_3D ( 'NONE', #208, #207, #206 ) ;
#210 = CARTESIAN_POINT ( 'NONE',  ( -5.009326287108706300E-010, 3.499565220943523500E-009, 0.0000000000000000000 ) ) ;
#211 = CYLINDRICAL_SURFACE ( 'NONE', #209, 2.500000000000000400 ) ;
#212 = FACE_OUTER_BOUND ( 'NONE', #88, .T. ) ;
#213 = DIRECTION ( 'NONE',  ( 0.0000000000000000000, 0.0000000000000000000, 1.000000000000000000 ) ) ;
#214 = DIRECTION ( 'NONE',  ( 0.0000000000000000000, 1.000000000000000000, 0.0000000000000000000 ) ) ;
#215 = CARTESIAN_POINT ( 'NONE',  ( -5.009326287108706300E-010, -2.999999996500434900, 0.0000000000000000000 ) ) ;
#216 = AXIS2_PLACEMENT_3D ( 'NONE', #215, #214, #213 ) ;
#217 = CIRCLE ( 'NONE', #216, 2.500000000000000900 ) ;
#218 = DIRECTION ( 'NONE',  ( 0.0000000000000000000, 0.0000000000000000000, -1.000000000000000000 ) ) ;
#219 = DIRECTION ( 'NONE',  ( 0.0000000000000000000, -1.000000000000000000, 0.0000000000000000000 ) ) ;
#220 = CARTESIAN_POINT ( 'NONE',  ( 1.499999999499067100, -2.999999996500434900, 0.0000000000000000000 ) ) ;
#221 = AXIS2_PLACEMENT_3D ( 'NONE', #220, #219, #218 ) ;
#222 = FACE_OUTER_BOUND ( 'NONE', #82, .T. ) ;
#223 = FACE_BOUND ( 'NONE', #85, .T. ) ;
#224 = DIRECTION ( 'NONE',  ( 0.0000000000000000000, 0.0000000000000000000, 1.000000000000000000 ) ) ;
#225 = DIRECTION ( 'NONE',  ( 0.0000000000000000000, 1.000000000000000000, 0.0000000000000000000 ) ) ;
#226 = PLANE ( 'NONE',  #221 ) ;
#227 = AXIS2_PLACEMENT_3D ( 'NONE', #228, #225, #224 ) ;
#228 = CARTESIAN_POINT ( 'NONE',  ( -5.009326287108706300E-010, 2.412507003500041800, 0.0000000000000000000 ) ) ;
#229 = DIRECTION ( 'NONE',  ( 0.0000000000000000000, 0.0000000000000000000, 1.000000000000000000 ) ) ;
#230 = DIRECTION ( 'NONE',  ( 0.0000000000000000000, 1.000000000000000000, 0.0000000000000000000 ) ) ;
#231 = CARTESIAN_POINT ( 'NONE',  ( -5.009326287108706300E-010, 2.412507003500041800, 0.0000000000000000000 ) ) ;
#232 = AXIS2_PLACEMENT_3D ( 'NONE', #231, #230, #229 ) ;
#233 = CYLINDRICAL_SURFACE ( 'NONE', #227, 1.500000000000000000 ) ;
#234 = FACE_OUTER_BOUND ( 'NONE', #77, .T. ) ;
#235 = CYLINDRICAL_SURFACE ( 'NONE', #232, 5.000000000000000000 ) ;
#236 = FACE_OUTER_BOUND ( 'NONE', #78, .T. ) ;
#237 = DIRECTION ( 'NONE',  ( 0.0000000000000000000, 0.0000000000000000000, 1.000000000000000000 ) ) ;
#238 = DIRECTION ( 'NONE',  ( 0.0000000000000000000, 1.000000000000000000, 0.0000000000000000000 ) ) ;
#239 = CARTESIAN_POINT ( 'NONE',  ( -5.009326287108706300E-010, -4.999999996500434900, 0.0000000000000000000 ) ) ;
#240 = AXIS2_PLACEMENT_3D ( 'NONE', #239, #238, #237 ) ;
#241 = CIRCLE ( 'NONE', #240, 5.000000000000000000 ) ;
#242 = DIRECTION ( 'NONE',  ( 0.0000000000000000000, 0.0000000000000000000, 1.000000000000000000 ) ) ;
#243 = DIRECTION ( 'NONE',  ( 0.0000000000000000000, 1.000000000000000000, 0.0000000000000000000 ) ) ;
#244 = CARTESIAN_POINT ( 'NONE',  ( 1.499999999499067600, -4.999999996500434900, 0.0000000000000000000 ) ) ;
#245 = AXIS2_PLACEMENT_3D ( 'NONE', #244, #243, #242 ) ;
#246 = PLANE ( 'NONE',  #245 ) ;
#247 = FACE_BOUND ( 'NONE', #70, .T. ) ;
#248 = FACE_OUTER_BOUND ( 'NONE', #69, .T. ) ;
#249 = DIRECTION ( 'NONE',  ( 0.0000000000000000000, 0.0000000000000000000, 1.000000000000000000 ) ) ;
#250 = DIRECTION ( 'NONE',  ( 0.0000000000000000000, 1.000000000000000000, 0.0000000000000000000 ) ) ;
#251 = CARTESIAN_POINT ( 'NONE',  ( -5.009326287108706300E-010, -4.999999996500434900, 0.0000000000000000000 ) ) ;
#252 = AXIS2_PLACEMENT_3D ( 'NONE', #251, #250, #249 ) ;
#253 = DIRECTION ( 'NONE',  ( 0.0000000000000000000, 0.0000000000000000000, 1.000000000000000000 ) ) ;
#254 = DIRECTION ( 'NONE',  ( 0.0000000000000000000, 1.000000000000000000, 0.0000000000000000000 ) ) ;
#255 = CARTESIAN_POINT ( 'NONE',  ( -5.009326287108706300E-010, 2.412507003500041800, 0.0000000000000000000 ) ) ;
#256 = AXIS2_PLACEMENT_3D ( 'NONE', #255, #254, #253 ) ;
#257 = CIRCLE ( 'NONE', #252, 1.500000000000000200 ) ;
#258 = CYLINDRICAL_SURFACE ( 'NONE', #256, 5.000000000000000000 ) ;
#259 = FACE_OUTER_BOUND ( 'NONE', #56, .T. ) ;
#260 = CARTESIAN_POINT ( 'NONE',  ( -5.009324450199175600E-010, -4.999999996500434900, -1.500000000000000200 ) ) ;
#261 = DIRECTION ( 'NONE',  ( 0.0000000000000000000, 0.0000000000000000000, 1.000000000000000000 ) ) ;
#262 = DIRECTION ( 'NONE',  ( 0.0000000000000000000, 1.000000000000000000, 0.0000000000000000000 ) ) ;
#263 = CARTESIAN_POINT ( 'NONE',  ( -5.009326287108706300E-010, 2.412507003500041800, 0.0000000000000000000 ) ) ;
#264 = AXIS2_PLACEMENT_3D ( 'NONE', #263, #262, #261 ) ;
#265 = CYLINDRICAL_SURFACE ( 'NONE', #264, 1.500000000000000000 ) ;
#266 = CIRCLE ( 'NONE', #134, 2.500000000000000400 ) ;
#267 = DIRECTION ( 'NONE',  ( 0.0000000000000000000, 0.0000000000000000000, 1.000000000000000000 ) ) ;
#268 = DIRECTION ( 'NONE',  ( 0.0000000000000000000, 1.000000000000000000, 0.0000000000000000000 ) ) ;
#269 = CARTESIAN_POINT ( 'NONE',  ( -5.009326287108706300E-010, -4.999999996500434900, 0.0000000000000000000 ) ) ;
#270 = AXIS2_PLACEMENT_3D ( 'NONE', #269, #268, #267 ) ;
#271 = CIRCLE ( 'NONE', #270, 1.500000000000000200 ) ;
#272 = CARTESIAN_POINT ( 'NONE',  ( -5.009326287108706300E-010, 3.499565220943523500E-009, 0.0000000000000000000 ) ) ;
#273 = CARTESIAN_POINT ( 'NONE',  ( -5.009326287108706300E-010, -4.999999996500434900, 1.500000000000000200 ) ) ;
#274 = DIRECTION ( 'NONE',  ( 0.0000000000000000000, 1.000000000000000000, 0.0000000000000000000 ) ) ;
#275 = VECTOR ( 'NONE', #274, 1000.000000000000000 ) ;
#276 = CARTESIAN_POINT ( 'NONE',  ( -5.009324450199175600E-010, 2.412507003500041800, -1.500000000000000000 ) ) ;
#277 = LINE ( 'NONE', #276, #275 ) ;
#278 = CARTESIAN_POINT ( 'NONE',  ( -5.009324450199175600E-010, -2.999999996500434900, -1.499999999999999800 ) ) ;
#279 = CARTESIAN_POINT ( 'NONE',  ( -5.009326287108706300E-010, -2.999999996500434900, 1.499999999999999800 ) ) ;
#280 = DIRECTION ( 'NONE',  ( 0.0000000000000000000, 0.0000000000000000000, 1.000000000000000000 ) ) ;
#281 = DIRECTION ( 'NONE',  ( 0.0000000000000000000, 1.000000000000000000, 0.0000000000000000000 ) ) ;
#282 = CARTESIAN_POINT ( 'NONE',  ( -5.009326287108706300E-010, -2.999999996500434900, 0.0000000000000000000 ) ) ;
#283 = AXIS2_PLACEMENT_3D ( 'NONE', #282, #281, #280 ) ;
#284 = DIRECTION ( 'NONE',  ( 0.0000000000000000000, 0.0000000000000000000, 1.000000000000000000 ) ) ;
#285 = DIRECTION ( 'NONE',  ( 0.0000000000000000000, 1.000000000000000000, 0.0000000000000000000 ) ) ;
#286 = CARTESIAN_POINT ( 'NONE',  ( -5.009326287108706300E-010, -2.999999996500434900, 0.0000000000000000000 ) ) ;
#287 = FACE_OUTER_BOUND ( 'NONE', #4, .T. ) ;
#288 = CIRCLE ( 'NONE', #283, 1.499999999999999800 ) ;
#289 = DIRECTION ( 'NONE',  ( 0.0000000000000000000, 1.000000000000000000, 0.0000000000000000000 ) ) ;
#290 = VECTOR ( 'NONE', #289, 1000.000000000000000 ) ;
#291 = CARTESIAN_POINT ( 'NONE',  ( -5.009326287108706300E-010, 2.412507003500041800, 1.500000000000000000 ) ) ;
#292 = LINE ( 'NONE', #291, #290 ) ;
#293 = DIRECTION ( 'NONE',  ( 0.0000000000000000000, 0.0000000000000000000, 1.000000000000000000 ) ) ;
#294 = DIRECTION ( 'NONE',  ( 0.0000000000000000000, 1.000000000000000000, 0.0000000000000000000 ) ) ;
#295 = FACE_OUTER_BOUND ( 'NONE', #51, .T. ) ;
#296 = DIRECTION ( 'NONE',  ( 0.0000000000000000000, 1.000000000000000000, 0.0000000000000000000 ) ) ;
#297 = VECTOR ( 'NONE', #296, 1000.000000000000000 ) ;
#298 = CARTESIAN_POINT ( 'NONE',  ( -5.009326287108706300E-010, 2.412507003500041800, 5.000000000000000000 ) ) ;
#299 = LINE ( 'NONE', #298, #297 ) ;
#300 = CARTESIAN_POINT ( 'NONE',  ( -5.009326287108706300E-010, -0.9999999965004416900, 5.000000000000000000 ) ) ;
#301 = DIRECTION ( 'NONE',  ( 0.0000000000000000000, 0.0000000000000000000, 1.000000000000000000 ) ) ;
#302 = DIRECTION ( 'NONE',  ( 0.0000000000000000000, 1.000000000000000000, 0.0000000000000000000 ) ) ;
#303 = CARTESIAN_POINT ( 'NONE',  ( -5.009326287108706300E-010, -0.9999999965004416900, 0.0000000000000000000 ) ) ;
#304 = AXIS2_PLACEMENT_3D ( 'NONE', #303, #302, #301 ) ;
#305 = CIRCLE ( 'NONE', #304, 5.000000000000000000 ) ;
#306 = CARTESIAN_POINT ( 'NONE',  ( -5.009320164076937200E-010, -0.9999999965004416900, -5.000000000000000000 ) ) ;
#307 = DIRECTION ( 'NONE',  ( 0.0000000000000000000, 1.000000000000000000, 0.0000000000000000000 ) ) ;
#308 = VECTOR ( 'NONE', #307, 1000.000000000000000 ) ;
#309 = CARTESIAN_POINT ( 'NONE',  ( -5.009320164076937200E-010, 2.412507003500041800, -5.000000000000000000 ) ) ;
#310 = LINE ( 'NONE', #309, #308 ) ;
#311 = CARTESIAN_POINT ( 'NONE',  ( -5.009320164076937200E-010, -4.999999996500434900, -5.000000000000000000 ) ) ;
#312 = CARTESIAN_POINT ( 'NONE',  ( -5.009326287108706300E-010, -4.999999996500434900, 5.000000000000000000 ) ) ;
#313 = DIRECTION ( 'NONE',  ( 0.0000000000000000000, 0.0000000000000000000, 1.000000000000000000 ) ) ;
#314 = DIRECTION ( 'NONE',  ( 0.0000000000000000000, 1.000000000000000000, 0.0000000000000000000 ) ) ;
#315 = CARTESIAN_POINT ( 'NONE',  ( -5.009326287108706300E-010, -4.999999996500434900, 0.0000000000000000000 ) ) ;
#316 = AXIS2_PLACEMENT_3D ( 'NONE', #315, #314, #313 ) ;
#317 = CIRCLE ( 'NONE', #316, 5.000000000000000000 ) ;
#318 = CARTESIAN_POINT ( 'NONE',  ( -5.009323225592821800E-010, 3.499565220943523500E-009, -2.500000000000000400 ) ) ;
#319 = CARTESIAN_POINT ( 'NONE',  ( -5.009326287108706300E-010, -2.999999996500434900, 2.500000000000000900 ) ) ;
#320 = DIRECTION ( 'NONE',  ( 0.0000000000000000000, 1.000000000000000000, 0.0000000000000000000 ) ) ;
#321 = VECTOR ( 'NONE', #320, 1000.000000000000000 ) ;
#322 = CARTESIAN_POINT ( 'NONE',  ( -5.009323225592821800E-010, 2.412507003500041800, -2.500000000000000400 ) ) ;
#323 = LINE ( 'NONE', #322, #321 ) ;
#324 = PRODUCT_DEFINITION_SHAPE ( 'NONE', 'NONE',  #32 ) ;
#325 = PRODUCT_RELATED_PRODUCT_CATEGORY ( 'detail', '', ( #145 ) ) ;
#326 = CC_DESIGN_SECURITY_CLASSIFICATION ( #348, ( #367 ) ) ;
#327 = CC_DESIGN_APPROVAL ( #335, ( #348 ) ) ;
#328 = APPROVAL_DATE_TIME ( #329, #335 ) ;
#329 = DATE_AND_TIME ( #330, #331 ) ;
#330 = CALENDAR_DATE ( 2009, 26, 6 ) ;
#331 = LOCAL_TIME ( 13, 21, 15.00000000000000000, #332 ) ;
#332 = COORDINATED_UNIVERSAL_TIME_OFFSET ( 9, 0, .AHEAD. ) ;
#333 = APPROVAL_PERSON_ORGANIZATION ( #337, #335, #334 ) ;
#334 = APPROVAL_ROLE ( '' ) ;
#335 = APPROVAL ( #336, 'UNSPECIFIED' ) ;
#336 = APPROVAL_STATUS ( 'not_yet_approved' ) ;
#337 = PERSON_AND_ORGANIZATION ( #144, #143 ) ;
#338 = CC_DESIGN_DATE_AND_TIME_ASSIGNMENT ( #342, #339, ( #348 ) ) ;
#339 = DATE_TIME_ROLE ( 'classification_date' ) ;
#340 = CALENDAR_DATE ( 2009, 26, 6 ) ;
#341 = LOCAL_TIME ( 13, 21, 15.00000000000000000, #116 ) ;
#342 = DATE_AND_TIME ( #340, #343 ) ;
#343 = LOCAL_TIME ( 13, 21, 15.00000000000000000, #344 ) ;
#344 = COORDINATED_UNIVERSAL_TIME_OFFSET ( 9, 0, .AHEAD. ) ;
#345 = CC_DESIGN_PERSON_AND_ORGANIZATION_ASSIGNMENT ( #347, #346, ( #348 ) ) ;
#346 = PERSON_AND_ORGANIZATION_ROLE ( 'classification_officer' ) ;
#347 = PERSON_AND_ORGANIZATION ( #144, #143 ) ;
#348 = SECURITY_CLASSIFICATION ( '', '', #349 ) ;
#349 = SECURITY_CLASSIFICATION_LEVEL ( 'unclassified' ) ;
#350 = CC_DESIGN_PERSON_AND_ORGANIZATION_ASSIGNMENT ( #352, #351, ( #367 ) ) ;
#351 = PERSON_AND_ORGANIZATION_ROLE ( 'design_supplier' ) ;
#352 = PERSON_AND_ORGANIZATION ( #144, #143 ) ;
#353 = CC_DESIGN_PERSON_AND_ORGANIZATION_ASSIGNMENT ( #355, #354, ( #367 ) ) ;
#354 = PERSON_AND_ORGANIZATION_ROLE ( 'creator' ) ;
#355 = PERSON_AND_ORGANIZATION ( #144, #143 ) ;
#356 = CC_DESIGN_APPROVAL ( #364, ( #367 ) ) ;
#357 = APPROVAL_DATE_TIME ( #358, #364 ) ;
#358 = DATE_AND_TIME ( #359, #360 ) ;
#359 = CALENDAR_DATE ( 2009, 26, 6 ) ;
#360 = LOCAL_TIME ( 13, 21, 15.00000000000000000, #361 ) ;
#361 = COORDINATED_UNIVERSAL_TIME_OFFSET ( 9, 0, .AHEAD. ) ;
#362 = APPROVAL_PERSON_ORGANIZATION ( #366, #364, #363 ) ;
#363 = APPROVAL_ROLE ( '' ) ;
#364 = APPROVAL ( #365, 'UNSPECIFIED' ) ;
#365 = APPROVAL_STATUS ( 'not_yet_approved' ) ;
#366 = PERSON_AND_ORGANIZATION ( #144, #143 ) ;
#367 = PRODUCT_DEFINITION_FORMATION_WITH_SPECIFIED_SOURCE ( 'ANY', '', #145, .NOT_KNOWN. ) ;
#368 = SHAPE_DEFINITION_REPRESENTATION ( #324, #152 ) ;
#369 = CC_DESIGN_DATE_AND_TIME_ASSIGNMENT ( #371, #370, ( #32 ) ) ;
#370 = DATE_TIME_ROLE ( 'creation_date' ) ;
#371 = DATE_AND_TIME ( #372, #373 ) ;
#372 = CALENDAR_DATE ( 2009, 26, 6 ) ;
#373 = LOCAL_TIME ( 13, 21, 15.00000000000000000, #374 ) ;
#374 = COORDINATED_UNIVERSAL_TIME_OFFSET ( 9, 0, .AHEAD. ) ;
#375 = CC_DESIGN_PERSON_AND_ORGANIZATION_ASSIGNMENT ( #377, #376, ( #32 ) ) ;
#376 = PERSON_AND_ORGANIZATION_ROLE ( 'creator' ) ;
#377 = PERSON_AND_ORGANIZATION ( #144, #143 ) ;
#378 = CC_DESIGN_APPROVAL ( #36, ( #32 ) ) ;
#379 = APPROVAL_DATE_TIME ( #380, #36 ) ;
#380 = DATE_AND_TIME ( #381, #341 ) ;
#381 = CALENDAR_DATE ( 2009, 26, 6 ) ;
ENDSEC;
END-ISO-10303-21;
