ISO-10303-21;
HEADER;
FILE_DESCRIPTION (( 'STEP AP203' ),
    '1' );
FILE_NAME ('C-30-MR-6.STEP',
    '2006-06-08T00:07:33',
    ( ' ' ),
    ( ' ' ),
    'SwSTEP 2.0',
    'SolidWorks 2005204',
    '' );
FILE_SCHEMA (( 'CONFIG_CONTROL_DESIGN' ));
ENDSEC;

DATA;
#1 = CC_DESIGN_PERSON_AND_ORGANIZATION_ASSIGNMENT ( #45, #129, ( #302 ) ) ;
#2 = DIRECTION ( 'NONE',  ( 0.0000000000000000000, 0.0000000000000000000, 1.000000000000000000 ) ) ;
#3 = ORIENTED_EDGE ( 'NONE', *, *, #4, .F. ) ;
#4 = EDGE_CURVE ( 'NONE', #22, #81, #127, .T. ) ;
#5 = ADVANCED_FACE ( 'NONE', ( #128 ), #105, .T. ) ;
#6 = EDGE_LOOP ( 'NONE', ( #7, #11, #14, #131 ) ) ;
#7 = ORIENTED_EDGE ( 'NONE', *, *, #8, .T. ) ;
#8 = EDGE_CURVE ( 'NONE', #9, #10, #101, .T. ) ;
#9 = VERTEX_POINT ( 'NONE', #97 ) ;
#10 = VERTEX_POINT ( 'NONE', #96 ) ;
#11 = ORIENTED_EDGE ( 'NONE', *, *, #12, .T. ) ;
#12 = EDGE_CURVE ( 'NONE', #10, #13, #95, .T. ) ;
#13 = VERTEX_POINT ( 'NONE', #90 ) ;
#14 = ORIENTED_EDGE ( 'NONE', *, *, #15, .F. ) ;
#15 = EDGE_CURVE ( 'NONE', #130, #13, #89, .T. ) ;
#16 = MANIFOLD_SOLID_BREP ( 'NONE', #29 ) ;
#17 = ADVANCED_FACE ( 'NONE', ( #84 ), #82, .F. ) ;
#18 = EDGE_LOOP ( 'NONE', ( #19, #23, #26, #3 ) ) ;
#19 = ORIENTED_EDGE ( 'NONE', *, *, #20, .F. ) ;
#20 = EDGE_CURVE ( 'NONE', #21, #22, #65, .T. ) ;
#21 = VERTEX_POINT ( 'NONE', #61 ) ;
#22 = VERTEX_POINT ( 'NONE', #60 ) ;
#23 = ORIENTED_EDGE ( 'NONE', *, *, #24, .T. ) ;
#24 = EDGE_CURVE ( 'NONE', #21, #25, #59, .T. ) ;
#25 = VERTEX_POINT ( 'NONE', #54 ) ;
#26 = ORIENTED_EDGE ( 'NONE', *, *, #80, .F. ) ;
#27 = ORIENTED_EDGE ( 'NONE', *, *, #4, .T. ) ;
#28 = ORIENTED_EDGE ( 'NONE', *, *, #76, .F. ) ;
#29 = CLOSED_SHELL ( 'NONE', ( #5, #147, #141, #70, #133, #32, #17, #79, #37, #167, #153, #156 ) ) ;
#30 = EDGE_LOOP ( 'NONE', ( #31, #33, #27, #28 ) ) ;
#31 = ORIENTED_EDGE ( 'NONE', *, *, #24, .F. ) ;
#32 = ADVANCED_FACE ( 'NONE', ( #53 ), #51, .F. ) ;
#33 = ORIENTED_EDGE ( 'NONE', *, *, #121, .F. ) ;
#34 = ORIENTED_EDGE ( 'NONE', *, *, #161, .T. ) ;
#35 = EDGE_LOOP ( 'NONE', ( #38, #39, #40, #41 ) ) ;
#36 = ORIENTED_EDGE ( 'NONE', *, *, #152, .F. ) ;
#37 = ADVANCED_FACE ( 'NONE', ( #47 ), #46, .T. ) ;
#38 = ORIENTED_EDGE ( 'NONE', *, *, #114, .F. ) ;
#39 = ORIENTED_EDGE ( 'NONE', *, *, #20, .T. ) ;
#40 = ORIENTED_EDGE ( 'NONE', *, *, #165, .T. ) ;
#41 = ORIENTED_EDGE ( 'NONE', *, *, #151, .F. ) ;
#42 = DIRECTION ( 'NONE',  ( 0.0000000000000000000, 1.000000000000000000, 0.0000000000000000000 ) ) ;
#43 = CARTESIAN_POINT ( 'NONE',  ( 0.0000000000000000000, 23.49698005336976100, 0.0000000000000000000 ) ) ;
#44 = AXIS2_PLACEMENT_3D ( 'NONE', #43, #42, #2 ) ;
#45 = PERSON_AND_ORGANIZATION ( #301, #124 ) ;
#46 = CONICAL_SURFACE ( 'NONE', #44, 4.610290992907232900, 0.5270894341022890300 ) ;
#47 = FACE_OUTER_BOUND ( 'NONE', #35, .T. ) ;
#48 = DIRECTION ( 'NONE',  ( 0.0000000000000000000, 0.0000000000000000000, 1.000000000000000000 ) ) ;
#49 = DIRECTION ( 'NONE',  ( 0.0000000000000000000, 1.000000000000000000, 0.0000000000000000000 ) ) ;
#50 = AXIS2_PLACEMENT_3D ( 'NONE', #52, #49, #48 ) ;
#51 = TOROIDAL_SURFACE ( 'NONE', #50, 3.574999999999997500, 1.000000000000000000 ) ;
#52 = CARTESIAN_POINT ( 'NONE',  ( 0.0000000000000000000, 19.73017929218209000, 0.0000000000000000000 ) ) ;
#53 = FACE_OUTER_BOUND ( 'NONE', #30, .T. ) ;
#54 = CARTESIAN_POINT ( 'NONE',  ( 3.153465507804431300E-016, 19.73017929218209000, -2.574999999999997500 ) ) ;
#55 = DIRECTION ( 'NONE',  ( 1.224646799147353500E-016, 0.0000000000000000000, -1.000000000000000000 ) ) ;
#56 = DIRECTION ( 'NONE',  ( 1.000000000000000000, 0.0000000000000000000, 1.224646799147353200E-016 ) ) ;
#57 = CARTESIAN_POINT ( 'NONE',  ( 4.378112306951784800E-016, 19.73017929218209000, -3.574999999999997500 ) ) ;
#58 = AXIS2_PLACEMENT_3D ( 'NONE', #57, #56, #55 ) ;
#59 = CIRCLE ( 'NONE', #58, 1.000000000000000000 ) ;
#60 = CARTESIAN_POINT ( 'NONE',  ( 0.0000000000000000000, 20.23319923881232900, 2.710725198046293600 ) ) ;
#61 = CARTESIAN_POINT ( 'NONE',  ( 4.482829522378591700E-016, 20.23319923881232900, -2.710725198046293600 ) ) ;
#62 = DIRECTION ( 'NONE',  ( 0.0000000000000000000, 0.0000000000000000000, 1.000000000000000000 ) ) ;
#63 = DIRECTION ( 'NONE',  ( 0.0000000000000000000, 1.000000000000000000, 0.0000000000000000000 ) ) ;
#64 = AXIS2_PLACEMENT_3D ( 'NONE', #69, #63, #62 ) ;
#65 = CIRCLE ( 'NONE', #64, 2.710725198046293600 ) ;
#66 = DIRECTION ( 'NONE',  ( 0.0000000000000000000, 0.0000000000000000000, 1.000000000000000000 ) ) ;
#67 = DIRECTION ( 'NONE',  ( 0.0000000000000000000, 1.000000000000000000, 0.0000000000000000000 ) ) ;
#68 = CARTESIAN_POINT ( 'NONE',  ( 0.0000000000000000000, 19.73017929218209000, 0.0000000000000000000 ) ) ;
#69 = CARTESIAN_POINT ( 'NONE',  ( 0.0000000000000000000, 20.23319923881232900, 0.0000000000000000000 ) ) ;
#70 = ADVANCED_FACE ( 'NONE', ( #300 ), #287, .T. ) ;
#71 = EDGE_LOOP ( 'NONE', ( #72, #73, #75, #77 ) ) ;
#72 = ORIENTED_EDGE ( 'NONE', *, *, #15, .T. ) ;
#73 = ORIENTED_EDGE ( 'NONE', *, *, #74, .T. ) ;
#74 = EDGE_CURVE ( 'NONE', #13, #25, #308, .T. ) ;
#75 = ORIENTED_EDGE ( 'NONE', *, *, #76, .T. ) ;
#76 = EDGE_CURVE ( 'NONE', #25, #81, #311, .T. ) ;
#77 = ORIENTED_EDGE ( 'NONE', *, *, #78, .F. ) ;
#78 = EDGE_CURVE ( 'NONE', #130, #81, #312, .T. ) ;
#79 = ADVANCED_FACE ( 'NONE', ( #294 ), #292, .T. ) ;
#80 = EDGE_CURVE ( 'NONE', #81, #25, #281, .T. ) ;
#81 = VERTEX_POINT ( 'NONE', #276 ) ;
#82 = TOROIDAL_SURFACE ( 'NONE', #83, 3.574999999999997500, 1.000000000000000000 ) ;
#83 = AXIS2_PLACEMENT_3D ( 'NONE', #68, #67, #66 ) ;
#84 = FACE_OUTER_BOUND ( 'NONE', #18, .T. ) ;
#85 = DIRECTION ( 'NONE',  ( 0.0000000000000000000, 0.0000000000000000000, 1.000000000000000000 ) ) ;
#86 = DIRECTION ( 'NONE',  ( 0.0000000000000000000, 1.000000000000000000, 0.0000000000000000000 ) ) ;
#87 = CARTESIAN_POINT ( 'NONE',  ( 0.0000000000000000000, 2.499999999999998700, 0.0000000000000000000 ) ) ;
#88 = AXIS2_PLACEMENT_3D ( 'NONE', #87, #86, #85 ) ;
#89 = CIRCLE ( 'NONE', #88, 2.574999999999996600 ) ;
#90 = CARTESIAN_POINT ( 'NONE',  ( 3.153465507804430900E-016, 2.499999999999998700, -2.574999999999996600 ) ) ;
#91 = DIRECTION ( 'NONE',  ( 1.224646799147353200E-016, 0.0000000000000000000, -1.000000000000000000 ) ) ;
#92 = DIRECTION ( 'NONE',  ( 1.000000000000000000, 0.0000000000000000000, 1.224646799147353200E-016 ) ) ;
#93 = CARTESIAN_POINT ( 'NONE',  ( -1.255262969126041500E-016, 2.500000000000002200, 1.025000000000003700 ) ) ;
#94 = AXIS2_PLACEMENT_3D ( 'NONE', #93, #92, #91 ) ;
#95 = CIRCLE ( 'NONE', #94, 3.600000000000000500 ) ;
#96 = CARTESIAN_POINT ( 'NONE',  ( 2.535243455719490400E-016, 0.0000000000000000000, -1.565366769397720000 ) ) ;
#97 = CARTESIAN_POINT ( 'NONE',  ( 0.0000000000000000000, 0.0000000000000000000, 1.565366769397720000 ) ) ;
#98 = DIRECTION ( 'NONE',  ( 0.0000000000000000000, 0.0000000000000000000, 1.000000000000000000 ) ) ;
#99 = DIRECTION ( 'NONE',  ( 0.0000000000000000000, 1.000000000000000000, 0.0000000000000000000 ) ) ;
#100 = AXIS2_PLACEMENT_3D ( 'NONE', #106, #99, #98 ) ;
#101 = CIRCLE ( 'NONE', #100, 1.565366769397720000 ) ;
#102 = DIRECTION ( 'NONE',  ( 0.0000000000000000000, 0.0000000000000000000, 1.000000000000000000 ) ) ;
#103 = DIRECTION ( 'NONE',  ( 0.0000000000000000000, 1.000000000000000000, 0.0000000000000000000 ) ) ;
#104 = AXIS2_PLACEMENT_3D ( 'NONE', #107, #103, #102 ) ;
#105 = TOROIDAL_SURFACE ( 'NONE', #104, -1.025000000000003700, 3.600000000000000500 ) ;
#106 = CARTESIAN_POINT ( 'NONE',  ( 0.0000000000000000000, 0.0000000000000000000, 0.0000000000000000000 ) ) ;
#107 = CARTESIAN_POINT ( 'NONE',  ( 0.0000000000000000000, 2.500000000000002200, 0.0000000000000000000 ) ) ;
#108 = DIRECTION ( 'NONE',  ( 0.0000000000000000000, 0.0000000000000000000, 1.000000000000000000 ) ) ;
#109 = DIRECTION ( 'NONE',  ( -1.000000000000000000, 0.0000000000000000000, 0.0000000000000000000 ) ) ;
#110 = EDGE_CURVE ( 'NONE', #118, #112, #275, .T. ) ;
#111 = ORIENTED_EDGE ( 'NONE', *, *, #115, .T. ) ;
#112 = VERTEX_POINT ( 'NONE', #270 ) ;
#113 = VERTEX_POINT ( 'NONE', #269 ) ;
#114 = EDGE_CURVE ( 'NONE', #21, #118, #268, .T. ) ;
#115 = EDGE_CURVE ( 'NONE', #113, #118, #264, .T. ) ;
#116 = ORIENTED_EDGE ( 'NONE', *, *, #115, .F. ) ;
#117 = ORIENTED_EDGE ( 'NONE', *, *, #165, .F. ) ;
#118 = VERTEX_POINT ( 'NONE', #259 ) ;
#119 = ORIENTED_EDGE ( 'NONE', *, *, #164, .F. ) ;
#120 = ORIENTED_EDGE ( 'NONE', *, *, #114, .T. ) ;
#121 = EDGE_CURVE ( 'NONE', #22, #21, #258, .T. ) ;
#122 = EDGE_LOOP ( 'NONE', ( #123, #120, #116, #117 ) ) ;
#123 = ORIENTED_EDGE ( 'NONE', *, *, #121, .T. ) ;
#124 = ORGANIZATION ( 'UNSPECIFIED', 'UNSPECIFIED', '' ) ;
#125 = CARTESIAN_POINT ( 'NONE',  ( 0.0000000000000000000, 19.73017929218209000, 3.574999999999997500 ) ) ;
#126 = AXIS2_PLACEMENT_3D ( 'NONE', #125, #109, #108 ) ;
#127 = CIRCLE ( 'NONE', #126, 1.000000000000000000 ) ;
#128 = FACE_OUTER_BOUND ( 'NONE', #6, .T. ) ;
#129 = PERSON_AND_ORGANIZATION_ROLE ( 'design_owner' ) ;
#130 = VERTEX_POINT ( 'NONE', #253 ) ;
#131 = ORIENTED_EDGE ( 'NONE', *, *, #132, .F. ) ;
#132 = EDGE_CURVE ( 'NONE', #9, #130, #250, .T. ) ;
#133 = ADVANCED_FACE ( 'NONE', ( #251 ), #244, .T. ) ;
#134 = EDGE_LOOP ( 'NONE', ( #135, #136, #138, #140 ) ) ;
#135 = ORIENTED_EDGE ( 'NONE', *, *, #74, .F. ) ;
#136 = ORIENTED_EDGE ( 'NONE', *, *, #137, .T. ) ;
#137 = EDGE_CURVE ( 'NONE', #13, #130, #240, .T. ) ;
#138 = ORIENTED_EDGE ( 'NONE', *, *, #78, .T. ) ;
#139 = EDGE_LOOP ( 'NONE', ( #142, #143, #145, #146 ) ) ;
#140 = ORIENTED_EDGE ( 'NONE', *, *, #80, .T. ) ;
#141 = ADVANCED_FACE ( 'NONE', ( #236 ), #235, .T. ) ;
#142 = ORIENTED_EDGE ( 'NONE', *, *, #12, .F. ) ;
#143 = ORIENTED_EDGE ( 'NONE', *, *, #144, .T. ) ;
#144 = EDGE_CURVE ( 'NONE', #10, #9, #229, .T. ) ;
#145 = ORIENTED_EDGE ( 'NONE', *, *, #132, .T. ) ;
#146 = ORIENTED_EDGE ( 'NONE', *, *, #137, .F. ) ;
#147 = ADVANCED_FACE ( 'NONE', ( #225 ), #223, .T. ) ;
#148 = EDGE_LOOP ( 'NONE', ( #149, #150 ) ) ;
#149 = ORIENTED_EDGE ( 'NONE', *, *, #8, .F. ) ;
#150 = ORIENTED_EDGE ( 'NONE', *, *, #144, .F. ) ;
#151 = EDGE_CURVE ( 'NONE', #118, #113, #224, .T. ) ;
#152 = EDGE_CURVE ( 'NONE', #112, #162, #214, .T. ) ;
#153 = ADVANCED_FACE ( 'NONE', ( #209 ), #208, .T. ) ;
#154 = ORIENTED_EDGE ( 'NONE', *, *, #110, .F. ) ;
#155 = ORIENTED_EDGE ( 'NONE', *, *, #151, .T. ) ;
#156 = ADVANCED_FACE ( 'NONE', ( #202 ), #207, .T. ) ;
#157 = ORIENTED_EDGE ( 'NONE', *, *, #164, .T. ) ;
#158 = ORIENTED_EDGE ( 'NONE', *, *, #152, .T. ) ;
#159 = EDGE_LOOP ( 'NONE', ( #154, #155, #34, #36 ) ) ;
#160 = EDGE_LOOP ( 'NONE', ( #157, #158 ) ) ;
#161 = EDGE_CURVE ( 'NONE', #113, #162, #197, .T. ) ;
#162 = VERTEX_POINT ( 'NONE', #192 ) ;
#163 = ORIENTED_EDGE ( 'NONE', *, *, #161, .F. ) ;
#164 = EDGE_CURVE ( 'NONE', #162, #112, #191, .T. ) ;
#165 = EDGE_CURVE ( 'NONE', #22, #113, #186, .T. ) ;
#166 = EDGE_LOOP ( 'NONE', ( #111, #168, #119, #163 ) ) ;
#167 = ADVANCED_FACE ( 'NONE', ( #182 ), #180, .T. ) ;
#168 = ORIENTED_EDGE ( 'NONE', *, *, #110, .T. ) ;
#169 = CARTESIAN_POINT ( 'NONE',  ( 0.0000000000000000000, 0.0000000000000000000, 0.0000000000000000000 ) ) ;
#170 = ADVANCED_BREP_SHAPE_REPRESENTATION ( 'C-30-MR-6', ( #16, #286 ), #171 ) ;
#171 =( GEOMETRIC_REPRESENTATION_CONTEXT ( 3 ) GLOBAL_UNCERTAINTY_ASSIGNED_CONTEXT ( ( #172 ) ) GLOBAL_UNIT_ASSIGNED_CONTEXT ( ( #175, #174, #173 ) ) REPRESENTATION_CONTEXT ( 'NONE', 'WORKASPACE' ) );
#172 = UNCERTAINTY_MEASURE_WITH_UNIT (LENGTH_MEASURE( 1.000000000000000100E-005 ), #175, 'distance_accuracy_value', 'NONE');
#173 =( NAMED_UNIT ( * ) SI_UNIT ( $, .STERADIAN. ) SOLID_ANGLE_UNIT ( ) );
#174 =( NAMED_UNIT ( * ) PLANE_ANGLE_UNIT ( ) SI_UNIT ( $, .RADIAN. ) );
#175 =( LENGTH_UNIT ( ) NAMED_UNIT ( * ) SI_UNIT ( .MILLI., .METRE. ) );
#176 = DIRECTION ( 'NONE',  ( 0.0000000000000000000, 0.0000000000000000000, 1.000000000000000000 ) ) ;
#177 = DIRECTION ( 'NONE',  ( 0.0000000000000000000, 0.0000000000000000000, 1.000000000000000000 ) ) ;
#178 = DIRECTION ( 'NONE',  ( 0.0000000000000000000, 1.000000000000000000, 0.0000000000000000000 ) ) ;
#179 = AXIS2_PLACEMENT_3D ( 'NONE', #181, #178, #177 ) ;
#180 = TOROIDAL_SURFACE ( 'NONE', #179, 3.746016190953529900, 1.000000000000000900 ) ;
#181 = CARTESIAN_POINT ( 'NONE',  ( 0.0000000000000000000, 24.00000000000000000, 0.0000000000000000000 ) ) ;
#182 = FACE_OUTER_BOUND ( 'NONE', #166, .T. ) ;
#183 = DIRECTION ( 'NONE',  ( 0.0000000000000000000, 0.8642748019537039900, 0.5030199466302363000 ) ) ;
#184 = VECTOR ( 'NONE', #183, 1000.000000000000000 ) ;
#185 = CARTESIAN_POINT ( 'NONE',  ( 0.0000000000000000000, 23.49698005336976100, 4.610290992907232900 ) ) ;
#186 = LINE ( 'NONE', #185, #184 ) ;
#187 = DIRECTION ( 'NONE',  ( 0.0000000000000000000, 0.0000000000000000000, 1.000000000000000000 ) ) ;
#188 = DIRECTION ( 'NONE',  ( 0.0000000000000000000, 1.000000000000000000, 0.0000000000000000000 ) ) ;
#189 = CARTESIAN_POINT ( 'NONE',  ( 0.0000000000000000000, 25.00000000000000000, 0.0000000000000000000 ) ) ;
#190 = AXIS2_PLACEMENT_3D ( 'NONE', #189, #188, #187 ) ;
#191 = CIRCLE ( 'NONE', #190, 3.746016190953529400 ) ;
#192 = CARTESIAN_POINT ( 'NONE',  ( 0.0000000000000000000, 25.00000000000000000, 3.746016190953529400 ) ) ;
#193 = DIRECTION ( 'NONE',  ( 0.0000000000000000000, 0.0000000000000000000, 1.000000000000000000 ) ) ;
#194 = DIRECTION ( 'NONE',  ( -1.000000000000000000, 0.0000000000000000000, 0.0000000000000000000 ) ) ;
#195 = CARTESIAN_POINT ( 'NONE',  ( 0.0000000000000000000, 24.00000000000000000, 3.746016190953529900 ) ) ;
#196 = AXIS2_PLACEMENT_3D ( 'NONE', #195, #194, #193 ) ;
#197 = CIRCLE ( 'NONE', #196, 1.000000000000001300 ) ;
#198 = DIRECTION ( 'NONE',  ( 0.0000000000000000000, 0.0000000000000000000, 1.000000000000000000 ) ) ;
#199 = DIRECTION ( 'NONE',  ( 0.0000000000000000000, 1.000000000000000000, 0.0000000000000000000 ) ) ;
#200 = CARTESIAN_POINT ( 'NONE',  ( 9.031172180711975000E-016, 25.00000000000000000, 0.0000000000000000000 ) ) ;
#201 = AXIS2_PLACEMENT_3D ( 'NONE', #200, #199, #198 ) ;
#202 = FACE_OUTER_BOUND ( 'NONE', #160, .T. ) ;
#203 = DIRECTION ( 'NONE',  ( 0.0000000000000000000, 0.0000000000000000000, 1.000000000000000000 ) ) ;
#204 = DIRECTION ( 'NONE',  ( 0.0000000000000000000, 1.000000000000000000, 0.0000000000000000000 ) ) ;
#205 = CARTESIAN_POINT ( 'NONE',  ( 0.0000000000000000000, 24.00000000000000000, 0.0000000000000000000 ) ) ;
#206 = AXIS2_PLACEMENT_3D ( 'NONE', #205, #204, #203 ) ;
#207 = PLANE ( 'NONE',  #201 ) ;
#208 = TOROIDAL_SURFACE ( 'NONE', #206, 3.746016190953529900, 1.000000000000000900 ) ;
#209 = FACE_OUTER_BOUND ( 'NONE', #159, .T. ) ;
#210 = DIRECTION ( 'NONE',  ( 0.0000000000000000000, 0.0000000000000000000, 1.000000000000000000 ) ) ;
#211 = DIRECTION ( 'NONE',  ( 0.0000000000000000000, 1.000000000000000000, 0.0000000000000000000 ) ) ;
#212 = CARTESIAN_POINT ( 'NONE',  ( 0.0000000000000000000, 25.00000000000000000, 0.0000000000000000000 ) ) ;
#213 = AXIS2_PLACEMENT_3D ( 'NONE', #212, #211, #210 ) ;
#214 = CIRCLE ( 'NONE', #213, 3.746016190953529400 ) ;
#215 = DIRECTION ( 'NONE',  ( 0.0000000000000000000, 0.0000000000000000000, 1.000000000000000000 ) ) ;
#216 = DIRECTION ( 'NONE',  ( 0.0000000000000000000, 1.000000000000000000, 0.0000000000000000000 ) ) ;
#217 = CARTESIAN_POINT ( 'NONE',  ( 0.0000000000000000000, 23.49698005336976100, 0.0000000000000000000 ) ) ;
#218 = AXIS2_PLACEMENT_3D ( 'NONE', #217, #216, #215 ) ;
#219 = DIRECTION ( 'NONE',  ( 0.0000000000000000000, 0.0000000000000000000, -1.000000000000000000 ) ) ;
#220 = DIRECTION ( 'NONE',  ( 0.0000000000000000000, -1.000000000000000000, 0.0000000000000000000 ) ) ;
#221 = CARTESIAN_POINT ( 'NONE',  ( -1.565366769397719600, 0.0000000000000000000, 0.0000000000000000000 ) ) ;
#222 = AXIS2_PLACEMENT_3D ( 'NONE', #221, #220, #219 ) ;
#223 = PLANE ( 'NONE',  #222 ) ;
#224 = CIRCLE ( 'NONE', #218, 4.610290992907232900 ) ;
#225 = FACE_OUTER_BOUND ( 'NONE', #148, .T. ) ;
#226 = DIRECTION ( 'NONE',  ( 0.0000000000000000000, 0.0000000000000000000, 1.000000000000000000 ) ) ;
#227 = DIRECTION ( 'NONE',  ( 0.0000000000000000000, 1.000000000000000000, 0.0000000000000000000 ) ) ;
#228 = AXIS2_PLACEMENT_3D ( 'NONE', #234, #227, #226 ) ;
#229 = CIRCLE ( 'NONE', #228, 1.565366769397720000 ) ;
#230 = DIRECTION ( 'NONE',  ( 0.0000000000000000000, 0.0000000000000000000, 1.000000000000000000 ) ) ;
#231 = DIRECTION ( 'NONE',  ( 0.0000000000000000000, 1.000000000000000000, 0.0000000000000000000 ) ) ;
#232 = CARTESIAN_POINT ( 'NONE',  ( 0.0000000000000000000, 2.500000000000002200, 0.0000000000000000000 ) ) ;
#233 = AXIS2_PLACEMENT_3D ( 'NONE', #232, #231, #230 ) ;
#234 = CARTESIAN_POINT ( 'NONE',  ( 0.0000000000000000000, 0.0000000000000000000, 0.0000000000000000000 ) ) ;
#235 = TOROIDAL_SURFACE ( 'NONE', #233, -1.025000000000003700, 3.600000000000000500 ) ;
#236 = FACE_OUTER_BOUND ( 'NONE', #139, .T. ) ;
#237 = DIRECTION ( 'NONE',  ( 0.0000000000000000000, 0.0000000000000000000, 1.000000000000000000 ) ) ;
#238 = DIRECTION ( 'NONE',  ( 0.0000000000000000000, 1.000000000000000000, 0.0000000000000000000 ) ) ;
#239 = AXIS2_PLACEMENT_3D ( 'NONE', #245, #238, #237 ) ;
#240 = CIRCLE ( 'NONE', #239, 2.574999999999996600 ) ;
#241 = DIRECTION ( 'NONE',  ( 0.0000000000000000000, 0.0000000000000000000, 1.000000000000000000 ) ) ;
#242 = DIRECTION ( 'NONE',  ( 0.0000000000000000000, 1.000000000000000000, 0.0000000000000000000 ) ) ;
#243 = AXIS2_PLACEMENT_3D ( 'NONE', #246, #242, #241 ) ;
#244 = CYLINDRICAL_SURFACE ( 'NONE', #243, 2.574999999999997500 ) ;
#245 = CARTESIAN_POINT ( 'NONE',  ( 0.0000000000000000000, 2.499999999999998700, 0.0000000000000000000 ) ) ;
#246 = CARTESIAN_POINT ( 'NONE',  ( 0.0000000000000000000, 32.66160787530762400, 0.0000000000000000000 ) ) ;
#247 = DIRECTION ( 'NONE',  ( 0.0000000000000000000, 0.0000000000000000000, 1.000000000000000000 ) ) ;
#248 = DIRECTION ( 'NONE',  ( -1.000000000000000000, 0.0000000000000000000, 0.0000000000000000000 ) ) ;
#249 = AXIS2_PLACEMENT_3D ( 'NONE', #252, #248, #247 ) ;
#250 = CIRCLE ( 'NONE', #249, 3.600000000000000500 ) ;
#251 = FACE_OUTER_BOUND ( 'NONE', #134, .T. ) ;
#252 = CARTESIAN_POINT ( 'NONE',  ( 0.0000000000000000000, 2.500000000000002200, -1.025000000000003700 ) ) ;
#253 = CARTESIAN_POINT ( 'NONE',  ( 0.0000000000000000000, 2.499999999999998700, 2.574999999999996600 ) ) ;
#254 = DIRECTION ( 'NONE',  ( 0.0000000000000000000, 0.0000000000000000000, 1.000000000000000000 ) ) ;
#255 = DIRECTION ( 'NONE',  ( 0.0000000000000000000, 1.000000000000000000, 0.0000000000000000000 ) ) ;
#256 = CARTESIAN_POINT ( 'NONE',  ( 0.0000000000000000000, 20.23319923881232900, 0.0000000000000000000 ) ) ;
#257 = AXIS2_PLACEMENT_3D ( 'NONE', #256, #255, #254 ) ;
#258 = CIRCLE ( 'NONE', #257, 2.710725198046293600 ) ;
#259 = CARTESIAN_POINT ( 'NONE',  ( 5.645978107601714600E-016, 23.49698005336976100, -4.610290992907232000 ) ) ;
#260 = DIRECTION ( 'NONE',  ( 0.0000000000000000000, 0.0000000000000000000, 1.000000000000000000 ) ) ;
#261 = DIRECTION ( 'NONE',  ( 0.0000000000000000000, 1.000000000000000000, 0.0000000000000000000 ) ) ;
#262 = CARTESIAN_POINT ( 'NONE',  ( 0.0000000000000000000, 23.49698005336976100, 0.0000000000000000000 ) ) ;
#263 = AXIS2_PLACEMENT_3D ( 'NONE', #262, #261, #260 ) ;
#264 = CIRCLE ( 'NONE', #263, 4.610290992907232900 ) ;
#265 = DIRECTION ( 'NONE',  ( 6.160217675479912700E-017, 0.8642748019537039900, -0.5030199466302363000 ) ) ;
#266 = VECTOR ( 'NONE', #265, 1000.000000000000000 ) ;
#267 = CARTESIAN_POINT ( 'NONE',  ( 5.645978107601714600E-016, 23.49698005336976100, -4.610290992907232900 ) ) ;
#268 = LINE ( 'NONE', #267, #266 ) ;
#269 = CARTESIAN_POINT ( 'NONE',  ( 0.0000000000000000000, 23.49698005336976100, 4.610290992907232000 ) ) ;
#270 = CARTESIAN_POINT ( 'NONE',  ( 5.116762422703557400E-016, 25.00000000000000000, -3.746016190953529400 ) ) ;
#271 = DIRECTION ( 'NONE',  ( 1.224646799147352700E-016, 0.0000000000000000000, -1.000000000000000000 ) ) ;
#272 = DIRECTION ( 'NONE',  ( 1.000000000000000000, 0.0000000000000000000, 1.224646799147353200E-016 ) ) ;
#273 = CARTESIAN_POINT ( 'NONE',  ( 4.587546737805401200E-016, 24.00000000000000000, -3.746016190953529900 ) ) ;
#274 = AXIS2_PLACEMENT_3D ( 'NONE', #273, #272, #271 ) ;
#275 = CIRCLE ( 'NONE', #274, 1.000000000000001300 ) ;
#276 = CARTESIAN_POINT ( 'NONE',  ( 0.0000000000000000000, 19.73017929218209000, 2.574999999999997500 ) ) ;
#277 = DIRECTION ( 'NONE',  ( 0.0000000000000000000, 0.0000000000000000000, 1.000000000000000000 ) ) ;
#278 = DIRECTION ( 'NONE',  ( 0.0000000000000000000, -1.000000000000000000, 0.0000000000000000000 ) ) ;
#279 = CARTESIAN_POINT ( 'NONE',  ( 0.0000000000000000000, 19.73017929218209000, 0.0000000000000000000 ) ) ;
#280 = AXIS2_PLACEMENT_3D ( 'NONE', #279, #278, #277 ) ;
#281 = CIRCLE ( 'NONE', #280, 2.574999999999997500 ) ;
#282 = DIRECTION ( 'NONE',  ( 0.0000000000000000000, 0.0000000000000000000, 1.000000000000000000 ) ) ;
#283 = DIRECTION ( 'NONE',  ( 0.0000000000000000000, 1.000000000000000000, 0.0000000000000000000 ) ) ;
#284 = CARTESIAN_POINT ( 'NONE',  ( 0.0000000000000000000, 23.49698005336976100, 0.0000000000000000000 ) ) ;
#285 = DIRECTION ( 'NONE',  ( 1.000000000000000000, 0.0000000000000000000, 0.0000000000000000000 ) ) ;
#286 = AXIS2_PLACEMENT_3D ( 'NONE', #169, #176, #285 ) ;
#287 = CYLINDRICAL_SURFACE ( 'NONE', #288, 2.574999999999997500 ) ;
#288 = AXIS2_PLACEMENT_3D ( 'NONE', #291, #290, #289 ) ;
#289 = DIRECTION ( 'NONE',  ( 0.0000000000000000000, 0.0000000000000000000, 1.000000000000000000 ) ) ;
#290 = DIRECTION ( 'NONE',  ( 0.0000000000000000000, 1.000000000000000000, 0.0000000000000000000 ) ) ;
#291 = CARTESIAN_POINT ( 'NONE',  ( 0.0000000000000000000, 32.66160787530762400, 0.0000000000000000000 ) ) ;
#292 = CONICAL_SURFACE ( 'NONE', #293, 4.610290992907232900, 0.5270894341022890300 ) ;
#293 = AXIS2_PLACEMENT_3D ( 'NONE', #284, #283, #282 ) ;
#294 = FACE_OUTER_BOUND ( 'NONE', #122, .T. ) ;
#295 = DIRECTION ( 'NONE',  ( 0.0000000000000000000, 1.000000000000000000, 0.0000000000000000000 ) ) ;
#296 = VECTOR ( 'NONE', #295, 1000.000000000000000 ) ;
#297 = CARTESIAN_POINT ( 'NONE',  ( 0.0000000000000000000, 32.66160787530762400, 2.574999999999997500 ) ) ;
#298 = DIRECTION ( 'NONE',  ( 0.0000000000000000000, 0.0000000000000000000, 1.000000000000000000 ) ) ;
#299 = DIRECTION ( 'NONE',  ( 0.0000000000000000000, -1.000000000000000000, 0.0000000000000000000 ) ) ;
#300 = FACE_OUTER_BOUND ( 'NONE', #71, .T. ) ;
#301 = PERSON ( 'UNSPECIFIED', 'UNSPECIFIED', 'UNSPECIFIED', ('UNSPECIFIED'), ('UNSPECIFIED'), ('UNSPECIFIED') ) ;
#302 = PRODUCT ( 'C-30-MR-6', 'C-30-MR-6', '', ( #303 ) ) ;
#303 = MECHANICAL_CONTEXT ( 'NONE', #305, 'mechanical' ) ;
#304 = APPLICATION_PROTOCOL_DEFINITION ( 'international standard', 'config_control_design', 1994, #305 ) ;
#305 = APPLICATION_CONTEXT ( 'configuration controlled 3d designs of mechanical parts and assemblies' ) ;
#306 = VECTOR ( 'NONE', #313, 1000.000000000000000 ) ;
#307 = CARTESIAN_POINT ( 'NONE',  ( 3.153465507804431300E-016, 32.66160787530762400, -2.574999999999997500 ) ) ;
#308 = LINE ( 'NONE', #307, #306 ) ;
#309 = CARTESIAN_POINT ( 'NONE',  ( 0.0000000000000000000, 19.73017929218209000, 0.0000000000000000000 ) ) ;
#310 = AXIS2_PLACEMENT_3D ( 'NONE', #309, #299, #298 ) ;
#311 = CIRCLE ( 'NONE', #310, 2.574999999999997500 ) ;
#312 = LINE ( 'NONE', #297, #296 ) ;
#313 = DIRECTION ( 'NONE',  ( 0.0000000000000000000, 1.000000000000000000, 0.0000000000000000000 ) ) ;
#314 = PRODUCT_DEFINITION_SHAPE ( 'NONE', 'NONE',  #377 ) ;
#315 = PRODUCT_RELATED_PRODUCT_CATEGORY ( 'detail', '', ( #302 ) ) ;
#316 = CC_DESIGN_SECURITY_CLASSIFICATION ( #337, ( #356 ) ) ;
#317 = CC_DESIGN_APPROVAL ( #325, ( #337 ) ) ;
#318 = APPROVAL_DATE_TIME ( #319, #325 ) ;
#319 = DATE_AND_TIME ( #320, #321 ) ;
#320 = CALENDAR_DATE ( 2006, 8, 6 ) ;
#321 = LOCAL_TIME ( 9, 7, 33.00000000000000000, #322 ) ;
#322 = COORDINATED_UNIVERSAL_TIME_OFFSET ( 9, 0, .AHEAD. ) ;
#323 = APPROVAL_PERSON_ORGANIZATION ( #327, #325, #324 ) ;
#324 = APPROVAL_ROLE ( '' ) ;
#325 = APPROVAL ( #326, 'UNSPECIFIED' ) ;
#326 = APPROVAL_STATUS ( 'not_yet_approved' ) ;
#327 = PERSON_AND_ORGANIZATION ( #301, #124 ) ;
#328 = CC_DESIGN_DATE_AND_TIME_ASSIGNMENT ( #330, #329, ( #337 ) ) ;
#329 = DATE_TIME_ROLE ( 'classification_date' ) ;
#330 = DATE_AND_TIME ( #331, #332 ) ;
#331 = CALENDAR_DATE ( 2006, 8, 6 ) ;
#332 = LOCAL_TIME ( 9, 7, 33.00000000000000000, #333 ) ;
#333 = COORDINATED_UNIVERSAL_TIME_OFFSET ( 9, 0, .AHEAD. ) ;
#334 = CC_DESIGN_PERSON_AND_ORGANIZATION_ASSIGNMENT ( #336, #335, ( #337 ) ) ;
#335 = PERSON_AND_ORGANIZATION_ROLE ( 'classification_officer' ) ;
#336 = PERSON_AND_ORGANIZATION ( #301, #124 ) ;
#337 = SECURITY_CLASSIFICATION ( '', '', #338 ) ;
#338 = SECURITY_CLASSIFICATION_LEVEL ( 'unclassified' ) ;
#339 = CC_DESIGN_PERSON_AND_ORGANIZATION_ASSIGNMENT ( #341, #340, ( #356 ) ) ;
#340 = PERSON_AND_ORGANIZATION_ROLE ( 'design_supplier' ) ;
#341 = PERSON_AND_ORGANIZATION ( #301, #124 ) ;
#342 = CC_DESIGN_PERSON_AND_ORGANIZATION_ASSIGNMENT ( #344, #343, ( #356 ) ) ;
#343 = PERSON_AND_ORGANIZATION_ROLE ( 'creator' ) ;
#344 = PERSON_AND_ORGANIZATION ( #301, #124 ) ;
#345 = CC_DESIGN_APPROVAL ( #353, ( #356 ) ) ;
#346 = APPROVAL_DATE_TIME ( #347, #353 ) ;
#347 = DATE_AND_TIME ( #348, #349 ) ;
#348 = CALENDAR_DATE ( 2006, 8, 6 ) ;
#349 = LOCAL_TIME ( 9, 7, 33.00000000000000000, #350 ) ;
#350 = COORDINATED_UNIVERSAL_TIME_OFFSET ( 9, 0, .AHEAD. ) ;
#351 = APPROVAL_PERSON_ORGANIZATION ( #355, #353, #352 ) ;
#352 = APPROVAL_ROLE ( '' ) ;
#353 = APPROVAL ( #354, 'UNSPECIFIED' ) ;
#354 = APPROVAL_STATUS ( 'not_yet_approved' ) ;
#355 = PERSON_AND_ORGANIZATION ( #301, #124 ) ;
#356 = PRODUCT_DEFINITION_FORMATION_WITH_SPECIFIED_SOURCE ( 'ANY', '', #302, .NOT_KNOWN. ) ;
#357 = CC_DESIGN_DATE_AND_TIME_ASSIGNMENT ( #359, #358, ( #377 ) ) ;
#358 = DATE_TIME_ROLE ( 'creation_date' ) ;
#359 = DATE_AND_TIME ( #360, #361 ) ;
#360 = CALENDAR_DATE ( 2006, 8, 6 ) ;
#361 = LOCAL_TIME ( 9, 7, 33.00000000000000000, #362 ) ;
#362 = COORDINATED_UNIVERSAL_TIME_OFFSET ( 9, 0, .AHEAD. ) ;
#363 = CC_DESIGN_PERSON_AND_ORGANIZATION_ASSIGNMENT ( #365, #364, ( #377 ) ) ;
#364 = PERSON_AND_ORGANIZATION_ROLE ( 'creator' ) ;
#365 = PERSON_AND_ORGANIZATION ( #301, #124 ) ;
#366 = CC_DESIGN_APPROVAL ( #374, ( #377 ) ) ;
#367 = APPROVAL_DATE_TIME ( #368, #374 ) ;
#368 = DATE_AND_TIME ( #369, #370 ) ;
#369 = CALENDAR_DATE ( 2006, 8, 6 ) ;
#370 = LOCAL_TIME ( 9, 7, 33.00000000000000000, #371 ) ;
#371 = COORDINATED_UNIVERSAL_TIME_OFFSET ( 9, 0, .AHEAD. ) ;
#372 = APPROVAL_PERSON_ORGANIZATION ( #376, #374, #373 ) ;
#373 = APPROVAL_ROLE ( '' ) ;
#374 = APPROVAL ( #375, 'UNSPECIFIED' ) ;
#375 = APPROVAL_STATUS ( 'not_yet_approved' ) ;
#376 = PERSON_AND_ORGANIZATION ( #301, #124 ) ;
#377 = PRODUCT_DEFINITION ( 'UNKNOWN', '', #356, #378 ) ;
#378 = DESIGN_CONTEXT ( 'detailed design', #380, 'design' ) ;
#379 = APPLICATION_PROTOCOL_DEFINITION ( 'international standard', 'config_control_design', 1994, #380 ) ;
#380 = APPLICATION_CONTEXT ( 'configuration controlled 3d designs of mechanical parts and assemblies' ) ;
#381 = SHAPE_DEFINITION_REPRESENTATION ( #314, #170 ) ;
ENDSEC;
END-ISO-10303-21;
