ISO-10303-21;
HEADER;
FILE_DESCRIPTION (( 'STEP AP203' ),
    '1' );
FILE_NAME ('C-30-MR-5.STEP',
    '2006-06-08T00:07:00',
    ( ' ' ),
    ( ' ' ),
    'SwSTEP 2.0',
    'SolidWorks 2005204',
    '' );
FILE_SCHEMA (( 'CONFIG_CONTROL_DESIGN' ));
ENDSEC;

DATA;
#1 = LINE ( 'NONE', #4, #3 ) ;
#2 = DIRECTION ( 'NONE',  ( 0.0000000000000000000, 1.000000000000000000, 0.0000000000000000000 ) ) ;
#3 = VECTOR ( 'NONE', #2, 1000.000000000000000 ) ;
#4 = CARTESIAN_POINT ( 'NONE',  ( 0.0000000000000000000, 32.66160787530762400, 2.199999999999997100 ) ) ;
#5 = DIRECTION ( 'NONE',  ( 0.0000000000000000000, 0.0000000000000000000, 1.000000000000000000 ) ) ;
#6 = DIRECTION ( 'NONE',  ( 0.0000000000000000000, 0.0000000000000000000, 1.000000000000000000 ) ) ;
#7 = DIRECTION ( 'NONE',  ( 0.0000000000000000000, -1.000000000000000000, 0.0000000000000000000 ) ) ;
#8 = CARTESIAN_POINT ( 'NONE',  ( 0.0000000000000000000, 11.73017929218209200, 0.0000000000000000000 ) ) ;
#9 = AXIS2_PLACEMENT_3D ( 'NONE', #8, #7, #6 ) ;
#10 = CIRCLE ( 'NONE', #9, 2.199999999999997100 ) ;
#11 = DIRECTION ( 'NONE',  ( 0.0000000000000000000, 1.000000000000000000, 0.0000000000000000000 ) ) ;
#12 = VECTOR ( 'NONE', #11, 1000.000000000000000 ) ;
#13 = CARTESIAN_POINT ( 'NONE',  ( 2.694222958124173600E-016, 32.66160787530762400, -2.199999999999997100 ) ) ;
#14 = DIRECTION ( 'NONE',  ( 0.0000000000000000000, 0.0000000000000000000, 1.000000000000000000 ) ) ;
#15 = DIRECTION ( 'NONE',  ( 0.0000000000000000000, 1.000000000000000000, 0.0000000000000000000 ) ) ;
#16 = AXIS2_PLACEMENT_3D ( 'NONE', #19, #15, #14 ) ;
#17 = CYLINDRICAL_SURFACE ( 'NONE', #16, 2.199999999999997100 ) ;
#18 = LINE ( 'NONE', #13, #12 ) ;
#19 = CARTESIAN_POINT ( 'NONE',  ( 0.0000000000000000000, 32.66160787530762400, 0.0000000000000000000 ) ) ;
#20 = DIRECTION ( 'NONE',  ( 0.0000000000000000000, 0.0000000000000000000, 1.000000000000000000 ) ) ;
#21 = DIRECTION ( 'NONE',  ( -1.000000000000000000, 0.0000000000000000000, 0.0000000000000000000 ) ) ;
#22 = CARTESIAN_POINT ( 'NONE',  ( 0.0000000000000000000, 2.500000000000002200, -1.400000000000003700 ) ) ;
#23 = AXIS2_PLACEMENT_3D ( 'NONE', #22, #21, #20 ) ;
#24 = CIRCLE ( 'NONE', #23, 3.600000000000000100 ) ;
#25 = FACE_OUTER_BOUND ( 'NONE', #100, .T. ) ;
#26 = CARTESIAN_POINT ( 'NONE',  ( 0.0000000000000000000, 2.499999999999998700, 2.199999999999996200 ) ) ;
#27 = DIRECTION ( 'NONE',  ( 0.0000000000000000000, 0.0000000000000000000, 1.000000000000000000 ) ) ;
#28 = DIRECTION ( 'NONE',  ( 0.0000000000000000000, 1.000000000000000000, 0.0000000000000000000 ) ) ;
#29 = CARTESIAN_POINT ( 'NONE',  ( 0.0000000000000000000, 2.499999999999998700, 0.0000000000000000000 ) ) ;
#30 = AXIS2_PLACEMENT_3D ( 'NONE', #29, #28, #27 ) ;
#31 = CIRCLE ( 'NONE', #30, 2.199999999999996200 ) ;
#32 = CARTESIAN_POINT ( 'NONE',  ( 2.694222958124173100E-016, 2.499999999999998700, -2.199999999999996200 ) ) ;
#33 = DIRECTION ( 'NONE',  ( 1.224646799147353000E-016, 0.0000000000000000000, -1.000000000000000000 ) ) ;
#34 = DIRECTION ( 'NONE',  ( 1.000000000000000000, 0.0000000000000000000, 1.224646799147353200E-016 ) ) ;
#35 = AXIS2_PLACEMENT_3D ( 'NONE', #163, #34, #33 ) ;
#36 = DIRECTION ( 'NONE',  ( 0.0000000000000000000, 0.0000000000000000000, 1.000000000000000000 ) ) ;
#37 = DIRECTION ( 'NONE',  ( 0.0000000000000000000, 1.000000000000000000, 0.0000000000000000000 ) ) ;
#38 = CARTESIAN_POINT ( 'NONE',  ( 0.0000000000000000000, 2.500000000000002200, 0.0000000000000000000 ) ) ;
#39 = AXIS2_PLACEMENT_3D ( 'NONE', #38, #37, #36 ) ;
#40 = TOROIDAL_SURFACE ( 'NONE', #39, -1.400000000000003700, 3.600000000000000100 ) ;
#41 = DIRECTION ( 'NONE',  ( 0.0000000000000000000, 0.0000000000000000000, 1.000000000000000000 ) ) ;
#42 = DIRECTION ( 'NONE',  ( 0.0000000000000000000, 1.000000000000000000, 0.0000000000000000000 ) ) ;
#43 = AXIS2_PLACEMENT_3D ( 'NONE', #46, #42, #41 ) ;
#44 = TOROIDAL_SURFACE ( 'NONE', #43, 3.199999999999997100, 1.000000000000000000 ) ;
#45 = FACE_OUTER_BOUND ( 'NONE', #76, .T. ) ;
#46 = CARTESIAN_POINT ( 'NONE',  ( 0.0000000000000000000, 11.73017929218209200, 0.0000000000000000000 ) ) ;
#47 = DIRECTION ( 'NONE',  ( 0.0000000000000000000, 0.0000000000000000000, -1.000000000000000000 ) ) ;
#48 = DIRECTION ( 'NONE',  ( 0.0000000000000000000, -1.000000000000000000, 0.0000000000000000000 ) ) ;
#49 = CARTESIAN_POINT ( 'NONE',  ( -1.190366769397719600, 2.168404344971008900E-016, 0.0000000000000000000 ) ) ;
#50 = AXIS2_PLACEMENT_3D ( 'NONE', #49, #48, #47 ) ;
#51 = FACE_OUTER_BOUND ( 'NONE', #71, .T. ) ;
#52 = PLANE ( 'NONE',  #50 ) ;
#53 = DIRECTION ( 'NONE',  ( 0.0000000000000000000, 0.0000000000000000000, 1.000000000000000000 ) ) ;
#54 = DIRECTION ( 'NONE',  ( 0.0000000000000000000, 1.000000000000000000, 0.0000000000000000000 ) ) ;
#55 = CARTESIAN_POINT ( 'NONE',  ( 0.0000000000000000000, 0.0000000000000000000, 0.0000000000000000000 ) ) ;
#56 = AXIS2_PLACEMENT_3D ( 'NONE', #55, #54, #53 ) ;
#57 = CIRCLE ( 'NONE', #56, 1.190366769397719600 ) ;
#58 = FACE_OUTER_BOUND ( 'NONE', #66, .T. ) ;
#59 = ORIENTED_EDGE ( 'NONE', *, *, #148, .F. ) ;
#60 = ORIENTED_EDGE ( 'NONE', *, *, #84, .T. ) ;
#61 = ORIENTED_EDGE ( 'NONE', *, *, #105, .F. ) ;
#62 = CLOSED_SHELL ( 'NONE', ( #68, #85, #74, #99, #159, #70, #123, #146, #116, #157, #109, #141 ) ) ;
#63 = ORIENTED_EDGE ( 'NONE', *, *, #88, .F. ) ;
#64 = EDGE_CURVE ( 'NONE', #90, #89, #57, .T. ) ;
#65 = ORIENTED_EDGE ( 'NONE', *, *, #98, .T. ) ;
#66 = EDGE_LOOP ( 'NONE', ( #63, #69 ) ) ;
#67 = ORIENTED_EDGE ( 'NONE', *, *, #79, .F. ) ;
#68 = ADVANCED_FACE ( 'NONE', ( #58 ), #52, .T. ) ;
#69 = ORIENTED_EDGE ( 'NONE', *, *, #64, .F. ) ;
#70 = ADVANCED_FACE ( 'NONE', ( #51 ), #44, .F. ) ;
#71 = EDGE_LOOP ( 'NONE', ( #72, #59, #60, #61 ) ) ;
#72 = ORIENTED_EDGE ( 'NONE', *, *, #130, .F. ) ;
#73 = ORIENTED_EDGE ( 'NONE', *, *, #92, .F. ) ;
#74 = ADVANCED_FACE ( 'NONE', ( #45 ), #40, .T. ) ;
#75 = ORIENTED_EDGE ( 'NONE', *, *, #64, .T. ) ;
#76 = EDGE_LOOP ( 'NONE', ( #73, #75, #65, #67 ) ) ;
#77 = ORIENTED_EDGE ( 'NONE', *, *, #81, .T. ) ;
#78 = ORIENTED_EDGE ( 'NONE', *, *, #107, .T. ) ;
#79 = EDGE_CURVE ( 'NONE', #93, #96, #193, .T. ) ;
#80 = ORIENTED_EDGE ( 'NONE', *, *, #81, .F. ) ;
#81 = EDGE_CURVE ( 'NONE', #82, #131, #188, .T. ) ;
#82 = VERTEX_POINT ( 'NONE', #183 ) ;
#83 = ORIENTED_EDGE ( 'NONE', *, *, #84, .F. ) ;
#84 = EDGE_CURVE ( 'NONE', #128, #82, #181, .T. ) ;
#85 = ADVANCED_FACE ( 'NONE', ( #182 ), #175, .T. ) ;
#86 = EDGE_LOOP ( 'NONE', ( #87, #91, #94, #97 ) ) ;
#87 = ORIENTED_EDGE ( 'NONE', *, *, #88, .T. ) ;
#88 = EDGE_CURVE ( 'NONE', #89, #90, #171, .T. ) ;
#89 = VERTEX_POINT ( 'NONE', #166 ) ;
#90 = VERTEX_POINT ( 'NONE', #165 ) ;
#91 = ORIENTED_EDGE ( 'NONE', *, *, #92, .T. ) ;
#92 = EDGE_CURVE ( 'NONE', #90, #93, #164, .T. ) ;
#93 = VERTEX_POINT ( 'NONE', #32 ) ;
#94 = ORIENTED_EDGE ( 'NONE', *, *, #95, .F. ) ;
#95 = EDGE_CURVE ( 'NONE', #96, #93, #31, .T. ) ;
#96 = VERTEX_POINT ( 'NONE', #26 ) ;
#97 = ORIENTED_EDGE ( 'NONE', *, *, #98, .F. ) ;
#98 = EDGE_CURVE ( 'NONE', #89, #96, #24, .T. ) ;
#99 = ADVANCED_FACE ( 'NONE', ( #25 ), #17, .T. ) ;
#100 = EDGE_LOOP ( 'NONE', ( #101, #102, #104, #106 ) ) ;
#101 = ORIENTED_EDGE ( 'NONE', *, *, #95, .T. ) ;
#102 = ORIENTED_EDGE ( 'NONE', *, *, #103, .T. ) ;
#103 = EDGE_CURVE ( 'NONE', #93, #131, #18, .T. ) ;
#104 = ORIENTED_EDGE ( 'NONE', *, *, #105, .T. ) ;
#105 = EDGE_CURVE ( 'NONE', #131, #82, #10, .T. ) ;
#106 = ORIENTED_EDGE ( 'NONE', *, *, #107, .F. ) ;
#107 = EDGE_CURVE ( 'NONE', #96, #82, #1, .T. ) ;
#108 = EDGE_LOOP ( 'NONE', ( #147, #149, #152, #155 ) ) ;
#109 = ADVANCED_FACE ( 'NONE', ( #203 ), #215, .T. ) ;
#110 = EDGE_LOOP ( 'NONE', ( #111, #112, #114, #115 ) ) ;
#111 = ORIENTED_EDGE ( 'NONE', *, *, #134, .F. ) ;
#112 = ORIENTED_EDGE ( 'NONE', *, *, #113, .T. ) ;
#113 = EDGE_CURVE ( 'NONE', #151, #154, #210, .T. ) ;
#114 = ORIENTED_EDGE ( 'NONE', *, *, #140, .T. ) ;
#115 = ORIENTED_EDGE ( 'NONE', *, *, #145, .F. ) ;
#116 = ADVANCED_FACE ( 'NONE', ( #205 ), #204, .T. ) ;
#117 = EDGE_LOOP ( 'NONE', ( #118, #119, #120, #162 ) ) ;
#118 = ORIENTED_EDGE ( 'NONE', *, *, #150, .F. ) ;
#119 = ORIENTED_EDGE ( 'NONE', *, *, #126, .T. ) ;
#120 = ORIENTED_EDGE ( 'NONE', *, *, #156, .T. ) ;
#121 = ORIENTED_EDGE ( 'NONE', *, *, #79, .T. ) ;
#122 = MANIFOLD_SOLID_BREP ( 'NONE', #62 ) ;
#123 = ADVANCED_FACE ( 'NONE', ( #201 ), #197, .F. ) ;
#124 = EDGE_LOOP ( 'NONE', ( #125, #129, #80, #83 ) ) ;
#125 = ORIENTED_EDGE ( 'NONE', *, *, #126, .F. ) ;
#126 = EDGE_CURVE ( 'NONE', #127, #128, #343, .T. ) ;
#127 = VERTEX_POINT ( 'NONE', #220 ) ;
#128 = VERTEX_POINT ( 'NONE', #219 ) ;
#129 = ORIENTED_EDGE ( 'NONE', *, *, #130, .T. ) ;
#130 = EDGE_CURVE ( 'NONE', #127, #131, #218, .T. ) ;
#131 = VERTEX_POINT ( 'NONE', #240 ) ;
#132 = ORIENTED_EDGE ( 'NONE', *, *, #153, .T. ) ;
#133 = ORIENTED_EDGE ( 'NONE', *, *, #134, .T. ) ;
#134 = EDGE_CURVE ( 'NONE', #151, #135, #251, .T. ) ;
#135 = VERTEX_POINT ( 'NONE', #227 ) ;
#136 = ORIENTED_EDGE ( 'NONE', *, *, #137, .F. ) ;
#137 = EDGE_CURVE ( 'NONE', #138, #135, #250, .T. ) ;
#138 = VERTEX_POINT ( 'NONE', #241 ) ;
#139 = ORIENTED_EDGE ( 'NONE', *, *, #140, .F. ) ;
#140 = EDGE_CURVE ( 'NONE', #154, #138, #248, .T. ) ;
#141 = ADVANCED_FACE ( 'NONE', ( #243 ), #249, .T. ) ;
#142 = EDGE_LOOP ( 'NONE', ( #143, #144 ) ) ;
#143 = ORIENTED_EDGE ( 'NONE', *, *, #137, .T. ) ;
#144 = ORIENTED_EDGE ( 'NONE', *, *, #145, .T. ) ;
#145 = EDGE_CURVE ( 'NONE', #135, #138, #224, .T. ) ;
#146 = ADVANCED_FACE ( 'NONE', ( #258 ), #260, .T. ) ;
#147 = ORIENTED_EDGE ( 'NONE', *, *, #148, .T. ) ;
#148 = EDGE_CURVE ( 'NONE', #128, #127, #256, .T. ) ;
#149 = ORIENTED_EDGE ( 'NONE', *, *, #150, .T. ) ;
#150 = EDGE_CURVE ( 'NONE', #127, #151, #257, .T. ) ;
#151 = VERTEX_POINT ( 'NONE', #261 ) ;
#152 = ORIENTED_EDGE ( 'NONE', *, *, #153, .F. ) ;
#153 = EDGE_CURVE ( 'NONE', #154, #151, #278, .T. ) ;
#154 = VERTEX_POINT ( 'NONE', #282 ) ;
#155 = ORIENTED_EDGE ( 'NONE', *, *, #156, .F. ) ;
#156 = EDGE_CURVE ( 'NONE', #128, #154, #287, .T. ) ;
#157 = ADVANCED_FACE ( 'NONE', ( #283 ), #271, .T. ) ;
#158 = EDGE_LOOP ( 'NONE', ( #132, #133, #136, #139 ) ) ;
#159 = ADVANCED_FACE ( 'NONE', ( #290 ), #294, .T. ) ;
#160 = ORIENTED_EDGE ( 'NONE', *, *, #103, .F. ) ;
#161 = EDGE_LOOP ( 'NONE', ( #160, #121, #78, #77 ) ) ;
#162 = ORIENTED_EDGE ( 'NONE', *, *, #113, .F. ) ;
#163 = CARTESIAN_POINT ( 'NONE',  ( -1.714505518806299100E-016, 2.500000000000002200, 1.400000000000003700 ) ) ;
#164 = CIRCLE ( 'NONE', #35, 3.600000000000000100 ) ;
#165 = CARTESIAN_POINT ( 'NONE',  ( 2.076000906039232800E-016, 0.0000000000000000000, -1.190366769397719600 ) ) ;
#166 = CARTESIAN_POINT ( 'NONE',  ( 0.0000000000000000000, 0.0000000000000000000, 1.190366769397719600 ) ) ;
#167 = DIRECTION ( 'NONE',  ( 0.0000000000000000000, 0.0000000000000000000, 1.000000000000000000 ) ) ;
#168 = DIRECTION ( 'NONE',  ( 0.0000000000000000000, 1.000000000000000000, 0.0000000000000000000 ) ) ;
#169 = CARTESIAN_POINT ( 'NONE',  ( 0.0000000000000000000, 0.0000000000000000000, 0.0000000000000000000 ) ) ;
#170 = AXIS2_PLACEMENT_3D ( 'NONE', #169, #168, #167 ) ;
#171 = CIRCLE ( 'NONE', #170, 1.190366769397719600 ) ;
#172 = DIRECTION ( 'NONE',  ( 0.0000000000000000000, 0.0000000000000000000, 1.000000000000000000 ) ) ;
#173 = DIRECTION ( 'NONE',  ( 0.0000000000000000000, 1.000000000000000000, 0.0000000000000000000 ) ) ;
#174 = AXIS2_PLACEMENT_3D ( 'NONE', #176, #173, #172 ) ;
#175 = TOROIDAL_SURFACE ( 'NONE', #174, -1.400000000000003700, 3.600000000000000100 ) ;
#176 = CARTESIAN_POINT ( 'NONE',  ( 0.0000000000000000000, 2.500000000000002200, 0.0000000000000000000 ) ) ;
#177 = DIRECTION ( 'NONE',  ( 0.0000000000000000000, 0.0000000000000000000, 1.000000000000000000 ) ) ;
#178 = DIRECTION ( 'NONE',  ( -1.000000000000000000, 0.0000000000000000000, 0.0000000000000000000 ) ) ;
#179 = CARTESIAN_POINT ( 'NONE',  ( 0.0000000000000000000, 11.73017929218209200, 3.199999999999997100 ) ) ;
#180 = AXIS2_PLACEMENT_3D ( 'NONE', #179, #178, #177 ) ;
#181 = CIRCLE ( 'NONE', #180, 1.000000000000000000 ) ;
#182 = FACE_OUTER_BOUND ( 'NONE', #86, .T. ) ;
#183 = CARTESIAN_POINT ( 'NONE',  ( 0.0000000000000000000, 11.73017929218209200, 2.199999999999997100 ) ) ;
#184 = DIRECTION ( 'NONE',  ( 0.0000000000000000000, 0.0000000000000000000, 1.000000000000000000 ) ) ;
#185 = DIRECTION ( 'NONE',  ( 0.0000000000000000000, -1.000000000000000000, 0.0000000000000000000 ) ) ;
#186 = CARTESIAN_POINT ( 'NONE',  ( 0.0000000000000000000, 11.73017929218209200, 0.0000000000000000000 ) ) ;
#187 = AXIS2_PLACEMENT_3D ( 'NONE', #186, #185, #184 ) ;
#188 = CIRCLE ( 'NONE', #187, 2.199999999999997100 ) ;
#189 = DIRECTION ( 'NONE',  ( 0.0000000000000000000, 0.0000000000000000000, 1.000000000000000000 ) ) ;
#190 = DIRECTION ( 'NONE',  ( 0.0000000000000000000, 1.000000000000000000, 0.0000000000000000000 ) ) ;
#191 = CARTESIAN_POINT ( 'NONE',  ( 0.0000000000000000000, 2.499999999999998700, 0.0000000000000000000 ) ) ;
#192 = AXIS2_PLACEMENT_3D ( 'NONE', #191, #190, #189 ) ;
#193 = CIRCLE ( 'NONE', #192, 2.199999999999996200 ) ;
#194 = DIRECTION ( 'NONE',  ( 0.0000000000000000000, 1.000000000000000000, 0.0000000000000000000 ) ) ;
#195 = CARTESIAN_POINT ( 'NONE',  ( 0.0000000000000000000, 11.73017929218209200, 0.0000000000000000000 ) ) ;
#196 = AXIS2_PLACEMENT_3D ( 'NONE', #195, #194, #5 ) ;
#197 = TOROIDAL_SURFACE ( 'NONE', #196, 3.199999999999997100, 1.000000000000000000 ) ;
#198 = DIRECTION ( 'NONE',  ( 0.0000000000000000000, 0.0000000000000000000, 1.000000000000000000 ) ) ;
#199 = DIRECTION ( 'NONE',  ( 0.0000000000000000000, 1.000000000000000000, 0.0000000000000000000 ) ) ;
#200 = CARTESIAN_POINT ( 'NONE',  ( 0.0000000000000000000, 15.49698005336976400, 0.0000000000000000000 ) ) ;
#201 = FACE_OUTER_BOUND ( 'NONE', #124, .T. ) ;
#202 = AXIS2_PLACEMENT_3D ( 'NONE', #200, #199, #198 ) ;
#203 = FACE_OUTER_BOUND ( 'NONE', #110, .T. ) ;
#204 = CONICAL_SURFACE ( 'NONE', #202, 4.235290992907234700, 0.5270894341022891400 ) ;
#205 = FACE_OUTER_BOUND ( 'NONE', #117, .T. ) ;
#206 = DIRECTION ( 'NONE',  ( 0.0000000000000000000, 0.0000000000000000000, 1.000000000000000000 ) ) ;
#207 = DIRECTION ( 'NONE',  ( 0.0000000000000000000, 1.000000000000000000, 0.0000000000000000000 ) ) ;
#208 = CARTESIAN_POINT ( 'NONE',  ( 0.0000000000000000000, 15.49698005336976400, 0.0000000000000000000 ) ) ;
#209 = AXIS2_PLACEMENT_3D ( 'NONE', #208, #207, #206 ) ;
#210 = CIRCLE ( 'NONE', #209, 4.235290992907234700 ) ;
#211 = DIRECTION ( 'NONE',  ( 0.0000000000000000000, 0.0000000000000000000, 1.000000000000000000 ) ) ;
#212 = DIRECTION ( 'NONE',  ( 0.0000000000000000000, 1.000000000000000000, 0.0000000000000000000 ) ) ;
#213 = CARTESIAN_POINT ( 'NONE',  ( 0.0000000000000000000, 16.00000000000000000, 0.0000000000000000000 ) ) ;
#214 = AXIS2_PLACEMENT_3D ( 'NONE', #213, #212, #211 ) ;
#215 = TOROIDAL_SURFACE ( 'NONE', #214, 3.371016190953530800, 1.000000000000000400 ) ;
#216 =( NAMED_UNIT ( * ) SI_UNIT ( $, .STERADIAN. ) SOLID_ANGLE_UNIT ( ) );
#217 = AXIS2_PLACEMENT_3D ( 'NONE', #226, #225, #252 ) ;
#218 = CIRCLE ( 'NONE', #217, 1.000000000000000000 ) ;
#219 = CARTESIAN_POINT ( 'NONE',  ( 0.0000000000000000000, 12.23319923881232900, 2.335725198046292300 ) ) ;
#220 = CARTESIAN_POINT ( 'NONE',  ( 4.023586972698334400E-016, 12.23319923881232900, -2.335725198046292300 ) ) ;
#221 = DIRECTION ( 'NONE',  ( 0.0000000000000000000, 0.0000000000000000000, 1.000000000000000000 ) ) ;
#222 = DIRECTION ( 'NONE',  ( 0.0000000000000000000, 1.000000000000000000, 0.0000000000000000000 ) ) ;
#223 = AXIS2_PLACEMENT_3D ( 'NONE', #235, #222, #221 ) ;
#224 = CIRCLE ( 'NONE', #223, 3.371016190953530800 ) ;
#225 = DIRECTION ( 'NONE',  ( 1.000000000000000000, 0.0000000000000000000, 1.224646799147353200E-016 ) ) ;
#226 = CARTESIAN_POINT ( 'NONE',  ( 3.918869757271526500E-016, 11.73017929218209200, -3.199999999999997100 ) ) ;
#227 = CARTESIAN_POINT ( 'NONE',  ( 4.657519873023301600E-016, 17.00000000000000000, -3.371016190953530800 ) ) ;
#228 = DIRECTION ( 'NONE',  ( 0.0000000000000000000, 1.000000000000000000, 0.0000000000000000000 ) ) ;
#229 = CARTESIAN_POINT ( 'NONE',  ( 0.0000000000000000000, 17.00000000000000000, 0.0000000000000000000 ) ) ;
#230 = AXIS2_PLACEMENT_3D ( 'NONE', #229, #228, #242 ) ;
#231 = DIRECTION ( 'NONE',  ( 0.0000000000000000000, 0.0000000000000000000, 1.000000000000000000 ) ) ;
#232 = DIRECTION ( 'NONE',  ( 0.0000000000000000000, 1.000000000000000000, 0.0000000000000000000 ) ) ;
#233 = CARTESIAN_POINT ( 'NONE',  ( 1.900745847083735000E-015, 17.00000000000000000, 0.0000000000000000000 ) ) ;
#234 = AXIS2_PLACEMENT_3D ( 'NONE', #233, #232, #231 ) ;
#235 = CARTESIAN_POINT ( 'NONE',  ( 0.0000000000000000000, 17.00000000000000000, 0.0000000000000000000 ) ) ;
#236 = DIRECTION ( 'NONE',  ( 1.224646799147354400E-016, 0.0000000000000000000, -1.000000000000000000 ) ) ;
#237 = DIRECTION ( 'NONE',  ( 1.000000000000000000, 0.0000000000000000000, 1.224646799147353200E-016 ) ) ;
#238 = CARTESIAN_POINT ( 'NONE',  ( 4.128304188125144300E-016, 16.00000000000000000, -3.371016190953530800 ) ) ;
#239 = AXIS2_PLACEMENT_3D ( 'NONE', #238, #237, #236 ) ;
#240 = CARTESIAN_POINT ( 'NONE',  ( 2.694222958124173600E-016, 11.73017929218209200, -2.199999999999997100 ) ) ;
#241 = CARTESIAN_POINT ( 'NONE',  ( 0.0000000000000000000, 17.00000000000000000, 3.371016190953530800 ) ) ;
#242 = DIRECTION ( 'NONE',  ( 0.0000000000000000000, 0.0000000000000000000, 1.000000000000000000 ) ) ;
#243 = FACE_OUTER_BOUND ( 'NONE', #142, .T. ) ;
#244 = DIRECTION ( 'NONE',  ( 0.0000000000000000000, 0.0000000000000000000, 1.000000000000000000 ) ) ;
#245 = DIRECTION ( 'NONE',  ( -1.000000000000000000, 0.0000000000000000000, 0.0000000000000000000 ) ) ;
#246 = CARTESIAN_POINT ( 'NONE',  ( 0.0000000000000000000, 16.00000000000000000, 3.371016190953530800 ) ) ;
#247 = AXIS2_PLACEMENT_3D ( 'NONE', #246, #245, #244 ) ;
#248 = CIRCLE ( 'NONE', #247, 1.000000000000000000 ) ;
#249 = PLANE ( 'NONE',  #234 ) ;
#250 = CIRCLE ( 'NONE', #230, 3.371016190953530800 ) ;
#251 = CIRCLE ( 'NONE', #239, 1.000000000000000000 ) ;
#252 = DIRECTION ( 'NONE',  ( 1.224646799147353500E-016, 0.0000000000000000000, -1.000000000000000000 ) ) ;
#253 = DIRECTION ( 'NONE',  ( 0.0000000000000000000, 0.0000000000000000000, 1.000000000000000000 ) ) ;
#254 = DIRECTION ( 'NONE',  ( 0.0000000000000000000, 1.000000000000000000, 0.0000000000000000000 ) ) ;
#255 = CARTESIAN_POINT ( 'NONE',  ( 0.0000000000000000000, 15.49698005336976400, 0.0000000000000000000 ) ) ;
#256 = CIRCLE ( 'NONE', #268, 2.335725198046292300 ) ;
#257 = LINE ( 'NONE', #264, #263 ) ;
#258 = FACE_OUTER_BOUND ( 'NONE', #108, .T. ) ;
#259 = AXIS2_PLACEMENT_3D ( 'NONE', #255, #254, #253 ) ;
#260 = CONICAL_SURFACE ( 'NONE', #259, 4.235290992907234700, 0.5270894341022891400 ) ;
#261 = CARTESIAN_POINT ( 'NONE',  ( 5.186735557921461700E-016, 15.49698005336976400, -4.235290992907234700 ) ) ;
#262 = DIRECTION ( 'NONE',  ( 6.160217675479915100E-017, 0.8642748019537038800, -0.5030199466302364100 ) ) ;
#263 = VECTOR ( 'NONE', #262, 1000.000000000000000 ) ;
#264 = CARTESIAN_POINT ( 'NONE',  ( 5.186735557921460700E-016, 15.49698005336976400, -4.235290992907234700 ) ) ;
#265 = DIRECTION ( 'NONE',  ( 0.0000000000000000000, 0.0000000000000000000, 1.000000000000000000 ) ) ;
#266 = DIRECTION ( 'NONE',  ( 0.0000000000000000000, 1.000000000000000000, 0.0000000000000000000 ) ) ;
#267 = CARTESIAN_POINT ( 'NONE',  ( 0.0000000000000000000, 12.23319923881232900, 0.0000000000000000000 ) ) ;
#268 = AXIS2_PLACEMENT_3D ( 'NONE', #267, #266, #265 ) ;
#269 = CARTESIAN_POINT ( 'NONE',  ( 0.0000000000000000000, 16.00000000000000000, 0.0000000000000000000 ) ) ;
#270 = DIRECTION ( 'NONE',  ( 0.0000000000000000000, 1.000000000000000000, 0.0000000000000000000 ) ) ;
#271 = TOROIDAL_SURFACE ( 'NONE', #273, 3.371016190953530800, 1.000000000000000400 ) ;
#272 = UNCERTAINTY_MEASURE_WITH_UNIT (LENGTH_MEASURE( 1.000000000000000100E-005 ), #295, 'distance_accuracy_value', 'NONE');
#273 = AXIS2_PLACEMENT_3D ( 'NONE', #269, #270, #274 ) ;
#274 = DIRECTION ( 'NONE',  ( 0.0000000000000000000, 0.0000000000000000000, 1.000000000000000000 ) ) ;
#275 = AXIS2_PLACEMENT_3D ( 'NONE', #277, #276, #280 ) ;
#276 = DIRECTION ( 'NONE',  ( 0.0000000000000000000, 1.000000000000000000, 0.0000000000000000000 ) ) ;
#277 = CARTESIAN_POINT ( 'NONE',  ( 0.0000000000000000000, 15.49698005336976400, 0.0000000000000000000 ) ) ;
#278 = CIRCLE ( 'NONE', #275, 4.235290992907234700 ) ;
#279 =( GEOMETRIC_REPRESENTATION_CONTEXT ( 3 ) GLOBAL_UNCERTAINTY_ASSIGNED_CONTEXT ( ( #272 ) ) GLOBAL_UNIT_ASSIGNED_CONTEXT ( ( #295, #291, #216 ) ) REPRESENTATION_CONTEXT ( 'NONE', 'WORKASPACE' ) );
#280 = DIRECTION ( 'NONE',  ( 0.0000000000000000000, 0.0000000000000000000, 1.000000000000000000 ) ) ;
#281 = ADVANCED_BREP_SHAPE_REPRESENTATION ( 'C-30-MR-5', ( #122, #297 ), #279 ) ;
#282 = CARTESIAN_POINT ( 'NONE',  ( 0.0000000000000000000, 15.49698005336976400, 4.235290992907234700 ) ) ;
#283 = FACE_OUTER_BOUND ( 'NONE', #158, .T. ) ;
#284 = DIRECTION ( 'NONE',  ( 0.0000000000000000000, 0.8642748019537038800, 0.5030199466302364100 ) ) ;
#285 = VECTOR ( 'NONE', #284, 1000.000000000000000 ) ;
#286 = CARTESIAN_POINT ( 'NONE',  ( 0.0000000000000000000, 15.49698005336976400, 4.235290992907234700 ) ) ;
#287 = LINE ( 'NONE', #286, #285 ) ;
#288 = DIRECTION ( 'NONE',  ( 0.0000000000000000000, 0.0000000000000000000, 1.000000000000000000 ) ) ;
#289 = CARTESIAN_POINT ( 'NONE',  ( 0.0000000000000000000, 32.66160787530762400, 0.0000000000000000000 ) ) ;
#290 = FACE_OUTER_BOUND ( 'NONE', #161, .T. ) ;
#291 =( NAMED_UNIT ( * ) PLANE_ANGLE_UNIT ( ) SI_UNIT ( $, .RADIAN. ) );
#292 = DIRECTION ( 'NONE',  ( 0.0000000000000000000, 1.000000000000000000, 0.0000000000000000000 ) ) ;
#293 = AXIS2_PLACEMENT_3D ( 'NONE', #289, #292, #288 ) ;
#294 = CYLINDRICAL_SURFACE ( 'NONE', #293, 2.199999999999997100 ) ;
#295 =( LENGTH_UNIT ( ) NAMED_UNIT ( * ) SI_UNIT ( .MILLI., .METRE. ) );
#296 = CARTESIAN_POINT ( 'NONE',  ( 0.0000000000000000000, 0.0000000000000000000, 0.0000000000000000000 ) ) ;
#297 = AXIS2_PLACEMENT_3D ( 'NONE', #296, #299, #298 ) ;
#298 = DIRECTION ( 'NONE',  ( 1.000000000000000000, 0.0000000000000000000, 0.0000000000000000000 ) ) ;
#299 = DIRECTION ( 'NONE',  ( 0.0000000000000000000, 0.0000000000000000000, 1.000000000000000000 ) ) ;
#300 = PRODUCT ( 'C-30-MR-5', 'C-30-MR-5', '', ( #301 ) ) ;
#301 = MECHANICAL_CONTEXT ( 'NONE', #303, 'mechanical' ) ;
#302 = APPLICATION_PROTOCOL_DEFINITION ( 'international standard', 'config_control_design', 1994, #303 ) ;
#303 = APPLICATION_CONTEXT ( 'configuration controlled 3d designs of mechanical parts and assemblies' ) ;
#304 = PERSON ( 'UNSPECIFIED', 'UNSPECIFIED', 'UNSPECIFIED', ('UNSPECIFIED'), ('UNSPECIFIED'), ('UNSPECIFIED') ) ;
#305 = PERSON_AND_ORGANIZATION_ROLE ( 'design_owner' ) ;
#306 = CC_DESIGN_PERSON_AND_ORGANIZATION_ASSIGNMENT ( #314, #305, ( #300 ) ) ;
#307 = PERSON_AND_ORGANIZATION ( #304, #311 ) ;
#308 = CC_DESIGN_APPROVAL ( #312, ( #341 ) ) ;
#309 = APPROVAL_DATE_TIME ( #318, #312 ) ;
#310 = APPLICATION_CONTEXT ( 'configuration controlled 3d designs of mechanical parts and assemblies' ) ;
#311 = ORGANIZATION ( 'UNSPECIFIED', 'UNSPECIFIED', '' ) ;
#312 = APPROVAL ( #313, 'UNSPECIFIED' ) ;
#313 = APPROVAL_STATUS ( 'not_yet_approved' ) ;
#314 = PERSON_AND_ORGANIZATION ( #304, #311 ) ;
#315 = DATE_AND_TIME ( #338, #339 ) ;
#316 = COORDINATED_UNIVERSAL_TIME_OFFSET ( 9, 0, .AHEAD. ) ;
#317 = APPLICATION_PROTOCOL_DEFINITION ( 'international standard', 'config_control_design', 1994, #310 ) ;
#318 = DATE_AND_TIME ( #319, #320 ) ;
#319 = CALENDAR_DATE ( 2006, 8, 6 ) ;
#320 = LOCAL_TIME ( 9, 7, 0.0000000000000000000, #321 ) ;
#321 = COORDINATED_UNIVERSAL_TIME_OFFSET ( 9, 0, .AHEAD. ) ;
#322 = CC_DESIGN_PERSON_AND_ORGANIZATION_ASSIGNMENT ( #307, #323, ( #341 ) ) ;
#323 = PERSON_AND_ORGANIZATION_ROLE ( 'creator' ) ;
#324 = CALENDAR_DATE ( 2006, 8, 6 ) ;
#325 = LOCAL_TIME ( 9, 7, 0.0000000000000000000, #326 ) ;
#326 = COORDINATED_UNIVERSAL_TIME_OFFSET ( 9, 0, .AHEAD. ) ;
#327 = APPROVAL_PERSON_ORGANIZATION ( #331, #329, #328 ) ;
#328 = APPROVAL_ROLE ( '' ) ;
#329 = APPROVAL ( #330, 'UNSPECIFIED' ) ;
#330 = APPROVAL_STATUS ( 'not_yet_approved' ) ;
#331 = PERSON_AND_ORGANIZATION ( #304, #311 ) ;
#332 = PRODUCT_DEFINITION_FORMATION_WITH_SPECIFIED_SOURCE ( 'ANY', '', #300, .NOT_KNOWN. ) ;
#333 = APPROVAL_PERSON_ORGANIZATION ( #340, #312, #334 ) ;
#334 = APPROVAL_ROLE ( '' ) ;
#335 = DESIGN_CONTEXT ( 'detailed design', #310, 'design' ) ;
#336 = CC_DESIGN_DATE_AND_TIME_ASSIGNMENT ( #315, #337, ( #341 ) ) ;
#337 = DATE_TIME_ROLE ( 'creation_date' ) ;
#338 = CALENDAR_DATE ( 2006, 8, 6 ) ;
#339 = LOCAL_TIME ( 9, 7, 0.0000000000000000000, #316 ) ;
#340 = PERSON_AND_ORGANIZATION ( #304, #311 ) ;
#341 = PRODUCT_DEFINITION ( 'UNKNOWN', '', #332, #335 ) ;
#342 = CARTESIAN_POINT ( 'NONE',  ( 0.0000000000000000000, 12.23319923881232900, 0.0000000000000000000 ) ) ;
#343 = CIRCLE ( 'NONE', #344, 2.335725198046292300 ) ;
#344 = AXIS2_PLACEMENT_3D ( 'NONE', #342, #347, #346 ) ;
#345 = CC_DESIGN_APPROVAL ( #329, ( #332 ) ) ;
#346 = DIRECTION ( 'NONE',  ( 0.0000000000000000000, 0.0000000000000000000, 1.000000000000000000 ) ) ;
#347 = DIRECTION ( 'NONE',  ( 0.0000000000000000000, 1.000000000000000000, 0.0000000000000000000 ) ) ;
#348 = APPROVAL_DATE_TIME ( #349, #329 ) ;
#349 = DATE_AND_TIME ( #324, #325 ) ;
#350 = DATE_TIME_ROLE ( 'classification_date' ) ;
#351 = DATE_AND_TIME ( #352, #353 ) ;
#352 = CALENDAR_DATE ( 2006, 8, 6 ) ;
#353 = LOCAL_TIME ( 9, 7, 0.0000000000000000000, #358 ) ;
#354 = CC_DESIGN_PERSON_AND_ORGANIZATION_ASSIGNMENT ( #381, #360, ( #332 ) ) ;
#355 = PERSON_AND_ORGANIZATION_ROLE ( 'classification_officer' ) ;
#356 = PERSON_AND_ORGANIZATION ( #304, #311 ) ;
#357 = SECURITY_CLASSIFICATION ( '', '', #363 ) ;
#358 = COORDINATED_UNIVERSAL_TIME_OFFSET ( 9, 0, .AHEAD. ) ;
#359 = CC_DESIGN_PERSON_AND_ORGANIZATION_ASSIGNMENT ( #356, #355, ( #357 ) ) ;
#360 = PERSON_AND_ORGANIZATION_ROLE ( 'design_supplier' ) ;
#361 = CC_DESIGN_PERSON_AND_ORGANIZATION_ASSIGNMENT ( #362, #364, ( #332 ) ) ;
#362 = PERSON_AND_ORGANIZATION ( #304, #311 ) ;
#363 = SECURITY_CLASSIFICATION_LEVEL ( 'unclassified' ) ;
#364 = PERSON_AND_ORGANIZATION_ROLE ( 'creator' ) ;
#365 = CC_DESIGN_APPROVAL ( #373, ( #357 ) ) ;
#366 = APPROVAL_DATE_TIME ( #367, #373 ) ;
#367 = DATE_AND_TIME ( #368, #369 ) ;
#368 = CALENDAR_DATE ( 2006, 8, 6 ) ;
#369 = LOCAL_TIME ( 9, 7, 0.0000000000000000000, #370 ) ;
#370 = COORDINATED_UNIVERSAL_TIME_OFFSET ( 9, 0, .AHEAD. ) ;
#371 = APPROVAL_PERSON_ORGANIZATION ( #375, #373, #372 ) ;
#372 = APPROVAL_ROLE ( '' ) ;
#373 = APPROVAL ( #374, 'UNSPECIFIED' ) ;
#374 = APPROVAL_STATUS ( 'not_yet_approved' ) ;
#375 = PERSON_AND_ORGANIZATION ( #304, #311 ) ;
#376 = CC_DESIGN_DATE_AND_TIME_ASSIGNMENT ( #351, #350, ( #357 ) ) ;
#377 = SHAPE_DEFINITION_REPRESENTATION ( #378, #281 ) ;
#378 = PRODUCT_DEFINITION_SHAPE ( 'NONE', 'NONE',  #341 ) ;
#379 = PRODUCT_RELATED_PRODUCT_CATEGORY ( 'detail', '', ( #300 ) ) ;
#380 = CC_DESIGN_SECURITY_CLASSIFICATION ( #357, ( #332 ) ) ;
#381 = PERSON_AND_ORGANIZATION ( #304, #311 ) ;
ENDSEC;
END-ISO-10303-21;
