ISO-10303-21;
HEADER;
FILE_DESCRIPTION (( 'STEP AP203' ),
    '1' );
FILE_NAME ('C-30-MR-4.STEP',
    '2006-06-08T00:06:24',
    ( ' ' ),
    ( ' ' ),
    'SwSTEP 2.0',
    'SolidWorks 2005204',
    '' );
FILE_SCHEMA (( 'CONFIG_CONTROL_DESIGN' ));
ENDSEC;

DATA;
#1 = APPLICATION_CONTEXT ( 'configuration controlled 3d designs of mechanical parts and assemblies' ) ;
#2 = DESIGN_CONTEXT ( 'detailed design', #1, 'design' ) ;
#3 = APPLICATION_PROTOCOL_DEFINITION ( 'international standard', 'config_control_design', 1994, #1 ) ;
#4 = PRODUCT_DEFINITION ( 'UNKNOWN', '', #18, #2 ) ;
#5 = PERSON_AND_ORGANIZATION ( #344, #343 ) ;
#6 = APPROVAL_STATUS ( 'not_yet_approved' ) ;
#7 = APPROVAL_STATUS ( 'not_yet_approved' ) ;
#8 = APPROVAL_ROLE ( '' ) ;
#9 = APPROVAL ( #6, 'UNSPECIFIED' ) ;
#10 = APPROVAL_PERSON_ORGANIZATION ( #5, #9, #8 ) ;
#11 = DATE_AND_TIME ( #12, #15 ) ;
#12 = CALENDAR_DATE ( 2006, 8, 6 ) ;
#13 = COORDINATED_UNIVERSAL_TIME_OFFSET ( 9, 0, .AHEAD. ) ;
#14 = APPROVAL_DATE_TIME ( #11, #9 ) ;
#15 = LOCAL_TIME ( 9, 6, 24.00000000000000000, #13 ) ;
#16 = CC_DESIGN_APPROVAL ( #9, ( #4 ) ) ;
#17 = PERSON_AND_ORGANIZATION ( #344, #343 ) ;
#18 = PRODUCT_DEFINITION_FORMATION_WITH_SPECIFIED_SOURCE ( 'ANY', '', #345, .NOT_KNOWN. ) ;
#19 = APPROVAL_ROLE ( '' ) ;
#20 = APPROVAL ( #7, 'UNSPECIFIED' ) ;
#21 = COORDINATED_UNIVERSAL_TIME_OFFSET ( 9, 0, .AHEAD. ) ;
#22 = APPROVAL_PERSON_ORGANIZATION ( #17, #20, #19 ) ;
#23 = LOCAL_TIME ( 9, 6, 24.00000000000000000, #21 ) ;
#24 = APPROVAL_DATE_TIME ( #27, #20 ) ;
#25 = CC_DESIGN_APPROVAL ( #20, ( #18 ) ) ;
#26 = CALENDAR_DATE ( 2006, 8, 6 ) ;
#27 = DATE_AND_TIME ( #26, #23 ) ;
#28 = COORDINATED_UNIVERSAL_TIME_OFFSET ( 9, 0, .AHEAD. ) ;
#29 = DATE_AND_TIME ( #30, #32 ) ;
#30 = CALENDAR_DATE ( 2006, 8, 6 ) ;
#31 = DATE_TIME_ROLE ( 'classification_date' ) ;
#32 = LOCAL_TIME ( 9, 6, 24.00000000000000000, #28 ) ;
#33 = CC_DESIGN_DATE_AND_TIME_ASSIGNMENT ( #29, #31, ( #363 ) ) ;
#34 = ORIENTED_EDGE ( 'NONE', *, *, #178, .F. ) ;
#35 = ORIENTED_EDGE ( 'NONE', *, *, #36, .T. ) ;
#36 = EDGE_CURVE ( 'NONE', #179, #60, #131, .T. ) ;
#37 = ORIENTED_EDGE ( 'NONE', *, *, #47, .T. ) ;
#38 = ORIENTED_EDGE ( 'NONE', *, *, #44, .F. ) ;
#39 = ORIENTED_EDGE ( 'NONE', *, *, #51, .F. ) ;
#40 = EDGE_LOOP ( 'NONE', ( #39, #35, #37, #38 ) ) ;
#41 = ADVANCED_FACE ( 'NONE', ( #126 ), #125, .T. ) ;
#42 = ORIENTED_EDGE ( 'NONE', *, *, #54, .T. ) ;
#43 = ORIENTED_EDGE ( 'NONE', *, *, #44, .T. ) ;
#44 = EDGE_CURVE ( 'NONE', #49, #53, #119, .T. ) ;
#45 = EDGE_LOOP ( 'NONE', ( #42, #43 ) ) ;
#46 = ADVANCED_FACE ( 'NONE', ( #115 ), #113, .T. ) ;
#47 = EDGE_CURVE ( 'NONE', #60, #53, #114, .T. ) ;
#48 = ORIENTED_EDGE ( 'NONE', *, *, #47, .F. ) ;
#49 = VERTEX_POINT ( 'NONE', #104 ) ;
#50 = ORIENTED_EDGE ( 'NONE', *, *, #54, .F. ) ;
#51 = EDGE_CURVE ( 'NONE', #179, #49, #103, .T. ) ;
#52 = ORIENTED_EDGE ( 'NONE', *, *, #51, .T. ) ;
#53 = VERTEX_POINT ( 'NONE', #98 ) ;
#54 = EDGE_CURVE ( 'NONE', #53, #49, #97, .T. ) ;
#55 = EDGE_LOOP ( 'NONE', ( #57, #52, #50, #48 ) ) ;
#56 = ADVANCED_FACE ( 'NONE', ( #92 ), #91, .T. ) ;
#57 = ORIENTED_EDGE ( 'NONE', *, *, #61, .T. ) ;
#58 = EDGE_CURVE ( 'NONE', #196, #60, #90, .T. ) ;
#59 = ORIENTED_EDGE ( 'NONE', *, *, #58, .F. ) ;
#60 = VERTEX_POINT ( 'NONE', #82 ) ;
#61 = EDGE_CURVE ( 'NONE', #60, #179, #81, .T. ) ;
#62 = CC_DESIGN_DATE_AND_TIME_ASSIGNMENT ( #64, #63, ( #4 ) ) ;
#63 = DATE_TIME_ROLE ( 'creation_date' ) ;
#64 = DATE_AND_TIME ( #65, #132 ) ;
#65 = CALENDAR_DATE ( 2006, 8, 6 ) ;
#66 = CC_DESIGN_PERSON_AND_ORGANIZATION_ASSIGNMENT ( #68, #67, ( #4 ) ) ;
#67 = PERSON_AND_ORGANIZATION_ROLE ( 'creator' ) ;
#68 = PERSON_AND_ORGANIZATION ( #344, #343 ) ;
#69 = FACE_OUTER_BOUND ( 'NONE', #142, .T. ) ;
#70 = CARTESIAN_POINT ( 'NONE',  ( 3.472495913082027500E-016, 12.23319923881233100, -1.885725198046294600 ) ) ;
#71 = DIRECTION ( 'NONE',  ( 0.0000000000000000000, 0.0000000000000000000, 1.000000000000000000 ) ) ;
#72 = DIRECTION ( 'NONE',  ( 0.0000000000000000000, 1.000000000000000000, 0.0000000000000000000 ) ) ;
#73 = CARTESIAN_POINT ( 'NONE',  ( 0.0000000000000000000, 11.73017929218209500, 0.0000000000000000000 ) ) ;
#74 = AXIS2_PLACEMENT_3D ( 'NONE', #73, #72, #71 ) ;
#75 = TOROIDAL_SURFACE ( 'NONE', #74, 2.749999999999997300, 1.000000000000000000 ) ;
#76 = FACE_OUTER_BOUND ( 'NONE', #136, .T. ) ;
#77 = DIRECTION ( 'NONE',  ( 0.0000000000000000000, 0.0000000000000000000, 1.000000000000000000 ) ) ;
#78 = DIRECTION ( 'NONE',  ( 0.0000000000000000000, 1.000000000000000000, 0.0000000000000000000 ) ) ;
#79 = CARTESIAN_POINT ( 'NONE',  ( 0.0000000000000000000, 15.49698005336976100, 0.0000000000000000000 ) ) ;
#80 = AXIS2_PLACEMENT_3D ( 'NONE', #79, #78, #77 ) ;
#81 = CIRCLE ( 'NONE', #80, 3.785290992907234900 ) ;
#82 = CARTESIAN_POINT ( 'NONE',  ( 0.0000000000000000000, 15.49698005336976100, 3.785290992907235400 ) ) ;
#83 = DIRECTION ( 'NONE',  ( 0.0000000000000000000, 0.8642748019537036500, 0.5030199466302368600 ) ) ;
#84 = VECTOR ( 'NONE', #83, 1000.000000000000000 ) ;
#85 = CARTESIAN_POINT ( 'NONE',  ( 0.0000000000000000000, 15.49698005336976100, 3.785290992907234900 ) ) ;
#86 = DIRECTION ( 'NONE',  ( 0.0000000000000000000, 0.0000000000000000000, 1.000000000000000000 ) ) ;
#87 = DIRECTION ( 'NONE',  ( 0.0000000000000000000, 1.000000000000000000, 0.0000000000000000000 ) ) ;
#88 = CARTESIAN_POINT ( 'NONE',  ( 0.0000000000000000000, 15.99999999999999600, 0.0000000000000000000 ) ) ;
#89 = AXIS2_PLACEMENT_3D ( 'NONE', #88, #87, #86 ) ;
#90 = LINE ( 'NONE', #85, #84 ) ;
#91 = TOROIDAL_SURFACE ( 'NONE', #89, 2.921016190953529700, 1.000000000000002000 ) ;
#92 = FACE_OUTER_BOUND ( 'NONE', #55, .T. ) ;
#93 = DIRECTION ( 'NONE',  ( 0.0000000000000000000, 0.0000000000000000000, 1.000000000000000000 ) ) ;
#94 = DIRECTION ( 'NONE',  ( 0.0000000000000000000, 1.000000000000000000, 0.0000000000000000000 ) ) ;
#95 = CARTESIAN_POINT ( 'NONE',  ( 0.0000000000000000000, 17.00000000000000000, 0.0000000000000000000 ) ) ;
#96 = AXIS2_PLACEMENT_3D ( 'NONE', #95, #94, #93 ) ;
#97 = CIRCLE ( 'NONE', #96, 2.921016190953529300 ) ;
#98 = CARTESIAN_POINT ( 'NONE',  ( 0.0000000000000000000, 17.00000000000000000, 2.921016190953529300 ) ) ;
#99 = DIRECTION ( 'NONE',  ( 1.224646799147353000E-016, 0.0000000000000000000, -1.000000000000000000 ) ) ;
#100 = DIRECTION ( 'NONE',  ( 1.000000000000000000, 0.0000000000000000000, 1.224646799147353200E-016 ) ) ;
#101 = CARTESIAN_POINT ( 'NONE',  ( 3.577213128508834400E-016, 15.99999999999999600, -2.921016190953529700 ) ) ;
#102 = AXIS2_PLACEMENT_3D ( 'NONE', #101, #100, #99 ) ;
#103 = CIRCLE ( 'NONE', #102, 1.000000000000002200 ) ;
#104 = CARTESIAN_POINT ( 'NONE',  ( 4.106428813406993100E-016, 17.00000000000000000, -2.921016190953529300 ) ) ;
#105 = DIRECTION ( 'NONE',  ( 0.0000000000000000000, 0.0000000000000000000, 1.000000000000000000 ) ) ;
#106 = DIRECTION ( 'NONE',  ( -1.000000000000000000, 0.0000000000000000000, 0.0000000000000000000 ) ) ;
#107 = CARTESIAN_POINT ( 'NONE',  ( 0.0000000000000000000, 15.99999999999999600, 2.921016190953529700 ) ) ;
#108 = AXIS2_PLACEMENT_3D ( 'NONE', #107, #106, #105 ) ;
#109 = DIRECTION ( 'NONE',  ( 0.0000000000000000000, 0.0000000000000000000, 1.000000000000000000 ) ) ;
#110 = DIRECTION ( 'NONE',  ( 0.0000000000000000000, 1.000000000000000000, 0.0000000000000000000 ) ) ;
#111 = CARTESIAN_POINT ( 'NONE',  ( 1.900745847083735000E-015, 17.00000000000000000, 0.0000000000000000000 ) ) ;
#112 = AXIS2_PLACEMENT_3D ( 'NONE', #111, #110, #109 ) ;
#113 = PLANE ( 'NONE',  #112 ) ;
#114 = CIRCLE ( 'NONE', #108, 1.000000000000002200 ) ;
#115 = FACE_OUTER_BOUND ( 'NONE', #45, .T. ) ;
#116 = DIRECTION ( 'NONE',  ( 0.0000000000000000000, 0.0000000000000000000, 1.000000000000000000 ) ) ;
#117 = DIRECTION ( 'NONE',  ( 0.0000000000000000000, 1.000000000000000000, 0.0000000000000000000 ) ) ;
#118 = AXIS2_PLACEMENT_3D ( 'NONE', #124, #117, #116 ) ;
#119 = CIRCLE ( 'NONE', #118, 2.921016190953529300 ) ;
#120 = DIRECTION ( 'NONE',  ( 0.0000000000000000000, 0.0000000000000000000, 1.000000000000000000 ) ) ;
#121 = DIRECTION ( 'NONE',  ( 0.0000000000000000000, 1.000000000000000000, 0.0000000000000000000 ) ) ;
#122 = CARTESIAN_POINT ( 'NONE',  ( 0.0000000000000000000, 15.99999999999999600, 0.0000000000000000000 ) ) ;
#123 = AXIS2_PLACEMENT_3D ( 'NONE', #122, #121, #120 ) ;
#124 = CARTESIAN_POINT ( 'NONE',  ( 0.0000000000000000000, 17.00000000000000000, 0.0000000000000000000 ) ) ;
#125 = TOROIDAL_SURFACE ( 'NONE', #123, 2.921016190953529700, 1.000000000000002000 ) ;
#126 = FACE_OUTER_BOUND ( 'NONE', #40, .T. ) ;
#127 = DIRECTION ( 'NONE',  ( 0.0000000000000000000, 0.0000000000000000000, 1.000000000000000000 ) ) ;
#128 = DIRECTION ( 'NONE',  ( 0.0000000000000000000, 1.000000000000000000, 0.0000000000000000000 ) ) ;
#129 = CARTESIAN_POINT ( 'NONE',  ( 0.0000000000000000000, 15.49698005336976100, 0.0000000000000000000 ) ) ;
#130 = AXIS2_PLACEMENT_3D ( 'NONE', #129, #128, #127 ) ;
#131 = CIRCLE ( 'NONE', #130, 3.785290992907234900 ) ;
#132 = LOCAL_TIME ( 9, 6, 24.00000000000000000, #133 ) ;
#133 = COORDINATED_UNIVERSAL_TIME_OFFSET ( 9, 0, .AHEAD. ) ;
#134 = MANIFOLD_SOLID_BREP ( 'NONE', #165 ) ;
#135 = ADVANCED_FACE ( 'NONE', ( #76 ), #75, .F. ) ;
#136 = EDGE_LOOP ( 'NONE', ( #137, #197, #200, #203 ) ) ;
#137 = ORIENTED_EDGE ( 'NONE', *, *, #195, .F. ) ;
#138 = VERTEX_POINT ( 'NONE', #70 ) ;
#139 = ORIENTED_EDGE ( 'NONE', *, *, #58, .T. ) ;
#140 = ORIENTED_EDGE ( 'NONE', *, *, #36, .F. ) ;
#141 = ADVANCED_FACE ( 'NONE', ( #69 ), #355, .T. ) ;
#142 = EDGE_LOOP ( 'NONE', ( #143, #144, #146, #147 ) ) ;
#143 = ORIENTED_EDGE ( 'NONE', *, *, #194, .F. ) ;
#144 = ORIENTED_EDGE ( 'NONE', *, *, #145, .T. ) ;
#145 = EDGE_CURVE ( 'NONE', #184, #187, #316, .T. ) ;
#146 = ORIENTED_EDGE ( 'NONE', *, *, #172, .T. ) ;
#147 = ORIENTED_EDGE ( 'NONE', *, *, #201, .T. ) ;
#148 = ADVANCED_FACE ( 'NONE', ( #317 ), #322, .T. ) ;
#149 = EDGE_LOOP ( 'NONE', ( #150, #151, #153, #154 ) ) ;
#150 = ORIENTED_EDGE ( 'NONE', *, *, #183, .F. ) ;
#151 = ORIENTED_EDGE ( 'NONE', *, *, #152, .T. ) ;
#152 = EDGE_CURVE ( 'NONE', #181, #209, #313, .T. ) ;
#153 = ORIENTED_EDGE ( 'NONE', *, *, #189, .T. ) ;
#154 = ORIENTED_EDGE ( 'NONE', *, *, #145, .F. ) ;
#155 = ADVANCED_FACE ( 'NONE', ( #314 ), #335, .T. ) ;
#156 = EDGE_LOOP ( 'NONE', ( #157, #158 ) ) ;
#157 = ORIENTED_EDGE ( 'NONE', *, *, #208, .F. ) ;
#158 = ORIENTED_EDGE ( 'NONE', *, *, #152, .F. ) ;
#159 = ADVANCED_FACE ( 'NONE', ( #330 ), #329, .F. ) ;
#160 = EDGE_LOOP ( 'NONE', ( #161, #162, #163, #164 ) ) ;
#161 = ORIENTED_EDGE ( 'NONE', *, *, #198, .F. ) ;
#162 = ORIENTED_EDGE ( 'NONE', *, *, #176, .F. ) ;
#163 = ORIENTED_EDGE ( 'NONE', *, *, #204, .T. ) ;
#164 = ORIENTED_EDGE ( 'NONE', *, *, #170, .F. ) ;
#165 = CLOSED_SHELL ( 'NONE', ( #167, #135, #41, #173, #141, #159, #46, #56, #148, #190, #155, #205 ) ) ;
#166 = ORIENTED_EDGE ( 'NONE', *, *, #195, .T. ) ;
#167 = ADVANCED_FACE ( 'NONE', ( #328 ), #323, .T. ) ;
#168 = EDGE_LOOP ( 'NONE', ( #34, #166, #139, #140 ) ) ;
#169 = ORIENTED_EDGE ( 'NONE', *, *, #170, .T. ) ;
#170 = EDGE_CURVE ( 'NONE', #199, #202, #306, .T. ) ;
#171 = ORIENTED_EDGE ( 'NONE', *, *, #172, .F. ) ;
#172 = EDGE_CURVE ( 'NONE', #187, #202, #302, .T. ) ;
#173 = ADVANCED_FACE ( 'NONE', ( #298 ), #297, .T. ) ;
#174 = EDGE_LOOP ( 'NONE', ( #175, #177, #180, #59 ) ) ;
#175 = ORIENTED_EDGE ( 'NONE', *, *, #176, .T. ) ;
#176 = EDGE_CURVE ( 'NONE', #196, #138, #291, .T. ) ;
#177 = ORIENTED_EDGE ( 'NONE', *, *, #178, .T. ) ;
#178 = EDGE_CURVE ( 'NONE', #138, #179, #287, .T. ) ;
#179 = VERTEX_POINT ( 'NONE', #283 ) ;
#180 = ORIENTED_EDGE ( 'NONE', *, *, #61, .F. ) ;
#181 = VERTEX_POINT ( 'NONE', #282 ) ;
#182 = ORIENTED_EDGE ( 'NONE', *, *, #183, .T. ) ;
#183 = EDGE_CURVE ( 'NONE', #181, #184, #281, .T. ) ;
#184 = VERTEX_POINT ( 'NONE', #276 ) ;
#185 = ORIENTED_EDGE ( 'NONE', *, *, #186, .F. ) ;
#186 = EDGE_CURVE ( 'NONE', #187, #184, #275, .T. ) ;
#187 = VERTEX_POINT ( 'NONE', #270 ) ;
#188 = ORIENTED_EDGE ( 'NONE', *, *, #189, .F. ) ;
#189 = EDGE_CURVE ( 'NONE', #209, #187, #268, .T. ) ;
#190 = ADVANCED_FACE ( 'NONE', ( #269 ), #261, .T. ) ;
#191 = EDGE_LOOP ( 'NONE', ( #192, #193, #169, #171 ) ) ;
#192 = ORIENTED_EDGE ( 'NONE', *, *, #186, .T. ) ;
#193 = ORIENTED_EDGE ( 'NONE', *, *, #194, .T. ) ;
#194 = EDGE_CURVE ( 'NONE', #184, #199, #262, .T. ) ;
#195 = EDGE_CURVE ( 'NONE', #138, #196, #254, .T. ) ;
#196 = VERTEX_POINT ( 'NONE', #249 ) ;
#197 = ORIENTED_EDGE ( 'NONE', *, *, #198, .T. ) ;
#198 = EDGE_CURVE ( 'NONE', #138, #199, #248, .T. ) ;
#199 = VERTEX_POINT ( 'NONE', #243 ) ;
#200 = ORIENTED_EDGE ( 'NONE', *, *, #201, .F. ) ;
#201 = EDGE_CURVE ( 'NONE', #202, #199, #242, .T. ) ;
#202 = VERTEX_POINT ( 'NONE', #237 ) ;
#203 = ORIENTED_EDGE ( 'NONE', *, *, #204, .F. ) ;
#204 = EDGE_CURVE ( 'NONE', #196, #202, #235, .T. ) ;
#205 = ADVANCED_FACE ( 'NONE', ( #236 ), #229, .T. ) ;
#206 = EDGE_LOOP ( 'NONE', ( #207, #182, #185, #188 ) ) ;
#207 = ORIENTED_EDGE ( 'NONE', *, *, #208, .T. ) ;
#208 = EDGE_CURVE ( 'NONE', #209, #181, #225, .T. ) ;
#209 = VERTEX_POINT ( 'NONE', #220 ) ;
#210 = DIRECTION ( 'NONE',  ( 1.000000000000000000, 0.0000000000000000000, 0.0000000000000000000 ) ) ;
#211 = CARTESIAN_POINT ( 'NONE',  ( 0.0000000000000000000, 0.0000000000000000000, 0.0000000000000000000 ) ) ;
#212 = AXIS2_PLACEMENT_3D ( 'NONE', #211, #219, #210 ) ;
#213 = ADVANCED_BREP_SHAPE_REPRESENTATION ( 'C-30-MR-4', ( #134, #212 ), #214 ) ;
#214 =( GEOMETRIC_REPRESENTATION_CONTEXT ( 3 ) GLOBAL_UNCERTAINTY_ASSIGNED_CONTEXT ( ( #215 ) ) GLOBAL_UNIT_ASSIGNED_CONTEXT ( ( #218, #217, #216 ) ) REPRESENTATION_CONTEXT ( 'NONE', 'WORKASPACE' ) );
#215 = UNCERTAINTY_MEASURE_WITH_UNIT (LENGTH_MEASURE( 1.000000000000000100E-005 ), #218, 'distance_accuracy_value', 'NONE');
#216 =( NAMED_UNIT ( * ) SI_UNIT ( $, .STERADIAN. ) SOLID_ANGLE_UNIT ( ) );
#217 =( NAMED_UNIT ( * ) PLANE_ANGLE_UNIT ( ) SI_UNIT ( $, .RADIAN. ) );
#218 =( LENGTH_UNIT ( ) NAMED_UNIT ( * ) SI_UNIT ( .MILLI., .METRE. ) );
#219 = DIRECTION ( 'NONE',  ( 0.0000000000000000000, 0.0000000000000000000, 1.000000000000000000 ) ) ;
#220 = CARTESIAN_POINT ( 'NONE',  ( 0.0000000000000000000, 0.0000000000000000000, 0.7403667693977197300 ) ) ;
#221 = DIRECTION ( 'NONE',  ( 0.0000000000000000000, 0.0000000000000000000, 1.000000000000000000 ) ) ;
#222 = DIRECTION ( 'NONE',  ( 0.0000000000000000000, 1.000000000000000000, 0.0000000000000000000 ) ) ;
#223 = CARTESIAN_POINT ( 'NONE',  ( 0.0000000000000000000, 0.0000000000000000000, 0.0000000000000000000 ) ) ;
#224 = AXIS2_PLACEMENT_3D ( 'NONE', #223, #222, #221 ) ;
#225 = CIRCLE ( 'NONE', #224, 0.7403667693977197300 ) ;
#226 = DIRECTION ( 'NONE',  ( 0.0000000000000000000, 0.0000000000000000000, 1.000000000000000000 ) ) ;
#227 = DIRECTION ( 'NONE',  ( 0.0000000000000000000, 1.000000000000000000, 0.0000000000000000000 ) ) ;
#228 = AXIS2_PLACEMENT_3D ( 'NONE', #230, #227, #226 ) ;
#229 = TOROIDAL_SURFACE ( 'NONE', #228, -1.850000000000003600, 3.600000000000000100 ) ;
#230 = CARTESIAN_POINT ( 'NONE',  ( 0.0000000000000000000, 2.500000000000002200, 0.0000000000000000000 ) ) ;
#231 = DIRECTION ( 'NONE',  ( 0.0000000000000000000, 0.0000000000000000000, 1.000000000000000000 ) ) ;
#232 = DIRECTION ( 'NONE',  ( -1.000000000000000000, 0.0000000000000000000, 0.0000000000000000000 ) ) ;
#233 = CARTESIAN_POINT ( 'NONE',  ( 0.0000000000000000000, 11.73017929218209500, 2.749999999999997300 ) ) ;
#234 = AXIS2_PLACEMENT_3D ( 'NONE', #233, #232, #231 ) ;
#235 = CIRCLE ( 'NONE', #234, 1.000000000000000000 ) ;
#236 = FACE_OUTER_BOUND ( 'NONE', #206, .T. ) ;
#237 = CARTESIAN_POINT ( 'NONE',  ( 0.0000000000000000000, 11.73017929218209500, 1.749999999999996900 ) ) ;
#238 = DIRECTION ( 'NONE',  ( 0.0000000000000000000, 0.0000000000000000000, 1.000000000000000000 ) ) ;
#239 = DIRECTION ( 'NONE',  ( 0.0000000000000000000, -1.000000000000000000, 0.0000000000000000000 ) ) ;
#240 = CARTESIAN_POINT ( 'NONE',  ( 0.0000000000000000000, 11.73017929218209500, 0.0000000000000000000 ) ) ;
#241 = AXIS2_PLACEMENT_3D ( 'NONE', #240, #239, #238 ) ;
#242 = CIRCLE ( 'NONE', #241, 1.749999999999996900 ) ;
#243 = CARTESIAN_POINT ( 'NONE',  ( 2.143131898507864400E-016, 11.73017929218209500, -1.749999999999996900 ) ) ;
#244 = DIRECTION ( 'NONE',  ( 1.224646799147353500E-016, 0.0000000000000000000, -1.000000000000000000 ) ) ;
#245 = DIRECTION ( 'NONE',  ( 1.000000000000000000, 0.0000000000000000000, 1.224646799147353200E-016 ) ) ;
#246 = CARTESIAN_POINT ( 'NONE',  ( 3.367778697655217600E-016, 11.73017929218209500, -2.749999999999997300 ) ) ;
#247 = AXIS2_PLACEMENT_3D ( 'NONE', #246, #245, #244 ) ;
#248 = CIRCLE ( 'NONE', #247, 1.000000000000000000 ) ;
#249 = CARTESIAN_POINT ( 'NONE',  ( 0.0000000000000000000, 12.23319923881233100, 1.885725198046294600 ) ) ;
#250 = DIRECTION ( 'NONE',  ( 0.0000000000000000000, 0.0000000000000000000, 1.000000000000000000 ) ) ;
#251 = DIRECTION ( 'NONE',  ( 0.0000000000000000000, 1.000000000000000000, 0.0000000000000000000 ) ) ;
#252 = CARTESIAN_POINT ( 'NONE',  ( 0.0000000000000000000, 12.23319923881233100, 0.0000000000000000000 ) ) ;
#253 = AXIS2_PLACEMENT_3D ( 'NONE', #252, #251, #250 ) ;
#254 = CIRCLE ( 'NONE', #253, 1.885725198046294600 ) ;
#255 = DIRECTION ( 'NONE',  ( 0.0000000000000000000, 1.000000000000000000, 0.0000000000000000000 ) ) ;
#256 = VECTOR ( 'NONE', #255, 1000.000000000000000 ) ;
#257 = CARTESIAN_POINT ( 'NONE',  ( 2.143131898507864400E-016, 32.66160787530762400, -1.749999999999996900 ) ) ;
#258 = DIRECTION ( 'NONE',  ( 0.0000000000000000000, 0.0000000000000000000, 1.000000000000000000 ) ) ;
#259 = DIRECTION ( 'NONE',  ( 0.0000000000000000000, 1.000000000000000000, 0.0000000000000000000 ) ) ;
#260 = AXIS2_PLACEMENT_3D ( 'NONE', #263, #259, #258 ) ;
#261 = CYLINDRICAL_SURFACE ( 'NONE', #260, 1.749999999999996900 ) ;
#262 = LINE ( 'NONE', #257, #256 ) ;
#263 = CARTESIAN_POINT ( 'NONE',  ( 0.0000000000000000000, 32.66160787530762400, 0.0000000000000000000 ) ) ;
#264 = DIRECTION ( 'NONE',  ( 0.0000000000000000000, 0.0000000000000000000, 1.000000000000000000 ) ) ;
#265 = DIRECTION ( 'NONE',  ( -1.000000000000000000, 0.0000000000000000000, 0.0000000000000000000 ) ) ;
#266 = CARTESIAN_POINT ( 'NONE',  ( 0.0000000000000000000, 2.500000000000002200, -1.850000000000003600 ) ) ;
#267 = AXIS2_PLACEMENT_3D ( 'NONE', #266, #265, #264 ) ;
#268 = CIRCLE ( 'NONE', #267, 3.600000000000000100 ) ;
#269 = FACE_OUTER_BOUND ( 'NONE', #191, .T. ) ;
#270 = CARTESIAN_POINT ( 'NONE',  ( 0.0000000000000000000, 2.499999999999998700, 1.749999999999996400 ) ) ;
#271 = DIRECTION ( 'NONE',  ( 0.0000000000000000000, 0.0000000000000000000, 1.000000000000000000 ) ) ;
#272 = DIRECTION ( 'NONE',  ( 0.0000000000000000000, 1.000000000000000000, 0.0000000000000000000 ) ) ;
#273 = CARTESIAN_POINT ( 'NONE',  ( 0.0000000000000000000, 2.499999999999998700, 0.0000000000000000000 ) ) ;
#274 = AXIS2_PLACEMENT_3D ( 'NONE', #273, #272, #271 ) ;
#275 = CIRCLE ( 'NONE', #274, 1.749999999999996400 ) ;
#276 = CARTESIAN_POINT ( 'NONE',  ( 2.143131898507863900E-016, 2.499999999999998700, -1.749999999999996400 ) ) ;
#277 = DIRECTION ( 'NONE',  ( 1.224646799147353000E-016, 0.0000000000000000000, -1.000000000000000000 ) ) ;
#278 = DIRECTION ( 'NONE',  ( 1.000000000000000000, 0.0000000000000000000, 1.224646799147353200E-016 ) ) ;
#279 = CARTESIAN_POINT ( 'NONE',  ( -2.265596578422607500E-016, 2.500000000000002200, 1.850000000000003600 ) ) ;
#280 = AXIS2_PLACEMENT_3D ( 'NONE', #279, #278, #277 ) ;
#281 = CIRCLE ( 'NONE', #280, 3.600000000000000100 ) ;
#282 = CARTESIAN_POINT ( 'NONE',  ( 1.524909846422924400E-016, 0.0000000000000000000, -0.7403667693977198400 ) ) ;
#283 = CARTESIAN_POINT ( 'NONE',  ( 4.635644498305152800E-016, 15.49698005336976100, -3.785290992907235400 ) ) ;
#284 = DIRECTION ( 'NONE',  ( 6.160217675479920100E-017, 0.8642748019537036500, -0.5030199466302368600 ) ) ;
#285 = VECTOR ( 'NONE', #284, 1000.000000000000000 ) ;
#286 = CARTESIAN_POINT ( 'NONE',  ( 4.635644498305151800E-016, 15.49698005336976100, -3.785290992907234900 ) ) ;
#287 = LINE ( 'NONE', #286, #285 ) ;
#288 = DIRECTION ( 'NONE',  ( 0.0000000000000000000, 0.0000000000000000000, 1.000000000000000000 ) ) ;
#289 = DIRECTION ( 'NONE',  ( 0.0000000000000000000, 1.000000000000000000, 0.0000000000000000000 ) ) ;
#290 = AXIS2_PLACEMENT_3D ( 'NONE', #296, #289, #288 ) ;
#291 = CIRCLE ( 'NONE', #290, 1.885725198046294600 ) ;
#292 = DIRECTION ( 'NONE',  ( 0.0000000000000000000, 0.0000000000000000000, 1.000000000000000000 ) ) ;
#293 = DIRECTION ( 'NONE',  ( 0.0000000000000000000, 1.000000000000000000, 0.0000000000000000000 ) ) ;
#294 = CARTESIAN_POINT ( 'NONE',  ( 0.0000000000000000000, 15.49698005336976100, 0.0000000000000000000 ) ) ;
#295 = AXIS2_PLACEMENT_3D ( 'NONE', #294, #293, #292 ) ;
#296 = CARTESIAN_POINT ( 'NONE',  ( 0.0000000000000000000, 12.23319923881233100, 0.0000000000000000000 ) ) ;
#297 = CONICAL_SURFACE ( 'NONE', #295, 3.785290992907234900, 0.5270894341022895900 ) ;
#298 = FACE_OUTER_BOUND ( 'NONE', #174, .T. ) ;
#299 = DIRECTION ( 'NONE',  ( 0.0000000000000000000, 1.000000000000000000, 0.0000000000000000000 ) ) ;
#300 = VECTOR ( 'NONE', #299, 1000.000000000000000 ) ;
#301 = CARTESIAN_POINT ( 'NONE',  ( 0.0000000000000000000, 32.66160787530762400, 1.749999999999996900 ) ) ;
#302 = LINE ( 'NONE', #301, #300 ) ;
#303 = DIRECTION ( 'NONE',  ( 0.0000000000000000000, 0.0000000000000000000, 1.000000000000000000 ) ) ;
#304 = DIRECTION ( 'NONE',  ( 0.0000000000000000000, -1.000000000000000000, 0.0000000000000000000 ) ) ;
#305 = AXIS2_PLACEMENT_3D ( 'NONE', #311, #304, #303 ) ;
#306 = CIRCLE ( 'NONE', #305, 1.749999999999996900 ) ;
#307 = DIRECTION ( 'NONE',  ( 0.0000000000000000000, 0.0000000000000000000, 1.000000000000000000 ) ) ;
#308 = DIRECTION ( 'NONE',  ( 0.0000000000000000000, 1.000000000000000000, 0.0000000000000000000 ) ) ;
#309 = CARTESIAN_POINT ( 'NONE',  ( 0.0000000000000000000, 15.49698005336976100, 0.0000000000000000000 ) ) ;
#310 = AXIS2_PLACEMENT_3D ( 'NONE', #309, #308, #307 ) ;
#311 = CARTESIAN_POINT ( 'NONE',  ( 0.0000000000000000000, 11.73017929218209500, 0.0000000000000000000 ) ) ;
#312 = AXIS2_PLACEMENT_3D ( 'NONE', #338, #337, #336 ) ;
#313 = CIRCLE ( 'NONE', #312, 0.7403667693977197300 ) ;
#314 = FACE_OUTER_BOUND ( 'NONE', #156, .T. ) ;
#315 = AXIS2_PLACEMENT_3D ( 'NONE', #320, #319, #318 ) ;
#316 = CIRCLE ( 'NONE', #315, 1.749999999999996400 ) ;
#317 = FACE_OUTER_BOUND ( 'NONE', #149, .T. ) ;
#318 = DIRECTION ( 'NONE',  ( 0.0000000000000000000, 0.0000000000000000000, 1.000000000000000000 ) ) ;
#319 = DIRECTION ( 'NONE',  ( 0.0000000000000000000, 1.000000000000000000, 0.0000000000000000000 ) ) ;
#320 = CARTESIAN_POINT ( 'NONE',  ( 0.0000000000000000000, 2.499999999999998700, 0.0000000000000000000 ) ) ;
#321 = AXIS2_PLACEMENT_3D ( 'NONE', #353, #352, #351 ) ;
#322 = TOROIDAL_SURFACE ( 'NONE', #321, -1.850000000000003600, 3.600000000000000100 ) ;
#323 = CONICAL_SURFACE ( 'NONE', #310, 3.785290992907234900, 0.5270894341022895900 ) ;
#324 = DIRECTION ( 'NONE',  ( 0.0000000000000000000, 0.0000000000000000000, 1.000000000000000000 ) ) ;
#325 = DIRECTION ( 'NONE',  ( 0.0000000000000000000, 1.000000000000000000, 0.0000000000000000000 ) ) ;
#326 = CARTESIAN_POINT ( 'NONE',  ( 0.0000000000000000000, 11.73017929218209500, 0.0000000000000000000 ) ) ;
#327 = AXIS2_PLACEMENT_3D ( 'NONE', #326, #325, #324 ) ;
#328 = FACE_OUTER_BOUND ( 'NONE', #168, .T. ) ;
#329 = TOROIDAL_SURFACE ( 'NONE', #327, 2.749999999999997300, 1.000000000000000000 ) ;
#330 = FACE_OUTER_BOUND ( 'NONE', #160, .T. ) ;
#331 = DIRECTION ( 'NONE',  ( 0.0000000000000000000, 0.0000000000000000000, -1.000000000000000000 ) ) ;
#332 = DIRECTION ( 'NONE',  ( 0.0000000000000000000, -1.000000000000000000, 0.0000000000000000000 ) ) ;
#333 = CARTESIAN_POINT ( 'NONE',  ( -0.7403667693977197300, 2.168404344971008900E-016, 0.0000000000000000000 ) ) ;
#334 = AXIS2_PLACEMENT_3D ( 'NONE', #333, #332, #331 ) ;
#335 = PLANE ( 'NONE',  #334 ) ;
#336 = DIRECTION ( 'NONE',  ( 0.0000000000000000000, 0.0000000000000000000, 1.000000000000000000 ) ) ;
#337 = DIRECTION ( 'NONE',  ( 0.0000000000000000000, 1.000000000000000000, 0.0000000000000000000 ) ) ;
#338 = CARTESIAN_POINT ( 'NONE',  ( 0.0000000000000000000, 0.0000000000000000000, 0.0000000000000000000 ) ) ;
#339 = DIRECTION ( 'NONE',  ( 0.0000000000000000000, 1.000000000000000000, 0.0000000000000000000 ) ) ;
#340 = CC_DESIGN_PERSON_AND_ORGANIZATION_ASSIGNMENT ( #342, #341, ( #345 ) ) ;
#341 = PERSON_AND_ORGANIZATION_ROLE ( 'design_owner' ) ;
#342 = PERSON_AND_ORGANIZATION ( #344, #343 ) ;
#343 = ORGANIZATION ( 'UNSPECIFIED', 'UNSPECIFIED', '' ) ;
#344 = PERSON ( 'UNSPECIFIED', 'UNSPECIFIED', 'UNSPECIFIED', ('UNSPECIFIED'), ('UNSPECIFIED'), ('UNSPECIFIED') ) ;
#345 = PRODUCT ( 'C-30-MR-4', 'C-30-MR-4', '', ( #346 ) ) ;
#346 = MECHANICAL_CONTEXT ( 'NONE', #348, 'mechanical' ) ;
#347 = APPLICATION_PROTOCOL_DEFINITION ( 'international standard', 'config_control_design', 1994, #348 ) ;
#348 = APPLICATION_CONTEXT ( 'configuration controlled 3d designs of mechanical parts and assemblies' ) ;
#349 = AXIS2_PLACEMENT_3D ( 'NONE', #350, #339, #354 ) ;
#350 = CARTESIAN_POINT ( 'NONE',  ( 0.0000000000000000000, 32.66160787530762400, 0.0000000000000000000 ) ) ;
#351 = DIRECTION ( 'NONE',  ( 0.0000000000000000000, 0.0000000000000000000, 1.000000000000000000 ) ) ;
#352 = DIRECTION ( 'NONE',  ( 0.0000000000000000000, 1.000000000000000000, 0.0000000000000000000 ) ) ;
#353 = CARTESIAN_POINT ( 'NONE',  ( 0.0000000000000000000, 2.500000000000002200, 0.0000000000000000000 ) ) ;
#354 = DIRECTION ( 'NONE',  ( 0.0000000000000000000, 0.0000000000000000000, 1.000000000000000000 ) ) ;
#355 = CYLINDRICAL_SURFACE ( 'NONE', #349, 1.749999999999996900 ) ;
#356 = PERSON_AND_ORGANIZATION ( #344, #343 ) ;
#357 = CC_DESIGN_PERSON_AND_ORGANIZATION_ASSIGNMENT ( #356, #366, ( #18 ) ) ;
#358 = CC_DESIGN_PERSON_AND_ORGANIZATION_ASSIGNMENT ( #360, #359, ( #363 ) ) ;
#359 = PERSON_AND_ORGANIZATION_ROLE ( 'classification_officer' ) ;
#360 = PERSON_AND_ORGANIZATION ( #344, #343 ) ;
#361 = PERSON_AND_ORGANIZATION_ROLE ( 'design_supplier' ) ;
#362 = PERSON_AND_ORGANIZATION ( #344, #343 ) ;
#363 = SECURITY_CLASSIFICATION ( '', '', #364 ) ;
#364 = SECURITY_CLASSIFICATION_LEVEL ( 'unclassified' ) ;
#365 = CC_DESIGN_PERSON_AND_ORGANIZATION_ASSIGNMENT ( #362, #361, ( #18 ) ) ;
#366 = PERSON_AND_ORGANIZATION_ROLE ( 'creator' ) ;
#367 = APPROVAL_STATUS ( 'not_yet_approved' ) ;
#368 = COORDINATED_UNIVERSAL_TIME_OFFSET ( 9, 0, .AHEAD. ) ;
#369 = APPROVAL_PERSON_ORGANIZATION ( #376, #371, #370 ) ;
#370 = APPROVAL_ROLE ( '' ) ;
#371 = APPROVAL ( #367, 'UNSPECIFIED' ) ;
#372 = APPROVAL_DATE_TIME ( #373, #371 ) ;
#373 = DATE_AND_TIME ( #374, #375 ) ;
#374 = CALENDAR_DATE ( 2006, 8, 6 ) ;
#375 = LOCAL_TIME ( 9, 6, 24.00000000000000000, #368 ) ;
#376 = PERSON_AND_ORGANIZATION ( #344, #343 ) ;
#377 = PRODUCT_RELATED_PRODUCT_CATEGORY ( 'detail', '', ( #345 ) ) ;
#378 = CC_DESIGN_SECURITY_CLASSIFICATION ( #363, ( #18 ) ) ;
#379 = CC_DESIGN_APPROVAL ( #371, ( #363 ) ) ;
#380 = SHAPE_DEFINITION_REPRESENTATION ( #381, #213 ) ;
#381 = PRODUCT_DEFINITION_SHAPE ( 'NONE', 'NONE',  #4 ) ;
ENDSEC;
END-ISO-10303-21;
