ISO-10303-21;
HEADER;
FILE_DESCRIPTION (( 'STEP AP203' ),
    '1' );
FILE_NAME ('C-30-MR-3.STEP',
    '2006-06-08T00:05:54',
    ( ' ' ),
    ( ' ' ),
    'SwSTEP 2.0',
    'SolidWorks 2005204',
    '' );
FILE_SCHEMA (( 'CONFIG_CONTROL_DESIGN' ));
ENDSEC;

DATA;
#1 = ORIENTED_EDGE ( 'NONE', *, *, #156, .T. ) ;
#2 = ORIENTED_EDGE ( 'NONE', *, *, #134, .T. ) ;
#3 = CLOSED_SHELL ( 'NONE', ( #135, #150, #142, #160, #116, #170, #98, #105, #128, #162, #191, #169 ) ) ;
#4 = DIRECTION ( 'NONE',  ( 0.0000000000000000000, 0.0000000000000000000, 1.000000000000000000 ) ) ;
#5 =( GEOMETRIC_REPRESENTATION_CONTEXT ( 3 ) GLOBAL_UNCERTAINTY_ASSIGNED_CONTEXT ( ( #19 ) ) GLOBAL_UNIT_ASSIGNED_CONTEXT ( ( #21, #18, #20 ) ) REPRESENTATION_CONTEXT ( 'NONE', 'WORKASPACE' ) );
#6 = ORIENTED_EDGE ( 'NONE', *, *, #120, .F. ) ;
#7 = CALENDAR_DATE ( 2006, 8, 6 ) ;
#8 = APPROVAL_ROLE ( '' ) ;
#9 = COORDINATED_UNIVERSAL_TIME_OFFSET ( 9, 0, .AHEAD. ) ;
#10 = APPROVAL_PERSON_ORGANIZATION ( #70, #15, #8 ) ;
#11 = DATE_AND_TIME ( #7, #12 ) ;
#12 = LOCAL_TIME ( 9, 5, 54.00000000000000000, #9 ) ;
#13 = ADVANCED_BREP_SHAPE_REPRESENTATION ( 'C-30-MR-3', ( #183, #35 ), #5 ) ;
#14 = APPROVAL_DATE_TIME ( #11, #15 ) ;
#15 = APPROVAL ( #69, 'UNSPECIFIED' ) ;
#16 = ORIENTED_EDGE ( 'NONE', *, *, #113, .F. ) ;
#17 = ORIENTED_EDGE ( 'NONE', *, *, #182, .T. ) ;
#18 =( NAMED_UNIT ( * ) PLANE_ANGLE_UNIT ( ) SI_UNIT ( $, .RADIAN. ) );
#19 = UNCERTAINTY_MEASURE_WITH_UNIT (LENGTH_MEASURE( 1.000000000000000100E-005 ), #21, 'distance_accuracy_value', 'NONE');
#20 =( NAMED_UNIT ( * ) SI_UNIT ( $, .STERADIAN. ) SOLID_ANGLE_UNIT ( ) );
#21 =( LENGTH_UNIT ( ) NAMED_UNIT ( * ) SI_UNIT ( .MILLI., .METRE. ) );
#22 = CC_DESIGN_APPROVAL ( #15, ( #61 ) ) ;
#23 = CC_DESIGN_PERSON_AND_ORGANIZATION_ASSIGNMENT ( #26, #24, ( #55 ) ) ;
#24 = PERSON_AND_ORGANIZATION_ROLE ( 'creator' ) ;
#25 = CARTESIAN_POINT ( 'NONE',  ( 0.0000000000000000000, 0.0000000000000000000, 0.0000000000000000000 ) ) ;
#26 = PERSON_AND_ORGANIZATION ( #37, #39 ) ;
#27 = DIRECTION ( 'NONE',  ( 1.000000000000000000, 0.0000000000000000000, 0.0000000000000000000 ) ) ;
#28 = COORDINATED_UNIVERSAL_TIME_OFFSET ( 9, 0, .AHEAD. ) ;
#29 = DIRECTION ( 'NONE',  ( 0.0000000000000000000, 0.0000000000000000000, 1.000000000000000000 ) ) ;
#30 = CC_DESIGN_DATE_AND_TIME_ASSIGNMENT ( #32, #31, ( #55 ) ) ;
#31 = DATE_TIME_ROLE ( 'creation_date' ) ;
#32 = DATE_AND_TIME ( #33, #34 ) ;
#33 = CALENDAR_DATE ( 2006, 8, 6 ) ;
#34 = LOCAL_TIME ( 9, 5, 54.00000000000000000, #28 ) ;
#35 = AXIS2_PLACEMENT_3D ( 'NONE', #25, #29, #27 ) ;
#36 = PERSON_AND_ORGANIZATION ( #37, #39 ) ;
#37 = PERSON ( 'UNSPECIFIED', 'UNSPECIFIED', 'UNSPECIFIED', ('UNSPECIFIED'), ('UNSPECIFIED'), ('UNSPECIFIED') ) ;
#38 = CC_DESIGN_PERSON_AND_ORGANIZATION_ASSIGNMENT ( #36, #59, ( #40 ) ) ;
#39 = ORGANIZATION ( 'UNSPECIFIED', 'UNSPECIFIED', '' ) ;
#40 = PRODUCT ( 'C-30-MR-3', 'C-30-MR-3', '', ( #41 ) ) ;
#41 = MECHANICAL_CONTEXT ( 'NONE', #43, 'mechanical' ) ;
#42 = APPLICATION_PROTOCOL_DEFINITION ( 'international standard', 'config_control_design', 1994, #43 ) ;
#43 = APPLICATION_CONTEXT ( 'configuration controlled 3d designs of mechanical parts and assemblies' ) ;
#44 = CC_DESIGN_APPROVAL ( #52, ( #55 ) ) ;
#45 = APPROVAL_DATE_TIME ( #46, #52 ) ;
#46 = DATE_AND_TIME ( #47, #48 ) ;
#47 = CALENDAR_DATE ( 2006, 8, 6 ) ;
#48 = LOCAL_TIME ( 9, 5, 54.00000000000000000, #49 ) ;
#49 = COORDINATED_UNIVERSAL_TIME_OFFSET ( 9, 0, .AHEAD. ) ;
#50 = APPROVAL_PERSON_ORGANIZATION ( #54, #52, #51 ) ;
#51 = APPROVAL_ROLE ( '' ) ;
#52 = APPROVAL ( #53, 'UNSPECIFIED' ) ;
#53 = APPROVAL_STATUS ( 'not_yet_approved' ) ;
#54 = PERSON_AND_ORGANIZATION ( #37, #39 ) ;
#55 = PRODUCT_DEFINITION ( 'UNKNOWN', '', #88, #56 ) ;
#56 = DESIGN_CONTEXT ( 'detailed design', #58, 'design' ) ;
#57 = APPLICATION_PROTOCOL_DEFINITION ( 'international standard', 'config_control_design', 1994, #58 ) ;
#58 = APPLICATION_CONTEXT ( 'configuration controlled 3d designs of mechanical parts and assemblies' ) ;
#59 = PERSON_AND_ORGANIZATION_ROLE ( 'design_owner' ) ;
#60 = PERSON_AND_ORGANIZATION ( #37, #39 ) ;
#61 = SECURITY_CLASSIFICATION ( '', '', #78 ) ;
#62 = CC_DESIGN_PERSON_AND_ORGANIZATION_ASSIGNMENT ( #84, #63, ( #88 ) ) ;
#63 = PERSON_AND_ORGANIZATION_ROLE ( 'design_supplier' ) ;
#64 = APPROVAL ( #66, 'UNSPECIFIED' ) ;
#65 = APPROVAL_DATE_TIME ( #80, #64 ) ;
#66 = APPROVAL_STATUS ( 'not_yet_approved' ) ;
#67 = CC_DESIGN_PERSON_AND_ORGANIZATION_ASSIGNMENT ( #82, #85, ( #88 ) ) ;
#68 = APPROVAL_PERSON_ORGANIZATION ( #89, #64, #76 ) ;
#69 = APPROVAL_STATUS ( 'not_yet_approved' ) ;
#70 = PERSON_AND_ORGANIZATION ( #37, #39 ) ;
#71 = CC_DESIGN_DATE_AND_TIME_ASSIGNMENT ( #79, #72, ( #61 ) ) ;
#72 = DATE_TIME_ROLE ( 'classification_date' ) ;
#73 = CALENDAR_DATE ( 2006, 8, 6 ) ;
#74 = LOCAL_TIME ( 9, 5, 54.00000000000000000, #75 ) ;
#75 = COORDINATED_UNIVERSAL_TIME_OFFSET ( 9, 0, .AHEAD. ) ;
#76 = APPROVAL_ROLE ( '' ) ;
#77 = LOCAL_TIME ( 9, 5, 54.00000000000000000, #90 ) ;
#78 = SECURITY_CLASSIFICATION_LEVEL ( 'unclassified' ) ;
#79 = DATE_AND_TIME ( #73, #74 ) ;
#80 = DATE_AND_TIME ( #83, #77 ) ;
#81 = CC_DESIGN_APPROVAL ( #64, ( #88 ) ) ;
#82 = PERSON_AND_ORGANIZATION ( #37, #39 ) ;
#83 = CALENDAR_DATE ( 2006, 8, 6 ) ;
#84 = PERSON_AND_ORGANIZATION ( #37, #39 ) ;
#85 = PERSON_AND_ORGANIZATION_ROLE ( 'creator' ) ;
#86 = CC_DESIGN_PERSON_AND_ORGANIZATION_ASSIGNMENT ( #60, #87, ( #61 ) ) ;
#87 = PERSON_AND_ORGANIZATION_ROLE ( 'classification_officer' ) ;
#88 = PRODUCT_DEFINITION_FORMATION_WITH_SPECIFIED_SOURCE ( 'ANY', '', #40, .NOT_KNOWN. ) ;
#89 = PERSON_AND_ORGANIZATION ( #37, #39 ) ;
#90 = COORDINATED_UNIVERSAL_TIME_OFFSET ( 9, 0, .AHEAD. ) ;
#91 = PRODUCT_RELATED_PRODUCT_CATEGORY ( 'detail', '', ( #40 ) ) ;
#92 = CC_DESIGN_SECURITY_CLASSIFICATION ( #61, ( #88 ) ) ;
#93 = PRODUCT_DEFINITION_SHAPE ( 'NONE', 'NONE',  #55 ) ;
#94 = SHAPE_DEFINITION_REPRESENTATION ( #93, #13 ) ;
#95 = EDGE_LOOP ( 'NONE', ( #96, #97 ) ) ;
#96 = ORIENTED_EDGE ( 'NONE', *, *, #187, .F. ) ;
#97 = ORIENTED_EDGE ( 'NONE', *, *, #166, .F. ) ;
#98 = ADVANCED_FACE ( 'NONE', ( #209 ), #217, .F. ) ;
#99 = EDGE_LOOP ( 'NONE', ( #100, #16, #17, #6 ) ) ;
#100 = ORIENTED_EDGE ( 'NONE', *, *, #176, .F. ) ;
#101 = ORIENTED_EDGE ( 'NONE', *, *, #115, .F. ) ;
#102 = ORIENTED_EDGE ( 'NONE', *, *, #172, .T. ) ;
#103 = ORIENTED_EDGE ( 'NONE', *, *, #149, .T. ) ;
#104 = ORIENTED_EDGE ( 'NONE', *, *, #139, .F. ) ;
#105 = ADVANCED_FACE ( 'NONE', ( #218 ), #214, .T. ) ;
#106 = EDGE_LOOP ( 'NONE', ( #107, #108, #110, #111 ) ) ;
#107 = ORIENTED_EDGE ( 'NONE', *, *, #132, .F. ) ;
#108 = ORIENTED_EDGE ( 'NONE', *, *, #109, .T. ) ;
#109 = EDGE_CURVE ( 'NONE', #124, #125, #207, .T. ) ;
#110 = ORIENTED_EDGE ( 'NONE', *, *, #117, .T. ) ;
#111 = ORIENTED_EDGE ( 'NONE', *, *, #179, .T. ) ;
#112 = VERTEX_POINT ( 'NONE', #202 ) ;
#113 = EDGE_CURVE ( 'NONE', #174, #173, #200, .T. ) ;
#114 = ORIENTED_EDGE ( 'NONE', *, *, #115, .T. ) ;
#115 = EDGE_CURVE ( 'NONE', #173, #112, #201, .T. ) ;
#116 = ADVANCED_FACE ( 'NONE', ( #220 ), #274, .T. ) ;
#117 = EDGE_CURVE ( 'NONE', #125, #180, #269, .T. ) ;
#118 = EDGE_LOOP ( 'NONE', ( #119, #114, #144, #148 ) ) ;
#119 = ORIENTED_EDGE ( 'NONE', *, *, #113, .T. ) ;
#120 = EDGE_CURVE ( 'NONE', #177, #180, #265, .T. ) ;
#121 = ORIENTED_EDGE ( 'NONE', *, *, #123, .F. ) ;
#122 = EDGE_CURVE ( 'NONE', #185, #124, #349, .T. ) ;
#123 = EDGE_CURVE ( 'NONE', #125, #124, #344, .T. ) ;
#124 = VERTEX_POINT ( 'NONE', #339 ) ;
#125 = VERTEX_POINT ( 'NONE', #338 ) ;
#126 = ORIENTED_EDGE ( 'NONE', *, *, #127, .F. ) ;
#127 = EDGE_CURVE ( 'NONE', #188, #125, #337, .T. ) ;
#128 = ADVANCED_FACE ( 'NONE', ( #259 ), #258, .T. ) ;
#129 = EDGE_LOOP ( 'NONE', ( #130, #131, #133, #192 ) ) ;
#130 = ORIENTED_EDGE ( 'NONE', *, *, #123, .T. ) ;
#131 = ORIENTED_EDGE ( 'NONE', *, *, #132, .T. ) ;
#132 = EDGE_CURVE ( 'NONE', #124, #177, #257, .T. ) ;
#133 = ORIENTED_EDGE ( 'NONE', *, *, #120, .T. ) ;
#134 = EDGE_CURVE ( 'NONE', #154, #157, #249, .T. ) ;
#135 = ADVANCED_FACE ( 'NONE', ( #244 ), #243, .T. ) ;
#136 = EDGE_LOOP ( 'NONE', ( #137, #138, #140, #141 ) ) ;
#137 = ORIENTED_EDGE ( 'NONE', *, *, #153, .F. ) ;
#138 = ORIENTED_EDGE ( 'NONE', *, *, #139, .T. ) ;
#139 = EDGE_CURVE ( 'NONE', #112, #146, #238, .T. ) ;
#140 = ORIENTED_EDGE ( 'NONE', *, *, #159, .T. ) ;
#141 = ORIENTED_EDGE ( 'NONE', *, *, #134, .F. ) ;
#142 = ADVANCED_FACE ( 'NONE', ( #233 ), #232, .T. ) ;
#143 = EDGE_LOOP ( 'NONE', ( #101, #102, #103, #104 ) ) ;
#144 = ORIENTED_EDGE ( 'NONE', *, *, #145, .F. ) ;
#145 = EDGE_CURVE ( 'NONE', #146, #112, #334, .T. ) ;
#146 = VERTEX_POINT ( 'NONE', #327 ) ;
#147 = EDGE_LOOP ( 'NONE', ( #151, #152, #155, #158 ) ) ;
#148 = ORIENTED_EDGE ( 'NONE', *, *, #149, .F. ) ;
#149 = EDGE_CURVE ( 'NONE', #174, #146, #326, .T. ) ;
#150 = ADVANCED_FACE ( 'NONE', ( #322 ), #321, .T. ) ;
#151 = ORIENTED_EDGE ( 'NONE', *, *, #145, .T. ) ;
#152 = ORIENTED_EDGE ( 'NONE', *, *, #153, .T. ) ;
#153 = EDGE_CURVE ( 'NONE', #112, #154, #315, .T. ) ;
#154 = VERTEX_POINT ( 'NONE', #311 ) ;
#155 = ORIENTED_EDGE ( 'NONE', *, *, #156, .F. ) ;
#156 = EDGE_CURVE ( 'NONE', #157, #154, #310, .T. ) ;
#157 = VERTEX_POINT ( 'NONE', #305 ) ;
#158 = ORIENTED_EDGE ( 'NONE', *, *, #159, .F. ) ;
#159 = EDGE_CURVE ( 'NONE', #146, #157, #304, .T. ) ;
#160 = ADVANCED_FACE ( 'NONE', ( #299 ), #298, .T. ) ;
#161 = EDGE_LOOP ( 'NONE', ( #1, #2 ) ) ;
#162 = ADVANCED_FACE ( 'NONE', ( #293 ), #292, .T. ) ;
#163 = EDGE_LOOP ( 'NONE', ( #164, #165, #167, #168 ) ) ;
#164 = ORIENTED_EDGE ( 'NONE', *, *, #122, .F. ) ;
#165 = ORIENTED_EDGE ( 'NONE', *, *, #166, .T. ) ;
#166 = EDGE_CURVE ( 'NONE', #185, #188, #287, .T. ) ;
#167 = ORIENTED_EDGE ( 'NONE', *, *, #127, .T. ) ;
#168 = ORIENTED_EDGE ( 'NONE', *, *, #109, .F. ) ;
#169 = ADVANCED_FACE ( 'NONE', ( #282 ), #280, .T. ) ;
#170 = ADVANCED_FACE ( 'NONE', ( #281 ), #229, .F. ) ;
#171 = ORIENTED_EDGE ( 'NONE', *, *, #172, .F. ) ;
#172 = EDGE_CURVE ( 'NONE', #173, #174, #225, .T. ) ;
#173 = VERTEX_POINT ( 'NONE', #381 ) ;
#174 = VERTEX_POINT ( 'NONE', #380 ) ;
#175 = ORIENTED_EDGE ( 'NONE', *, *, #176, .T. ) ;
#176 = EDGE_CURVE ( 'NONE', #173, #177, #379, .T. ) ;
#177 = VERTEX_POINT ( 'NONE', #374 ) ;
#178 = ORIENTED_EDGE ( 'NONE', *, *, #179, .F. ) ;
#179 = EDGE_CURVE ( 'NONE', #180, #177, #373, .T. ) ;
#180 = VERTEX_POINT ( 'NONE', #368 ) ;
#181 = ORIENTED_EDGE ( 'NONE', *, *, #182, .F. ) ;
#182 = EDGE_CURVE ( 'NONE', #174, #180, #367, .T. ) ;
#183 = MANIFOLD_SOLID_BREP ( 'NONE', #3 ) ;
#184 = EDGE_LOOP ( 'NONE', ( #171, #175, #178, #181 ) ) ;
#185 = VERTEX_POINT ( 'NONE', #362 ) ;
#186 = ORIENTED_EDGE ( 'NONE', *, *, #122, .T. ) ;
#187 = EDGE_CURVE ( 'NONE', #188, #185, #361, .T. ) ;
#188 = VERTEX_POINT ( 'NONE', #356 ) ;
#189 = ORIENTED_EDGE ( 'NONE', *, *, #187, .T. ) ;
#190 = EDGE_LOOP ( 'NONE', ( #189, #186, #121, #126 ) ) ;
#191 = ADVANCED_FACE ( 'NONE', ( #355 ), #353, .T. ) ;
#192 = ORIENTED_EDGE ( 'NONE', *, *, #117, .F. ) ;
#193 = DIRECTION ( 'NONE',  ( 6.160217675479920100E-017, 0.8642748019537035400, -0.5030199466302369700 ) ) ;
#194 = VECTOR ( 'NONE', #193, 1000.000000000000100 ) ;
#195 = CARTESIAN_POINT ( 'NONE',  ( 4.023321098731478000E-016, 15.49698005336976800, -3.285290992907237600 ) ) ;
#196 = DIRECTION ( 'NONE',  ( 0.0000000000000000000, 0.0000000000000000000, 1.000000000000000000 ) ) ;
#197 = DIRECTION ( 'NONE',  ( 0.0000000000000000000, 1.000000000000000000, 0.0000000000000000000 ) ) ;
#198 = CARTESIAN_POINT ( 'NONE',  ( 0.0000000000000000000, 12.23319923881233400, 0.0000000000000000000 ) ) ;
#199 = AXIS2_PLACEMENT_3D ( 'NONE', #198, #197, #196 ) ;
#200 = CIRCLE ( 'NONE', #199, 1.385725198046294800 ) ;
#201 = LINE ( 'NONE', #195, #194 ) ;
#202 = CARTESIAN_POINT ( 'NONE',  ( 4.023321098731478000E-016, 15.49698005336976800, -3.285290992907238000 ) ) ;
#203 = DIRECTION ( 'NONE',  ( 0.0000000000000000000, 0.0000000000000000000, 1.000000000000000000 ) ) ;
#204 = DIRECTION ( 'NONE',  ( 0.0000000000000000000, 1.000000000000000000, 0.0000000000000000000 ) ) ;
#205 = CARTESIAN_POINT ( 'NONE',  ( 0.0000000000000000000, 2.499999999999998700, 0.0000000000000000000 ) ) ;
#206 = AXIS2_PLACEMENT_3D ( 'NONE', #205, #204, #203 ) ;
#207 = CIRCLE ( 'NONE', #206, 1.249999999999996700 ) ;
#208 = AXIS2_PLACEMENT_3D ( 'NONE', #219, #216, #215 ) ;
#209 = FACE_OUTER_BOUND ( 'NONE', #99, .T. ) ;
#210 = DIRECTION ( 'NONE',  ( 0.0000000000000000000, 0.0000000000000000000, 1.000000000000000000 ) ) ;
#211 = DIRECTION ( 'NONE',  ( 0.0000000000000000000, 1.000000000000000000, 0.0000000000000000000 ) ) ;
#212 = CARTESIAN_POINT ( 'NONE',  ( 0.0000000000000000000, 32.66160787530762400, 0.0000000000000000000 ) ) ;
#213 = AXIS2_PLACEMENT_3D ( 'NONE', #212, #211, #210 ) ;
#214 = CYLINDRICAL_SURFACE ( 'NONE', #213, 1.249999999999997100 ) ;
#215 = DIRECTION ( 'NONE',  ( 0.0000000000000000000, 0.0000000000000000000, 1.000000000000000000 ) ) ;
#216 = DIRECTION ( 'NONE',  ( 0.0000000000000000000, 1.000000000000000000, 0.0000000000000000000 ) ) ;
#217 = TOROIDAL_SURFACE ( 'NONE', #208, 2.249999999999997300, 1.000000000000000000 ) ;
#218 = FACE_OUTER_BOUND ( 'NONE', #106, .T. ) ;
#219 = CARTESIAN_POINT ( 'NONE',  ( 0.0000000000000000000, 11.73017929218209900, 0.0000000000000000000 ) ) ;
#220 = FACE_OUTER_BOUND ( 'NONE', #118, .T. ) ;
#221 = DIRECTION ( 'NONE',  ( 0.0000000000000000000, 0.0000000000000000000, 1.000000000000000000 ) ) ;
#222 = DIRECTION ( 'NONE',  ( 0.0000000000000000000, 1.000000000000000000, 0.0000000000000000000 ) ) ;
#223 = CARTESIAN_POINT ( 'NONE',  ( 0.0000000000000000000, 12.23319923881233400, 0.0000000000000000000 ) ) ;
#224 = AXIS2_PLACEMENT_3D ( 'NONE', #223, #222, #221 ) ;
#225 = CIRCLE ( 'NONE', #224, 1.385725198046294800 ) ;
#226 = DIRECTION ( 'NONE',  ( 0.0000000000000000000, 0.0000000000000000000, 1.000000000000000000 ) ) ;
#227 = DIRECTION ( 'NONE',  ( 0.0000000000000000000, 1.000000000000000000, 0.0000000000000000000 ) ) ;
#228 = AXIS2_PLACEMENT_3D ( 'NONE', #275, #227, #226 ) ;
#229 = TOROIDAL_SURFACE ( 'NONE', #228, 2.249999999999997300, 1.000000000000000000 ) ;
#230 = CARTESIAN_POINT ( 'NONE',  ( 0.0000000000000000000, 15.49698005336976800, 0.0000000000000000000 ) ) ;
#231 = AXIS2_PLACEMENT_3D ( 'NONE', #230, #333, #332 ) ;
#232 = CONICAL_SURFACE ( 'NONE', #231, 3.285290992907237600, 0.5270894341022897000 ) ;
#233 = FACE_OUTER_BOUND ( 'NONE', #143, .T. ) ;
#234 = DIRECTION ( 'NONE',  ( 0.0000000000000000000, 0.0000000000000000000, 1.000000000000000000 ) ) ;
#235 = DIRECTION ( 'NONE',  ( 0.0000000000000000000, 1.000000000000000000, 0.0000000000000000000 ) ) ;
#236 = CARTESIAN_POINT ( 'NONE',  ( 0.0000000000000000000, 15.49698005336976800, 0.0000000000000000000 ) ) ;
#237 = AXIS2_PLACEMENT_3D ( 'NONE', #236, #235, #234 ) ;
#238 = CIRCLE ( 'NONE', #237, 3.285290992907237600 ) ;
#239 = DIRECTION ( 'NONE',  ( 0.0000000000000000000, 0.0000000000000000000, 1.000000000000000000 ) ) ;
#240 = DIRECTION ( 'NONE',  ( 0.0000000000000000000, 1.000000000000000000, 0.0000000000000000000 ) ) ;
#241 = CARTESIAN_POINT ( 'NONE',  ( 0.0000000000000000000, 16.00000000000000400, 0.0000000000000000000 ) ) ;
#242 = AXIS2_PLACEMENT_3D ( 'NONE', #241, #240, #239 ) ;
#243 = TOROIDAL_SURFACE ( 'NONE', #242, 2.421016190953531500, 1.000000000000002700 ) ;
#244 = FACE_OUTER_BOUND ( 'NONE', #136, .T. ) ;
#245 = DIRECTION ( 'NONE',  ( 0.0000000000000000000, 0.0000000000000000000, 1.000000000000000000 ) ) ;
#246 = DIRECTION ( 'NONE',  ( 0.0000000000000000000, 1.000000000000000000, 0.0000000000000000000 ) ) ;
#247 = CARTESIAN_POINT ( 'NONE',  ( 0.0000000000000000000, 17.00000000000000700, 0.0000000000000000000 ) ) ;
#248 = AXIS2_PLACEMENT_3D ( 'NONE', #247, #246, #245 ) ;
#249 = CIRCLE ( 'NONE', #248, 2.421016190953531500 ) ;
#250 = DIRECTION ( 'NONE',  ( 0.0000000000000000000, 1.000000000000000000, 0.0000000000000000000 ) ) ;
#251 = VECTOR ( 'NONE', #250, 1000.000000000000000 ) ;
#252 = CARTESIAN_POINT ( 'NONE',  ( 1.530808498934188100E-016, 32.66160787530762400, -1.249999999999997100 ) ) ;
#253 = DIRECTION ( 'NONE',  ( 0.0000000000000000000, 0.0000000000000000000, 1.000000000000000000 ) ) ;
#254 = DIRECTION ( 'NONE',  ( 0.0000000000000000000, 1.000000000000000000, 0.0000000000000000000 ) ) ;
#255 = CARTESIAN_POINT ( 'NONE',  ( 0.0000000000000000000, 32.66160787530762400, 0.0000000000000000000 ) ) ;
#256 = AXIS2_PLACEMENT_3D ( 'NONE', #255, #254, #253 ) ;
#257 = LINE ( 'NONE', #252, #251 ) ;
#258 = CYLINDRICAL_SURFACE ( 'NONE', #256, 1.249999999999997100 ) ;
#259 = FACE_OUTER_BOUND ( 'NONE', #129, .T. ) ;
#260 = DIRECTION ( 'NONE',  ( 0.0000000000000000000, 0.0000000000000000000, 1.000000000000000000 ) ) ;
#261 = DIRECTION ( 'NONE',  ( -1.000000000000000000, 0.0000000000000000000, 0.0000000000000000000 ) ) ;
#262 = DIRECTION ( 'NONE',  ( 0.0000000000000000000, -1.000000000000000000, 0.0000000000000000000 ) ) ;
#263 = CARTESIAN_POINT ( 'NONE',  ( 0.0000000000000000000, 11.73017929218209900, 0.0000000000000000000 ) ) ;
#264 = AXIS2_PLACEMENT_3D ( 'NONE', #263, #262, #350 ) ;
#265 = CIRCLE ( 'NONE', #264, 1.249999999999997100 ) ;
#266 = DIRECTION ( 'NONE',  ( 0.0000000000000000000, 1.000000000000000000, 0.0000000000000000000 ) ) ;
#267 = VECTOR ( 'NONE', #266, 1000.000000000000000 ) ;
#268 = CARTESIAN_POINT ( 'NONE',  ( 0.0000000000000000000, 32.66160787530762400, 1.249999999999997100 ) ) ;
#269 = LINE ( 'NONE', #268, #267 ) ;
#270 = DIRECTION ( 'NONE',  ( 0.0000000000000000000, 0.0000000000000000000, 1.000000000000000000 ) ) ;
#271 = DIRECTION ( 'NONE',  ( 0.0000000000000000000, 1.000000000000000000, 0.0000000000000000000 ) ) ;
#272 = CARTESIAN_POINT ( 'NONE',  ( 0.0000000000000000000, 15.49698005336976800, 0.0000000000000000000 ) ) ;
#273 = AXIS2_PLACEMENT_3D ( 'NONE', #272, #271, #270 ) ;
#274 = CONICAL_SURFACE ( 'NONE', #273, 3.285290992907237600, 0.5270894341022897000 ) ;
#275 = CARTESIAN_POINT ( 'NONE',  ( 0.0000000000000000000, 11.73017929218209900, 0.0000000000000000000 ) ) ;
#276 = DIRECTION ( 'NONE',  ( 0.0000000000000000000, 0.0000000000000000000, -1.000000000000000000 ) ) ;
#277 = DIRECTION ( 'NONE',  ( 0.0000000000000000000, -1.000000000000000000, 0.0000000000000000000 ) ) ;
#278 = CARTESIAN_POINT ( 'NONE',  ( -0.2403667693977196700, 2.168404344971008900E-016, 0.0000000000000000000 ) ) ;
#279 = AXIS2_PLACEMENT_3D ( 'NONE', #278, #277, #276 ) ;
#280 = PLANE ( 'NONE',  #279 ) ;
#281 = FACE_OUTER_BOUND ( 'NONE', #184, .T. ) ;
#282 = FACE_OUTER_BOUND ( 'NONE', #95, .T. ) ;
#283 = DIRECTION ( 'NONE',  ( 0.0000000000000000000, 0.0000000000000000000, 1.000000000000000000 ) ) ;
#284 = DIRECTION ( 'NONE',  ( 0.0000000000000000000, 1.000000000000000000, 0.0000000000000000000 ) ) ;
#285 = CARTESIAN_POINT ( 'NONE',  ( 0.0000000000000000000, 0.0000000000000000000, 0.0000000000000000000 ) ) ;
#286 = AXIS2_PLACEMENT_3D ( 'NONE', #285, #284, #283 ) ;
#287 = CIRCLE ( 'NONE', #286, 0.2403667693977201100 ) ;
#288 = DIRECTION ( 'NONE',  ( 0.0000000000000000000, 0.0000000000000000000, 1.000000000000000000 ) ) ;
#289 = DIRECTION ( 'NONE',  ( 0.0000000000000000000, 1.000000000000000000, 0.0000000000000000000 ) ) ;
#290 = CARTESIAN_POINT ( 'NONE',  ( 0.0000000000000000000, 2.500000000000002200, 0.0000000000000000000 ) ) ;
#291 = AXIS2_PLACEMENT_3D ( 'NONE', #290, #289, #288 ) ;
#292 = TOROIDAL_SURFACE ( 'NONE', #291, -2.350000000000003200, 3.600000000000000100 ) ;
#293 = FACE_OUTER_BOUND ( 'NONE', #163, .T. ) ;
#294 = DIRECTION ( 'NONE',  ( 0.0000000000000000000, 0.0000000000000000000, 1.000000000000000000 ) ) ;
#295 = DIRECTION ( 'NONE',  ( 0.0000000000000000000, 1.000000000000000000, 0.0000000000000000000 ) ) ;
#296 = CARTESIAN_POINT ( 'NONE',  ( 1.900745847083735000E-015, 17.00000000000000700, 0.0000000000000000000 ) ) ;
#297 = AXIS2_PLACEMENT_3D ( 'NONE', #296, #295, #294 ) ;
#298 = PLANE ( 'NONE',  #297 ) ;
#299 = FACE_OUTER_BOUND ( 'NONE', #161, .T. ) ;
#300 = DIRECTION ( 'NONE',  ( 0.0000000000000000000, 0.0000000000000000000, 1.000000000000000000 ) ) ;
#301 = DIRECTION ( 'NONE',  ( -1.000000000000000000, 0.0000000000000000000, 0.0000000000000000000 ) ) ;
#302 = CARTESIAN_POINT ( 'NONE',  ( 0.0000000000000000000, 16.00000000000000400, 2.421016190953531500 ) ) ;
#303 = AXIS2_PLACEMENT_3D ( 'NONE', #302, #301, #300 ) ;
#304 = CIRCLE ( 'NONE', #303, 1.000000000000002700 ) ;
#305 = CARTESIAN_POINT ( 'NONE',  ( 0.0000000000000000000, 17.00000000000000700, 2.421016190953531500 ) ) ;
#306 = DIRECTION ( 'NONE',  ( 0.0000000000000000000, 0.0000000000000000000, 1.000000000000000000 ) ) ;
#307 = DIRECTION ( 'NONE',  ( 0.0000000000000000000, 1.000000000000000000, 0.0000000000000000000 ) ) ;
#308 = CARTESIAN_POINT ( 'NONE',  ( 0.0000000000000000000, 17.00000000000000700, 0.0000000000000000000 ) ) ;
#309 = AXIS2_PLACEMENT_3D ( 'NONE', #308, #307, #306 ) ;
#310 = CIRCLE ( 'NONE', #309, 2.421016190953531500 ) ;
#311 = CARTESIAN_POINT ( 'NONE',  ( 3.494105413833318800E-016, 17.00000000000000700, -2.421016190953531500 ) ) ;
#312 = DIRECTION ( 'NONE',  ( 1.224646799147353000E-016, 0.0000000000000000000, -1.000000000000000000 ) ) ;
#313 = DIRECTION ( 'NONE',  ( 1.000000000000000000, 0.0000000000000000000, 1.224646799147353200E-016 ) ) ;
#314 = AXIS2_PLACEMENT_3D ( 'NONE', #320, #313, #312 ) ;
#315 = CIRCLE ( 'NONE', #314, 1.000000000000002700 ) ;
#316 = DIRECTION ( 'NONE',  ( 0.0000000000000000000, 0.0000000000000000000, 1.000000000000000000 ) ) ;
#317 = DIRECTION ( 'NONE',  ( 0.0000000000000000000, 1.000000000000000000, 0.0000000000000000000 ) ) ;
#318 = CARTESIAN_POINT ( 'NONE',  ( 0.0000000000000000000, 16.00000000000000400, 0.0000000000000000000 ) ) ;
#319 = AXIS2_PLACEMENT_3D ( 'NONE', #318, #317, #316 ) ;
#320 = CARTESIAN_POINT ( 'NONE',  ( 2.964889728935159700E-016, 16.00000000000000400, -2.421016190953531500 ) ) ;
#321 = TOROIDAL_SURFACE ( 'NONE', #319, 2.421016190953531500, 1.000000000000002700 ) ;
#322 = FACE_OUTER_BOUND ( 'NONE', #147, .T. ) ;
#323 = DIRECTION ( 'NONE',  ( 0.0000000000000000000, 0.8642748019537035400, 0.5030199466302369700 ) ) ;
#324 = VECTOR ( 'NONE', #323, 1000.000000000000100 ) ;
#325 = CARTESIAN_POINT ( 'NONE',  ( 0.0000000000000000000, 15.49698005336976800, 3.285290992907237600 ) ) ;
#326 = LINE ( 'NONE', #325, #324 ) ;
#327 = CARTESIAN_POINT ( 'NONE',  ( 0.0000000000000000000, 15.49698005336976800, 3.285290992907238000 ) ) ;
#328 = DIRECTION ( 'NONE',  ( 0.0000000000000000000, 0.0000000000000000000, 1.000000000000000000 ) ) ;
#329 = DIRECTION ( 'NONE',  ( 0.0000000000000000000, 1.000000000000000000, 0.0000000000000000000 ) ) ;
#330 = CARTESIAN_POINT ( 'NONE',  ( 0.0000000000000000000, 15.49698005336976800, 0.0000000000000000000 ) ) ;
#331 = AXIS2_PLACEMENT_3D ( 'NONE', #330, #329, #328 ) ;
#332 = DIRECTION ( 'NONE',  ( 0.0000000000000000000, 0.0000000000000000000, 1.000000000000000000 ) ) ;
#333 = DIRECTION ( 'NONE',  ( 0.0000000000000000000, 1.000000000000000000, 0.0000000000000000000 ) ) ;
#334 = CIRCLE ( 'NONE', #331, 3.285290992907237600 ) ;
#335 = CARTESIAN_POINT ( 'NONE',  ( 0.0000000000000000000, 2.500000000000002200, -2.350000000000003200 ) ) ;
#336 = AXIS2_PLACEMENT_3D ( 'NONE', #335, #261, #260 ) ;
#337 = CIRCLE ( 'NONE', #336, 3.600000000000000100 ) ;
#338 = CARTESIAN_POINT ( 'NONE',  ( 0.0000000000000000000, 2.499999999999998700, 1.249999999999996700 ) ) ;
#339 = CARTESIAN_POINT ( 'NONE',  ( 1.530808498934187900E-016, 2.499999999999998700, -1.249999999999996700 ) ) ;
#340 = DIRECTION ( 'NONE',  ( 0.0000000000000000000, 0.0000000000000000000, 1.000000000000000000 ) ) ;
#341 = DIRECTION ( 'NONE',  ( 0.0000000000000000000, 1.000000000000000000, 0.0000000000000000000 ) ) ;
#342 = CARTESIAN_POINT ( 'NONE',  ( 0.0000000000000000000, 2.499999999999998700, 0.0000000000000000000 ) ) ;
#343 = AXIS2_PLACEMENT_3D ( 'NONE', #342, #341, #340 ) ;
#344 = CIRCLE ( 'NONE', #343, 1.249999999999996700 ) ;
#345 = DIRECTION ( 'NONE',  ( 1.224646799147353000E-016, 0.0000000000000000000, -1.000000000000000000 ) ) ;
#346 = DIRECTION ( 'NONE',  ( 1.000000000000000000, 0.0000000000000000000, 1.224646799147353200E-016 ) ) ;
#347 = CARTESIAN_POINT ( 'NONE',  ( -2.877919977996283800E-016, 2.500000000000002200, 2.350000000000003200 ) ) ;
#348 = AXIS2_PLACEMENT_3D ( 'NONE', #347, #346, #345 ) ;
#349 = CIRCLE ( 'NONE', #348, 3.600000000000000100 ) ;
#350 = DIRECTION ( 'NONE',  ( 0.0000000000000000000, 0.0000000000000000000, 1.000000000000000000 ) ) ;
#351 = DIRECTION ( 'NONE',  ( 0.0000000000000000000, 1.000000000000000000, 0.0000000000000000000 ) ) ;
#352 = AXIS2_PLACEMENT_3D ( 'NONE', #354, #351, #4 ) ;
#353 = TOROIDAL_SURFACE ( 'NONE', #352, -2.350000000000003200, 3.600000000000000100 ) ;
#354 = CARTESIAN_POINT ( 'NONE',  ( 0.0000000000000000000, 2.500000000000002200, 0.0000000000000000000 ) ) ;
#355 = FACE_OUTER_BOUND ( 'NONE', #190, .T. ) ;
#356 = CARTESIAN_POINT ( 'NONE',  ( 0.0000000000000000000, 0.0000000000000000000, 0.2403667693977201100 ) ) ;
#357 = DIRECTION ( 'NONE',  ( 0.0000000000000000000, 0.0000000000000000000, 1.000000000000000000 ) ) ;
#358 = DIRECTION ( 'NONE',  ( 0.0000000000000000000, 1.000000000000000000, 0.0000000000000000000 ) ) ;
#359 = CARTESIAN_POINT ( 'NONE',  ( 0.0000000000000000000, 0.0000000000000000000, 0.0000000000000000000 ) ) ;
#360 = AXIS2_PLACEMENT_3D ( 'NONE', #359, #358, #357 ) ;
#361 = CIRCLE ( 'NONE', #360, 0.2403667693977201100 ) ;
#362 = CARTESIAN_POINT ( 'NONE',  ( 9.125864468492487500E-017, 0.0000000000000000000, -0.2403667693977201100 ) ) ;
#363 = DIRECTION ( 'NONE',  ( 0.0000000000000000000, 0.0000000000000000000, 1.000000000000000000 ) ) ;
#364 = DIRECTION ( 'NONE',  ( -1.000000000000000000, 0.0000000000000000000, 0.0000000000000000000 ) ) ;
#365 = CARTESIAN_POINT ( 'NONE',  ( 0.0000000000000000000, 11.73017929218209900, 2.249999999999997300 ) ) ;
#366 = AXIS2_PLACEMENT_3D ( 'NONE', #365, #364, #363 ) ;
#367 = CIRCLE ( 'NONE', #366, 1.000000000000000000 ) ;
#368 = CARTESIAN_POINT ( 'NONE',  ( 0.0000000000000000000, 11.73017929218209900, 1.249999999999997100 ) ) ;
#369 = DIRECTION ( 'NONE',  ( 0.0000000000000000000, 0.0000000000000000000, 1.000000000000000000 ) ) ;
#370 = DIRECTION ( 'NONE',  ( 0.0000000000000000000, -1.000000000000000000, 0.0000000000000000000 ) ) ;
#371 = CARTESIAN_POINT ( 'NONE',  ( 0.0000000000000000000, 11.73017929218209900, 0.0000000000000000000 ) ) ;
#372 = AXIS2_PLACEMENT_3D ( 'NONE', #371, #370, #369 ) ;
#373 = CIRCLE ( 'NONE', #372, 1.249999999999997100 ) ;
#374 = CARTESIAN_POINT ( 'NONE',  ( 1.530808498934188100E-016, 11.73017929218209900, -1.249999999999997100 ) ) ;
#375 = DIRECTION ( 'NONE',  ( 1.224646799147353500E-016, 0.0000000000000000000, -1.000000000000000000 ) ) ;
#376 = DIRECTION ( 'NONE',  ( 1.000000000000000000, 0.0000000000000000000, 1.224646799147353200E-016 ) ) ;
#377 = CARTESIAN_POINT ( 'NONE',  ( 2.755455298081541300E-016, 11.73017929218209900, -2.249999999999997300 ) ) ;
#378 = AXIS2_PLACEMENT_3D ( 'NONE', #377, #376, #375 ) ;
#379 = CIRCLE ( 'NONE', #378, 1.000000000000000000 ) ;
#380 = CARTESIAN_POINT ( 'NONE',  ( 0.0000000000000000000, 12.23319923881233400, 1.385725198046294800 ) ) ;
#381 = CARTESIAN_POINT ( 'NONE',  ( 2.860172513508352700E-016, 12.23319923881233400, -1.385725198046294800 ) ) ;
ENDSEC;
END-ISO-10303-21;
