ISO-10303-21;
HEADER;
FILE_DESCRIPTION (( 'STEP AP203' ),
    '1' );
FILE_NAME ('C-30-MC-4.STEP',
    '2012-03-27T06:46:31',
    ( '11sw' ),
    ( '^LQ»¢®ïÐ' ),
    'SwSTEP 2.0',
    'SolidWorks 2011',
    '' );
FILE_SCHEMA (( 'CONFIG_CONTROL_DESIGN' ));
ENDSEC;

DATA;
#1 = SECURITY_CLASSIFICATION_LEVEL ( 'unclassified' ) ;
#2 = MECHANICAL_CONTEXT ( 'NONE', #13, 'mechanical' ) ;
#3 = CARTESIAN_POINT ( 'NONE',  ( 0.0000000000000000000, 0.0000000000000000000, 0.0000000000000000000 ) ) ;
#4 = DATE_TIME_ROLE ( 'creation_date' ) ;
#5 = PERSON_AND_ORGANIZATION_ROLE ( 'creator' ) ;
#6 = PERSON_AND_ORGANIZATION_ROLE ( 'design_owner' ) ;
#7 = APPROVAL_ROLE ( '' ) ;
#8 = APPLICATION_CONTEXT ( 'configuration controlled 3d designs of mechanical parts and assemblies' ) ;
#9 = PERSON_AND_ORGANIZATION_ROLE ( 'creator' ) ;
#10 = DIRECTION ( 'NONE',  ( 0.0000000000000000000, 0.0000000000000000000, 1.000000000000000000 ) ) ;
#11 = PERSON_AND_ORGANIZATION_ROLE ( 'design_supplier' ) ;
#12 = DIRECTION ( 'NONE',  ( 1.000000000000000000, 0.0000000000000000000, 0.0000000000000000000 ) ) ;
#13 = APPLICATION_CONTEXT ( 'configuration controlled 3d designs of mechanical parts and assemblies' ) ;
#14 = APPLICATION_PROTOCOL_DEFINITION ( 'international standard', 'config_control_design', 1994, #8 ) ;
#15 = APPROVAL_STATUS ( 'not_yet_approved' ) ;
#16 = APPROVAL_STATUS ( 'not_yet_approved' ) ;
#17 = APPROVAL_ROLE ( '' ) ;
#18 = APPLICATION_PROTOCOL_DEFINITION ( 'international standard', 'config_control_design', 1994, #13 ) ;
#19 = DIRECTION ( 'NONE',  ( 1.000000000000000000, 0.0000000000000000000, 0.0000000000000000000 ) ) ;
#20 = DIRECTION ( 'NONE',  ( -0.0000000000000000000, -0.0000000000000000000, 1.000000000000000000 ) ) ;
#21 = DIRECTION ( 'NONE',  ( 1.224646799147353200E-016, 1.000000000000000000, 0.0000000000000000000 ) ) ;
#22 = DIRECTION ( 'NONE',  ( 1.000000000000000000, 0.0000000000000000000, 0.0000000000000000000 ) ) ;
#23 = DIRECTION ( 'NONE',  ( -0.0000000000000000000, -0.0000000000000000000, 1.000000000000000000 ) ) ;
#24 = CARTESIAN_POINT ( 'NONE',  ( 0.0000000000000000000, 0.0000000000000000000, 2.341752300720253200 ) ) ;
#25 = CARTESIAN_POINT ( 'NONE',  ( -3.000000000000000000, 3.673940397442059900E-016, 2.000000000000001800 ) ) ;
#26 = CARTESIAN_POINT ( 'NONE',  ( 0.0000000000000000000, 0.0000000000000000000, 0.0000000000000000000 ) ) ;
#27 = DIRECTION ( 'NONE',  ( -1.000000000000000000, 1.224646799147353500E-016, 0.0000000000000000000 ) ) ;
#28 = CARTESIAN_POINT ( 'NONE',  ( 0.0000000000000000000, 0.0000000000000000000, 1.999999999999998200 ) ) ;
#29 = DIRECTION ( 'NONE',  ( -0.0000000000000000000, -0.0000000000000000000, 1.000000000000000000 ) ) ;
#30 = DIRECTION ( 'NONE',  ( 1.000000000000000000, 0.0000000000000000000, 0.0000000000000000000 ) ) ;
#31 = EDGE_CURVE ( 'NONE', #209, #205, #74, .T. ) ;
#32 = EDGE_CURVE ( 'NONE', #207, #200, #106, .T. ) ;
#33 = EDGE_CURVE ( 'NONE', #211, #224, #88, .T. ) ;
#34 = EDGE_CURVE ( 'NONE', #200, #224, #126, .T. ) ;
#35 = EDGE_CURVE ( 'NONE', #205, #206, #65, .T. ) ;
#36 =( GEOMETRIC_REPRESENTATION_CONTEXT ( 3 ) GLOBAL_UNCERTAINTY_ASSIGNED_CONTEXT ( ( #293 ) ) GLOBAL_UNIT_ASSIGNED_CONTEXT ( ( #365, #384, #378 ) ) REPRESENTATION_CONTEXT ( 'NONE', 'WORKASPACE' ) );
#37 = EDGE_CURVE ( 'NONE', #213, #203, #122, .T. ) ;
#38 = LOCAL_TIME ( 15, 46, 31.00000000000000000, #275 ) ;
#39 = LOCAL_TIME ( 15, 46, 31.00000000000000000, #263 ) ;
#40 = ADVANCED_FACE ( 'NONE', ( #171 ), #238, .F. ) ;
#41 = ADVANCED_FACE ( 'NONE', ( #169 ), #76, .F. ) ;
#42 = ADVANCED_FACE ( 'NONE', ( #245, #244 ), #337, .F. ) ;
#43 = ADVANCED_FACE ( 'NONE', ( #249 ), #86, .T. ) ;
#44 = ADVANCED_FACE ( 'NONE', ( #253 ), #116, .T. ) ;
#45 = ADVANCED_FACE ( 'NONE', ( #280 ), #97, .F. ) ;
#46 = ADVANCED_FACE ( 'NONE', ( #247 ), #66, .F. ) ;
#47 = ADVANCED_FACE ( 'NONE', ( #246 ), #320, .F. ) ;
#48 = ADVANCED_FACE ( 'NONE', ( #254 ), #82, .T. ) ;
#49 = ADVANCED_FACE ( 'NONE', ( #252 ), #147, .F. ) ;
#50 = ADVANCED_FACE ( 'NONE', ( #278 ), #91, .F. ) ;
#51 = ADVANCED_FACE ( 'NONE', ( #277 ), #248, .F. ) ;
#52 = ADVANCED_FACE ( 'NONE', ( #243 ), #62, .T. ) ;
#53 = EDGE_CURVE ( 'NONE', #203, #223, #64, .T. ) ;
#54 = EDGE_CURVE ( 'NONE', #213, #211, #114, .T. ) ;
#55 = EDGE_CURVE ( 'NONE', #224, #211, #80, .T. ) ;
#56 = EDGE_CURVE ( 'NONE', #203, #213, #101, .T. ) ;
#57 = EDGE_CURVE ( 'NONE', #207, #211, #70, .T. ) ;
#58 = EDGE_CURVE ( 'NONE', #203, #224, #123, .T. ) ;
#59 = AXIS2_PLACEMENT_3D ( 'NONE', #138, #134, #143 ) ;
#60 = CIRCLE ( 'NONE', #121, 0.8999999999999999100 ) ;
#61 = CC_DESIGN_PERSON_AND_ORGANIZATION_ASSIGNMENT ( #266, #6, ( #294 ) ) ;
#62 = TOROIDAL_SURFACE ( 'NONE', #72, -0.5000000000000000000, 4.000000000000001800 ) ;
#63 = AXIS2_PLACEMENT_3D ( 'NONE', #25, #21, #27 ) ;
#64 = CIRCLE ( 'NONE', #95, 4.000000000000001800 ) ;
#65 = CIRCLE ( 'NONE', #87, 1.000000000000000000 ) ;
#66 = TOROIDAL_SURFACE ( 'NONE', #68, 103.4998365881319600, 100.0000000000000000 ) ;
#67 = AXIS2_PLACEMENT_3D ( 'NONE', #363, #362, #361 ) ;
#68 = AXIS2_PLACEMENT_3D ( 'NONE', #332, #330, #334 ) ;
#69 = CIRCLE ( 'NONE', #103, 1.000000000000000000 ) ;
#70 = CIRCLE ( 'NONE', #85, 1.999999999999994400 ) ;
#71 = VECTOR ( 'NONE', #393, 1000.000000000000000 ) ;
#72 = AXIS2_PLACEMENT_3D ( 'NONE', #150, #153, #151 ) ;
#73 = AXIS2_PLACEMENT_3D ( 'NONE', #391, #389, #388 ) ;
#74 = CIRCLE ( 'NONE', #104, 0.8999999999999999100 ) ;
#75 = AXIS2_PLACEMENT_3D ( 'NONE', #338, #335, #321 ) ;
#76 = TOROIDAL_SURFACE ( 'NONE', #102, 0.8999999999999998000, 1.000000000000000000 ) ;
#77 = CIRCLE ( 'NONE', #79, 1.899999999999999700 ) ;
#78 = VECTOR ( 'NONE', #369, 1000.000000000000000 ) ;
#79 = AXIS2_PLACEMENT_3D ( 'NONE', #352, #351, #349 ) ;
#80 = CIRCLE ( 'NONE', #93, 4.970585031139837200 ) ;
#81 = CIRCLE ( 'NONE', #117, 1.899999999999997200 ) ;
#82 = TOROIDAL_SURFACE ( 'NONE', #113, 3.000000000000000000, 1.999999999999994400 ) ;
#83 = CIRCLE ( 'NONE', #73, 1.899999999999997200 ) ;
#84 = AXIS2_PLACEMENT_3D ( 'NONE', #26, #29, #22 ) ;
#85 = AXIS2_PLACEMENT_3D ( 'NONE', #157, #135, #161 ) ;
#86 = TOROIDAL_SURFACE ( 'NONE', #96, -0.5000000000000000000, 4.000000000000001800 ) ;
#87 = AXIS2_PLACEMENT_3D ( 'NONE', #333, #322, #325 ) ;
#88 = CIRCLE ( 'NONE', #94, 4.970585031139837200 ) ;
#89 = CIRCLE ( 'NONE', #119, 2.399999999999999900 ) ;
#90 = CIRCLE ( 'NONE', #67, 2.399999999999999900 ) ;
#91 = TOROIDAL_SURFACE ( 'NONE', #110, 0.8999999999999998000, 1.000000000000000000 ) ;
#92 = AXIS2_PLACEMENT_3D ( 'NONE', #357, #392, #359 ) ;
#93 = AXIS2_PLACEMENT_3D ( 'NONE', #130, #145, #146 ) ;
#94 = AXIS2_PLACEMENT_3D ( 'NONE', #24, #20, #19 ) ;
#95 = AXIS2_PLACEMENT_3D ( 'NONE', #154, #136, #139 ) ;
#96 = AXIS2_PLACEMENT_3D ( 'NONE', #318, #327, #313 ) ;
#97 = TOROIDAL_SURFACE ( 'NONE', #75, 103.4998365881319600, 100.0000000000000000 ) ;
#98 = CIRCLE ( 'NONE', #108, 3.000000000000000400 ) ;
#99 = AXIS2_PLACEMENT_3D ( 'NONE', #159, #162, #131 ) ;
#100 = AXIS2_PLACEMENT_3D ( 'NONE', #367, #366, #364 ) ;
#101 = CIRCLE ( 'NONE', #59, 3.499993714928137500 ) ;
#102 = AXIS2_PLACEMENT_3D ( 'NONE', #315, #316, #342 ) ;
#103 = AXIS2_PLACEMENT_3D ( 'NONE', #373, #372, #371 ) ;
#104 = AXIS2_PLACEMENT_3D ( 'NONE', #28, #23, #30 ) ;
#105 = AXIS2_PLACEMENT_3D ( 'NONE', #3, #10, #12 ) ;
#106 = CIRCLE ( 'NONE', #84, 3.000000000000000400 ) ;
#107 = AXIS2_PLACEMENT_3D ( 'NONE', #137, #144, #140 ) ;
#108 = AXIS2_PLACEMENT_3D ( 'NONE', #386, #385, #383 ) ;
#109 = AXIS2_PLACEMENT_3D ( 'NONE', #132, #158, #155 ) ;
#110 = AXIS2_PLACEMENT_3D ( 'NONE', #142, #141, #149 ) ;
#111 = AXIS2_PLACEMENT_3D ( 'NONE', #314, #156, #133 ) ;
#112 = CIRCLE ( 'NONE', #100, 1.899999999999999700 ) ;
#113 = AXIS2_PLACEMENT_3D ( 'NONE', #160, #148, #152 ) ;
#114 = CIRCLE ( 'NONE', #107, 100.0000000000000000 ) ;
#115 = AXIS2_PLACEMENT_3D ( 'NONE', #336, #328, #339 ) ;
#116 = TOROIDAL_SURFACE ( 'NONE', #124, 3.000000000000000000, 1.999999999999994400 ) ;
#117 = AXIS2_PLACEMENT_3D ( 'NONE', #347, #346, #345 ) ;
#118 = AXIS2_PLACEMENT_3D ( 'NONE', #323, #341, #340 ) ;
#119 = AXIS2_PLACEMENT_3D ( 'NONE', #381, #380, #377 ) ;
#120 = AXIS2_PLACEMENT_3D ( 'NONE', #331, #329, #317 ) ;
#121 = AXIS2_PLACEMENT_3D ( 'NONE', #360, #358, #353 ) ;
#122 = CIRCLE ( 'NONE', #118, 3.499993714928137500 ) ;
#123 = CIRCLE ( 'NONE', #92, 100.0000000000000100 ) ;
#124 = AXIS2_PLACEMENT_3D ( 'NONE', #326, #319, #324 ) ;
#125 = CIRCLE ( 'NONE', #127, 4.000000000000001800 ) ;
#126 = CIRCLE ( 'NONE', #63, 1.999999999999994000 ) ;
#127 = AXIS2_PLACEMENT_3D ( 'NONE', #344, #343, #348 ) ;
#128 = ADVANCED_BREP_SHAPE_REPRESENTATION ( 'C-30-MC-4', ( #129, #105 ), #36 ) ;
#129 = MANIFOLD_SOLID_BREP ( 'ñ]1', #192 ) ;
#130 = CARTESIAN_POINT ( 'NONE',  ( 0.0000000000000000000, 0.0000000000000000000, 2.341752300720253200 ) ) ;
#131 = DIRECTION ( 'NONE',  ( 1.000000000000000000, 0.0000000000000000000, 0.0000000000000000000 ) ) ;
#132 = CARTESIAN_POINT ( 'NONE',  ( 0.0000000000000000000, 0.0000000000000000000, 24.92003288749603800 ) ) ;
#133 = DIRECTION ( 'NONE',  ( -1.000000000000000000, 0.0000000000000000000, -0.0000000000000000000 ) ) ;
#134 = DIRECTION ( 'NONE',  ( -0.0000000000000000000, -0.0000000000000000000, 1.000000000000000000 ) ) ;
#135 = DIRECTION ( 'NONE',  ( 0.0000000000000000000, -1.000000000000000000, 0.0000000000000000000 ) ) ;
#136 = DIRECTION ( 'NONE',  ( 1.224646799147353200E-016, 1.000000000000000000, 0.0000000000000000000 ) ) ;
#137 = CARTESIAN_POINT ( 'NONE',  ( 103.4998365881319600, 0.0000000000000000000, 19.42936733673289100 ) ) ;
#138 = CARTESIAN_POINT ( 'NONE',  ( 0.0000000000000000000, 0.0000000000000000000, 19.25209541411364400 ) ) ;
#139 = DIRECTION ( 'NONE',  ( -1.000000000000000000, 1.224646799147353500E-016, 0.0000000000000000000 ) ) ;
#140 = DIRECTION ( 'NONE',  ( 0.0000000000000000000, 0.0000000000000000000, -1.000000000000000000 ) ) ;
#141 = DIRECTION ( 'NONE',  ( -0.0000000000000000000, -0.0000000000000000000, 1.000000000000000000 ) ) ;
#142 = CARTESIAN_POINT ( 'NONE',  ( 0.0000000000000000000, 0.0000000000000000000, 2.999999999999999600 ) ) ;
#143 = DIRECTION ( 'NONE',  ( 1.000000000000000000, 0.0000000000000000000, 0.0000000000000000000 ) ) ;
#144 = DIRECTION ( 'NONE',  ( 0.0000000000000000000, -1.000000000000000000, 0.0000000000000000000 ) ) ;
#145 = DIRECTION ( 'NONE',  ( -0.0000000000000000000, -0.0000000000000000000, 1.000000000000000000 ) ) ;
#146 = DIRECTION ( 'NONE',  ( 1.000000000000000000, 0.0000000000000000000, 0.0000000000000000000 ) ) ;
#147 = PLANE ( 'NONE',  #99 ) ;
#148 = DIRECTION ( 'NONE',  ( -0.0000000000000000000, -0.0000000000000000000, 1.000000000000000000 ) ) ;
#149 = DIRECTION ( 'NONE',  ( 1.000000000000000000, 0.0000000000000000000, 0.0000000000000000000 ) ) ;
#150 = CARTESIAN_POINT ( 'NONE',  ( 0.0000000000000000000, 0.0000000000000000000, 19.24500453720881400 ) ) ;
#151 = DIRECTION ( 'NONE',  ( 1.000000000000000000, 0.0000000000000000000, 0.0000000000000000000 ) ) ;
#152 = DIRECTION ( 'NONE',  ( 1.000000000000000000, 0.0000000000000000000, 0.0000000000000000000 ) ) ;
#153 = DIRECTION ( 'NONE',  ( -0.0000000000000000000, -0.0000000000000000000, 1.000000000000000000 ) ) ;
#154 = CARTESIAN_POINT ( 'NONE',  ( 0.5000000000000000000, -6.123233995736766000E-017, 19.24500453720881400 ) ) ;
#155 = DIRECTION ( 'NONE',  ( 1.000000000000000000, 0.0000000000000000000, 0.0000000000000000000 ) ) ;
#156 = DIRECTION ( 'NONE',  ( 0.0000000000000000000, 0.0000000000000000000, -1.000000000000000000 ) ) ;
#157 = CARTESIAN_POINT ( 'NONE',  ( 3.000000000000000000, 0.0000000000000000000, 2.000000000000001800 ) ) ;
#158 = DIRECTION ( 'NONE',  ( -0.0000000000000000000, -0.0000000000000000000, 1.000000000000000000 ) ) ;
#159 = CARTESIAN_POINT ( 'NONE',  ( 0.0000000000000000000, 3.000000000000000400, 0.0000000000000000000 ) ) ;
#160 = CARTESIAN_POINT ( 'NONE',  ( 0.0000000000000000000, 0.0000000000000000000, 2.000000000000001800 ) ) ;
#161 = DIRECTION ( 'NONE',  ( 0.0000000000000000000, 0.0000000000000000000, -1.000000000000000000 ) ) ;
#162 = DIRECTION ( 'NONE',  ( 0.0000000000000000000, -0.0000000000000000000, 1.000000000000000000 ) ) ;
#163 = ORIENTED_EDGE ( 'NONE', *, *, #35, .F. ) ;
#164 = ORIENTED_EDGE ( 'NONE', *, *, #303, .T. ) ;
#165 = ORIENTED_EDGE ( 'NONE', *, *, #58, .T. ) ;
#166 = ORIENTED_EDGE ( 'NONE', *, *, #55, .F. ) ;
#167 = ORIENTED_EDGE ( 'NONE', *, *, #311, .T. ) ;
#168 = ORIENTED_EDGE ( 'NONE', *, *, #54, .F. ) ;
#169 = FACE_OUTER_BOUND ( 'NONE', #198, .T. ) ;
#170 = ORIENTED_EDGE ( 'NONE', *, *, #37, .T. ) ;
#171 = FACE_OUTER_BOUND ( 'NONE', #210, .T. ) ;
#172 = ORIENTED_EDGE ( 'NONE', *, *, #306, .T. ) ;
#173 = ORIENTED_EDGE ( 'NONE', *, *, #298, .F. ) ;
#174 = ORIENTED_EDGE ( 'NONE', *, *, #305, .F. ) ;
#175 = EDGE_LOOP ( 'NONE', ( #236, #237 ) ) ;
#176 = ORIENTED_EDGE ( 'NONE', *, *, #312, .T. ) ;
#177 = ORIENTED_EDGE ( 'NONE', *, *, #35, .T. ) ;
#178 = ORIENTED_EDGE ( 'NONE', *, *, #32, .T. ) ;
#179 = ORIENTED_EDGE ( 'NONE', *, *, #31, .T. ) ;
#180 = ORIENTED_EDGE ( 'NONE', *, *, #302, .T. ) ;
#181 = ORIENTED_EDGE ( 'NONE', *, *, #56, .F. ) ;
#182 = ORIENTED_EDGE ( 'NONE', *, *, #53, .F. ) ;
#183 = ORIENTED_EDGE ( 'NONE', *, *, #55, .T. ) ;
#184 = ORIENTED_EDGE ( 'NONE', *, *, #32, .F. ) ;
#185 = ORIENTED_EDGE ( 'NONE', *, *, #307, .F. ) ;
#186 = ORIENTED_EDGE ( 'NONE', *, *, #57, .F. ) ;
#187 = ORIENTED_EDGE ( 'NONE', *, *, #304, .F. ) ;
#188 = ORIENTED_EDGE ( 'NONE', *, *, #304, .T. ) ;
#189 = EDGE_LOOP ( 'NONE', ( #219, #180, #188, #163 ) ) ;
#190 = ORIENTED_EDGE ( 'NONE', *, *, #305, .T. ) ;
#191 = ORIENTED_EDGE ( 'NONE', *, *, #301, .T. ) ;
#192 = CLOSED_SHELL ( 'NONE', ( #51, #50, #44, #46, #52, #43, #45, #48, #49, #47, #41, #40, #42 ) ) ;
#193 = EDGE_LOOP ( 'NONE', ( #229, #231, #230, #166 ) ) ;
#194 = EDGE_LOOP ( 'NONE', ( #181, #165, #183, #168 ) ) ;
#195 = EDGE_LOOP ( 'NONE', ( #182, #241, #176, #235 ) ) ;
#196 = EDGE_LOOP ( 'NONE', ( #187, #220, #226, #208 ) ) ;
#197 = ORIENTED_EDGE ( 'NONE', *, *, #34, .T. ) ;
#198 = EDGE_LOOP ( 'NONE', ( #228, #227, #177, #234 ) ) ;
#199 = EDGE_LOOP ( 'NONE', ( #184, #218 ) ) ;
#200 = VERTEX_POINT ( 'NONE', #368 ) ;
#201 = ORIENTED_EDGE ( 'NONE', *, *, #312, .F. ) ;
#202 = EDGE_LOOP ( 'NONE', ( #232, #242, #240, #233 ) ) ;
#203 = VERTEX_POINT ( 'NONE', #382 ) ;
#204 = VERTEX_POINT ( 'NONE', #355 ) ;
#205 = VERTEX_POINT ( 'NONE', #356 ) ;
#206 = VERTEX_POINT ( 'NONE', #374 ) ;
#207 = VERTEX_POINT ( 'NONE', #390 ) ;
#208 = ORIENTED_EDGE ( 'NONE', *, *, #303, .F. ) ;
#209 = VERTEX_POINT ( 'NONE', #387 ) ;
#210 = EDGE_LOOP ( 'NONE', ( #173, #185, #164, #167 ) ) ;
#211 = VERTEX_POINT ( 'NONE', #379 ) ;
#212 = EDGE_LOOP ( 'NONE', ( #172, #179 ) ) ;
#213 = VERTEX_POINT ( 'NONE', #376 ) ;
#214 = EDGE_LOOP ( 'NONE', ( #178, #197, #216, #186 ) ) ;
#215 = EDGE_LOOP ( 'NONE', ( #170, #239, #174, #201 ) ) ;
#216 = ORIENTED_EDGE ( 'NONE', *, *, #33, .F. ) ;
#217 = EDGE_LOOP ( 'NONE', ( #190, #191 ) ) ;
#218 = ORIENTED_EDGE ( 'NONE', *, *, #300, .F. ) ;
#219 = ORIENTED_EDGE ( 'NONE', *, *, #31, .F. ) ;
#220 = ORIENTED_EDGE ( 'NONE', *, *, #298, .T. ) ;
#221 = VERTEX_POINT ( 'NONE', #375 ) ;
#222 = VERTEX_POINT ( 'NONE', #354 ) ;
#223 = VERTEX_POINT ( 'NONE', #350 ) ;
#224 = VERTEX_POINT ( 'NONE', #396 ) ;
#225 = VERTEX_POINT ( 'NONE', #395 ) ;
#226 = ORIENTED_EDGE ( 'NONE', *, *, #299, .T. ) ;
#227 = ORIENTED_EDGE ( 'NONE', *, *, #306, .F. ) ;
#228 = ORIENTED_EDGE ( 'NONE', *, *, #302, .F. ) ;
#229 = ORIENTED_EDGE ( 'NONE', *, *, #34, .F. ) ;
#230 = ORIENTED_EDGE ( 'NONE', *, *, #57, .T. ) ;
#231 = ORIENTED_EDGE ( 'NONE', *, *, #300, .T. ) ;
#232 = ORIENTED_EDGE ( 'NONE', *, *, #58, .F. ) ;
#233 = ORIENTED_EDGE ( 'NONE', *, *, #33, .T. ) ;
#234 = ORIENTED_EDGE ( 'NONE', *, *, #307, .T. ) ;
#235 = ORIENTED_EDGE ( 'NONE', *, *, #301, .F. ) ;
#236 = ORIENTED_EDGE ( 'NONE', *, *, #311, .F. ) ;
#237 = ORIENTED_EDGE ( 'NONE', *, *, #299, .F. ) ;
#238 = CYLINDRICAL_SURFACE ( 'NONE', #120, 1.899999999999998600 ) ;
#239 = ORIENTED_EDGE ( 'NONE', *, *, #53, .T. ) ;
#240 = ORIENTED_EDGE ( 'NONE', *, *, #54, .T. ) ;
#241 = ORIENTED_EDGE ( 'NONE', *, *, #56, .T. ) ;
#242 = ORIENTED_EDGE ( 'NONE', *, *, #37, .F. ) ;
#243 = FACE_OUTER_BOUND ( 'NONE', #215, .T. ) ;
#244 = FACE_OUTER_BOUND ( 'NONE', #217, .T. ) ;
#245 = FACE_BOUND ( 'NONE', #175, .T. ) ;
#246 = FACE_OUTER_BOUND ( 'NONE', #212, .T. ) ;
#247 = FACE_OUTER_BOUND ( 'NONE', #194, .T. ) ;
#248 = CYLINDRICAL_SURFACE ( 'NONE', #109, 1.899999999999998600 ) ;
#249 = FACE_OUTER_BOUND ( 'NONE', #195, .T. ) ;
#250 = LINE ( 'NONE', #370, #78 ) ;
#251 = LINE ( 'NONE', #394, #71 ) ;
#252 = FACE_OUTER_BOUND ( 'NONE', #199, .T. ) ;
#253 = FACE_OUTER_BOUND ( 'NONE', #214, .T. ) ;
#254 = FACE_OUTER_BOUND ( 'NONE', #193, .T. ) ;
#255 = APPROVAL_PERSON_ORGANIZATION ( #284, #397, #292 ) ;
#256 = ORGANIZATION ( 'UNSPECIFIED', 'UNSPECIFIED', '' ) ;
#257 = PERSON_AND_ORGANIZATION ( #295, #256 ) ;
#258 = APPROVAL_DATE_TIME ( #260, #406 ) ;
#259 = CALENDAR_DATE ( 2012, 27, 3 ) ;
#260 = DATE_AND_TIME ( #262, #39 ) ;
#261 = SHAPE_DEFINITION_REPRESENTATION ( #297, #128 ) ;
#262 = CALENDAR_DATE ( 2012, 27, 3 ) ;
#263 = COORDINATED_UNIVERSAL_TIME_OFFSET ( 9, 0, .AHEAD. ) ;
#264 = APPROVAL_PERSON_ORGANIZATION ( #265, #406, #17 ) ;
#265 = PERSON_AND_ORGANIZATION ( #295, #256 ) ;
#266 = PERSON_AND_ORGANIZATION ( #295, #256 ) ;
#267 = PERSON_AND_ORGANIZATION ( #295, #256 ) ;
#268 = COORDINATED_UNIVERSAL_TIME_OFFSET ( 9, 0, .AHEAD. ) ;
#269 = APPROVAL_PERSON_ORGANIZATION ( #267, #398, #7 ) ;
#270 = DATE_AND_TIME ( #271, #38 ) ;
#271 = CALENDAR_DATE ( 2012, 27, 3 ) ;
#272 = PERSON_AND_ORGANIZATION ( #295, #256 ) ;
#273 = APPROVAL_DATE_TIME ( #276, #398 ) ;
#274 = PERSON_AND_ORGANIZATION ( #295, #256 ) ;
#275 = COORDINATED_UNIVERSAL_TIME_OFFSET ( 9, 0, .AHEAD. ) ;
#276 = DATE_AND_TIME ( #259, #310 ) ;
#277 = FACE_OUTER_BOUND ( 'NONE', #196, .T. ) ;
#278 = FACE_OUTER_BOUND ( 'NONE', #189, .T. ) ;
#279 = APPROVAL_DATE_TIME ( #286, #397 ) ;
#280 = FACE_OUTER_BOUND ( 'NONE', #202, .T. ) ;
#281 = COORDINATED_UNIVERSAL_TIME_OFFSET ( 9, 0, .AHEAD. ) ;
#282 = COORDINATED_UNIVERSAL_TIME_OFFSET ( 9, 0, .AHEAD. ) ;
#283 = CALENDAR_DATE ( 2012, 27, 3 ) ;
#284 = PERSON_AND_ORGANIZATION ( #295, #256 ) ;
#285 = CALENDAR_DATE ( 2012, 27, 3 ) ;
#286 = DATE_AND_TIME ( #285, #308 ) ;
#287 = PERSON_AND_ORGANIZATION ( #295, #256 ) ;
#288 = DATE_AND_TIME ( #283, #309 ) ;
#289 = APPROVAL_STATUS ( 'not_yet_approved' ) ;
#290 = PERSON_AND_ORGANIZATION_ROLE ( 'classification_officer' ) ;
#291 = DATE_TIME_ROLE ( 'classification_date' ) ;
#292 = APPROVAL_ROLE ( '' ) ;
#293 = UNCERTAINTY_MEASURE_WITH_UNIT (LENGTH_MEASURE( 1.000000000000000100E-005 ), #365, 'distance_accuracy_value', 'NONE');
#294 = PRODUCT ( 'C-30-MC-4', 'C-30-MC-4', '', ( #2 ) ) ;
#295 = PERSON ( 'UNSPECIFIED', 'UNSPECIFIED', 'UNSPECIFIED', ('UNSPECIFIED'), ('UNSPECIFIED'), ('UNSPECIFIED') ) ;
#296 = DESIGN_CONTEXT ( 'detailed design', #8, 'design' ) ;
#297 = PRODUCT_DEFINITION_SHAPE ( 'NONE', 'NONE',  #408 ) ;
#298 = EDGE_CURVE ( 'NONE', #204, #222, #251, .T. ) ;
#299 = EDGE_CURVE ( 'NONE', #222, #221, #83, .T. ) ;
#300 = EDGE_CURVE ( 'NONE', #200, #207, #98, .T. ) ;
#301 = EDGE_CURVE ( 'NONE', #223, #225, #89, .T. ) ;
#302 = EDGE_CURVE ( 'NONE', #209, #204, #69, .T. ) ;
#303 = EDGE_CURVE ( 'NONE', #206, #221, #250, .T. ) ;
#304 = EDGE_CURVE ( 'NONE', #204, #206, #112, .T. ) ;
#305 = EDGE_CURVE ( 'NONE', #225, #223, #90, .T. ) ;
#306 = EDGE_CURVE ( 'NONE', #205, #209, #60, .T. ) ;
#307 = EDGE_CURVE ( 'NONE', #206, #204, #77, .T. ) ;
#308 = LOCAL_TIME ( 15, 46, 31.00000000000000000, #281 ) ;
#309 = LOCAL_TIME ( 15, 46, 31.00000000000000000, #282 ) ;
#310 = LOCAL_TIME ( 15, 46, 31.00000000000000000, #268 ) ;
#311 = EDGE_CURVE ( 'NONE', #221, #222, #81, .T. ) ;
#312 = EDGE_CURVE ( 'NONE', #213, #225, #125, .T. ) ;
#313 = DIRECTION ( 'NONE',  ( 1.000000000000000000, 0.0000000000000000000, 0.0000000000000000000 ) ) ;
#314 = CARTESIAN_POINT ( 'NONE',  ( 0.0000000000000000000, -2.449212707644754000E-016, 2.000000000000000000 ) ) ;
#315 = CARTESIAN_POINT ( 'NONE',  ( 0.0000000000000000000, 0.0000000000000000000, 2.999999999999999600 ) ) ;
#316 = DIRECTION ( 'NONE',  ( -0.0000000000000000000, -0.0000000000000000000, 1.000000000000000000 ) ) ;
#317 = DIRECTION ( 'NONE',  ( 1.000000000000000000, 0.0000000000000000000, 0.0000000000000000000 ) ) ;
#318 = CARTESIAN_POINT ( 'NONE',  ( 0.0000000000000000000, 0.0000000000000000000, 19.24500453720881400 ) ) ;
#319 = DIRECTION ( 'NONE',  ( -0.0000000000000000000, -0.0000000000000000000, 1.000000000000000000 ) ) ;
#320 = PLANE ( 'NONE',  #111 ) ;
#321 = DIRECTION ( 'NONE',  ( 1.000000000000000000, 0.0000000000000000000, 0.0000000000000000000 ) ) ;
#322 = DIRECTION ( 'NONE',  ( 0.0000000000000000000, -1.000000000000000000, 0.0000000000000000000 ) ) ;
#323 = CARTESIAN_POINT ( 'NONE',  ( 0.0000000000000000000, 0.0000000000000000000, 19.25209541411364400 ) ) ;
#324 = DIRECTION ( 'NONE',  ( 1.000000000000000000, 0.0000000000000000000, 0.0000000000000000000 ) ) ;
#325 = DIRECTION ( 'NONE',  ( 0.0000000000000000000, 0.0000000000000000000, -1.000000000000000000 ) ) ;
#326 = CARTESIAN_POINT ( 'NONE',  ( 0.0000000000000000000, 0.0000000000000000000, 2.000000000000001800 ) ) ;
#327 = DIRECTION ( 'NONE',  ( -0.0000000000000000000, -0.0000000000000000000, 1.000000000000000000 ) ) ;
#328 = DIRECTION ( 'NONE',  ( 0.0000000000000000000, 0.0000000000000000000, -1.000000000000000000 ) ) ;
#329 = DIRECTION ( 'NONE',  ( -0.0000000000000000000, -0.0000000000000000000, 1.000000000000000000 ) ) ;
#330 = DIRECTION ( 'NONE',  ( -0.0000000000000000000, -0.0000000000000000000, 1.000000000000000000 ) ) ;
#331 = CARTESIAN_POINT ( 'NONE',  ( 0.0000000000000000000, 0.0000000000000000000, 24.92003288749603800 ) ) ;
#332 = CARTESIAN_POINT ( 'NONE',  ( 0.0000000000000000000, 0.0000000000000000000, 19.42936733673289100 ) ) ;
#333 = CARTESIAN_POINT ( 'NONE',  ( 0.8999999999999998000, 0.0000000000000000000, 2.999999999999999600 ) ) ;
#334 = DIRECTION ( 'NONE',  ( 1.000000000000000000, 0.0000000000000000000, 0.0000000000000000000 ) ) ;
#335 = DIRECTION ( 'NONE',  ( -0.0000000000000000000, -0.0000000000000000000, 1.000000000000000000 ) ) ;
#336 = CARTESIAN_POINT ( 'NONE',  ( 0.0000000000000000000, 2.399999999999999900, 22.00000000000000000 ) ) ;
#337 = PLANE ( 'NONE',  #115 ) ;
#338 = CARTESIAN_POINT ( 'NONE',  ( 0.0000000000000000000, 0.0000000000000000000, 19.42936733673289100 ) ) ;
#339 = DIRECTION ( 'NONE',  ( -1.000000000000000000, 0.0000000000000000000, -0.0000000000000000000 ) ) ;
#340 = DIRECTION ( 'NONE',  ( 1.000000000000000000, 0.0000000000000000000, 0.0000000000000000000 ) ) ;
#341 = DIRECTION ( 'NONE',  ( -0.0000000000000000000, -0.0000000000000000000, 1.000000000000000000 ) ) ;
#342 = DIRECTION ( 'NONE',  ( 1.000000000000000000, 0.0000000000000000000, 0.0000000000000000000 ) ) ;
#343 = DIRECTION ( 'NONE',  ( 0.0000000000000000000, -1.000000000000000000, 0.0000000000000000000 ) ) ;
#344 = CARTESIAN_POINT ( 'NONE',  ( -0.5000000000000000000, 0.0000000000000000000, 19.24500453720881400 ) ) ;
#345 = DIRECTION ( 'NONE',  ( 1.000000000000000000, 0.0000000000000000000, 0.0000000000000000000 ) ) ;
#346 = DIRECTION ( 'NONE',  ( -0.0000000000000000000, -0.0000000000000000000, 1.000000000000000000 ) ) ;
#347 = CARTESIAN_POINT ( 'NONE',  ( 0.0000000000000000000, 0.0000000000000000000, 22.00000000000000000 ) ) ;
#348 = DIRECTION ( 'NONE',  ( 0.0000000000000000000, 0.0000000000000000000, -1.000000000000000000 ) ) ;
#349 = DIRECTION ( 'NONE',  ( 1.000000000000000000, 0.0000000000000000000, 0.0000000000000000000 ) ) ;
#350 = CARTESIAN_POINT ( 'NONE',  ( -2.399999999999999900, 3.612704208988131500E-016, 22.00000000000000000 ) ) ;
#351 = DIRECTION ( 'NONE',  ( -0.0000000000000000000, -0.0000000000000000000, 1.000000000000000000 ) ) ;
#352 = CARTESIAN_POINT ( 'NONE',  ( 0.0000000000000000000, 0.0000000000000000000, 2.999999999999999100 ) ) ;
#353 = DIRECTION ( 'NONE',  ( 1.000000000000000000, 0.0000000000000000000, 0.0000000000000000000 ) ) ;
#354 = CARTESIAN_POINT ( 'NONE',  ( -1.899999999999997200, 2.326828918379968400E-016, 22.00000000000000000 ) ) ;
#355 = CARTESIAN_POINT ( 'NONE',  ( -1.899999999999999700, 2.326828918379970400E-016, 2.999999999999999100 ) ) ;
#356 = CARTESIAN_POINT ( 'NONE',  ( 0.8999999999999999100, 0.0000000000000000000, 1.999999999999998200 ) ) ;
#357 = CARTESIAN_POINT ( 'NONE',  ( -103.4998365881319600, 1.267507435899299200E-014, 19.42936733673289100 ) ) ;
#358 = DIRECTION ( 'NONE',  ( -0.0000000000000000000, -0.0000000000000000000, 1.000000000000000000 ) ) ;
#359 = DIRECTION ( 'NONE',  ( -1.000000000000000000, 1.224646799147353000E-016, 0.0000000000000000000 ) ) ;
#360 = CARTESIAN_POINT ( 'NONE',  ( 0.0000000000000000000, 0.0000000000000000000, 1.999999999999998200 ) ) ;
#361 = DIRECTION ( 'NONE',  ( 1.000000000000000000, 0.0000000000000000000, 0.0000000000000000000 ) ) ;
#362 = DIRECTION ( 'NONE',  ( -0.0000000000000000000, -0.0000000000000000000, 1.000000000000000000 ) ) ;
#363 = CARTESIAN_POINT ( 'NONE',  ( 0.0000000000000000000, 0.0000000000000000000, 22.00000000000000000 ) ) ;
#364 = DIRECTION ( 'NONE',  ( 1.000000000000000000, 0.0000000000000000000, 0.0000000000000000000 ) ) ;
#365 =( LENGTH_UNIT ( ) NAMED_UNIT ( * ) SI_UNIT ( .MILLI., .METRE. ) );
#366 = DIRECTION ( 'NONE',  ( -0.0000000000000000000, -0.0000000000000000000, 1.000000000000000000 ) ) ;
#367 = CARTESIAN_POINT ( 'NONE',  ( 0.0000000000000000000, 0.0000000000000000000, 2.999999999999999100 ) ) ;
#368 = CARTESIAN_POINT ( 'NONE',  ( -3.000000000000000400, 4.880575722858603800E-016, 0.0000000000000000000 ) ) ;
#369 = DIRECTION ( 'NONE',  ( -0.0000000000000000000, -0.0000000000000000000, 1.000000000000000000 ) ) ;
#370 = CARTESIAN_POINT ( 'NONE',  ( 1.899999999999998600, 0.0000000000000000000, 24.92003288749603800 ) ) ;
#371 = DIRECTION ( 'NONE',  ( -1.000000000000000000, 1.224646799147353200E-016, 0.0000000000000000000 ) ) ;
#372 = DIRECTION ( 'NONE',  ( 1.224646799147353200E-016, 1.000000000000000000, 0.0000000000000000000 ) ) ;
#373 = CARTESIAN_POINT ( 'NONE',  ( -0.8999999999999998000, 1.102182119232617500E-016, 2.999999999999999600 ) ) ;
#374 = CARTESIAN_POINT ( 'NONE',  ( 1.899999999999999700, 0.0000000000000000000, 2.999999999999999100 ) ) ;
#375 = CARTESIAN_POINT ( 'NONE',  ( 1.899999999999997200, 0.0000000000000000000, 22.00000000000000000 ) ) ;
#376 = CARTESIAN_POINT ( 'NONE',  ( 3.499993714928145900, 0.0000000000000000000, 19.25209541411364400 ) ) ;
#377 = DIRECTION ( 'NONE',  ( 1.000000000000000000, 0.0000000000000000000, 0.0000000000000000000 ) ) ;
#378 =( NAMED_UNIT ( * ) SI_UNIT ( $, .STERADIAN. ) SOLID_ANGLE_UNIT ( ) );
#379 = CARTESIAN_POINT ( 'NONE',  ( 4.970585031139831900, 0.0000000000000000000, 2.341752300720255000 ) ) ;
#380 = DIRECTION ( 'NONE',  ( -0.0000000000000000000, -0.0000000000000000000, 1.000000000000000000 ) ) ;
#381 = CARTESIAN_POINT ( 'NONE',  ( 0.0000000000000000000, 0.0000000000000000000, 22.00000000000000000 ) ) ;
#382 = CARTESIAN_POINT ( 'NONE',  ( -3.499993714928145900, 4.286256100022607500E-016, 19.25209541411364400 ) ) ;
#383 = DIRECTION ( 'NONE',  ( 1.000000000000000000, 0.0000000000000000000, 0.0000000000000000000 ) ) ;
#384 =( NAMED_UNIT ( * ) PLANE_ANGLE_UNIT ( ) SI_UNIT ( $, .RADIAN. ) );
#385 = DIRECTION ( 'NONE',  ( -0.0000000000000000000, -0.0000000000000000000, 1.000000000000000000 ) ) ;
#386 = CARTESIAN_POINT ( 'NONE',  ( 0.0000000000000000000, 0.0000000000000000000, 0.0000000000000000000 ) ) ;
#387 = CARTESIAN_POINT ( 'NONE',  ( -0.8999999999999999100, 1.714505518806294100E-016, 1.999999999999998200 ) ) ;
#388 = DIRECTION ( 'NONE',  ( 1.000000000000000000, 0.0000000000000000000, 0.0000000000000000000 ) ) ;
#389 = DIRECTION ( 'NONE',  ( -0.0000000000000000000, -0.0000000000000000000, 1.000000000000000000 ) ) ;
#390 = CARTESIAN_POINT ( 'NONE',  ( 3.000000000000000400, 0.0000000000000000000, 0.0000000000000000000 ) ) ;
#391 = CARTESIAN_POINT ( 'NONE',  ( 0.0000000000000000000, 0.0000000000000000000, 22.00000000000000000 ) ) ;
#392 = DIRECTION ( 'NONE',  ( 1.224646799147353200E-016, 1.000000000000000000, 0.0000000000000000000 ) ) ;
#393 = DIRECTION ( 'NONE',  ( -0.0000000000000000000, -0.0000000000000000000, 1.000000000000000000 ) ) ;
#394 = CARTESIAN_POINT ( 'NONE',  ( -1.899999999999998600, 2.326828918379969400E-016, 24.92003288749603800 ) ) ;
#395 = CARTESIAN_POINT ( 'NONE',  ( 2.399999999999999900, 0.0000000000000000000, 22.00000000000000000 ) ) ;
#396 = CARTESIAN_POINT ( 'NONE',  ( -4.970585031139831900, 6.087211048275145300E-016, 2.341752300720255000 ) ) ;
#397 = APPROVAL ( #289, 'UNSPECIFIED' ) ;
#398 = APPROVAL ( #16, 'UNSPECIFIED' ) ;
#399 = PRODUCT_DEFINITION_FORMATION_WITH_SPECIFIED_SOURCE ( 'ANY', '', #294, .NOT_KNOWN. ) ;
#400 = CC_DESIGN_DATE_AND_TIME_ASSIGNMENT ( #288, #291, ( #402 ) ) ;
#401 = CC_DESIGN_APPROVAL ( #397, ( #402 ) ) ;
#402 = SECURITY_CLASSIFICATION ( '', '', #1 ) ;
#403 = CC_DESIGN_APPROVAL ( #406, ( #408 ) ) ;
#404 = CC_DESIGN_DATE_AND_TIME_ASSIGNMENT ( #270, #4, ( #408 ) ) ;
#405 = CC_DESIGN_PERSON_AND_ORGANIZATION_ASSIGNMENT ( #274, #11, ( #399 ) ) ;
#406 = APPROVAL ( #15, 'UNSPECIFIED' ) ;
#407 = PRODUCT_RELATED_PRODUCT_CATEGORY ( 'detail', '', ( #294 ) ) ;
#408 = PRODUCT_DEFINITION ( 'UNKNOWN', '', #399, #296 ) ;
#409 = CC_DESIGN_PERSON_AND_ORGANIZATION_ASSIGNMENT ( #257, #9, ( #408 ) ) ;
#410 = CC_DESIGN_SECURITY_CLASSIFICATION ( #402, ( #399 ) ) ;
#411 = CC_DESIGN_APPROVAL ( #398, ( #399 ) ) ;
#412 = CC_DESIGN_PERSON_AND_ORGANIZATION_ASSIGNMENT ( #272, #5, ( #399 ) ) ;
#413 = CC_DESIGN_PERSON_AND_ORGANIZATION_ASSIGNMENT ( #287, #290, ( #402 ) ) ;
ENDSEC;
END-ISO-10303-21;
