ISO-10303-21;
HEADER;
FILE_DESCRIPTION (( 'STEP AP203' ),
    '1' );
FILE_NAME ('C-30-MC-3.STEP',
    '2012-03-27T06:45:13',
    ( '11sw' ),
    ( '^LQ»¢®ïÐ' ),
    'SwSTEP 2.0',
    'SolidWorks 2011',
    '' );
FILE_SCHEMA (( 'CONFIG_CONTROL_DESIGN' ));
ENDSEC;

DATA;
#1 = APPROVAL_STATUS ( 'not_yet_approved' ) ;
#2 = APPROVAL_ROLE ( '' ) ;
#3 = APPROVAL_STATUS ( 'not_yet_approved' ) ;
#4 = SECURITY_CLASSIFICATION_LEVEL ( 'unclassified' ) ;
#5 = DATE_TIME_ROLE ( 'creation_date' ) ;
#6 = DATE_TIME_ROLE ( 'classification_date' ) ;
#7 = APPROVAL_ROLE ( '' ) ;
#8 = PERSON_AND_ORGANIZATION_ROLE ( 'design_supplier' ) ;
#9 = PERSON_AND_ORGANIZATION_ROLE ( 'creator' ) ;
#10 = PERSON_AND_ORGANIZATION_ROLE ( 'classification_officer' ) ;
#11 = FACE_OUTER_BOUND ( 'NONE', #187, .T. ) ;
#12 = CYLINDRICAL_SURFACE ( 'NONE', #82, 1.249999999999998900 ) ;
#13 = FACE_OUTER_BOUND ( 'NONE', #384, .T. ) ;
#14 = FACE_OUTER_BOUND ( 'NONE', #347, .T. ) ;
#15 = CYLINDRICAL_SURFACE ( 'NONE', #116, 1.249999999999998900 ) ;
#16 = LINE ( 'NONE', #291, #110 ) ;
#17 = FACE_OUTER_BOUND ( 'NONE', #189, .T. ) ;
#18 = FACE_OUTER_BOUND ( 'NONE', #396, .T. ) ;
#19 = FACE_OUTER_BOUND ( 'NONE', #371, .T. ) ;
#20 = FACE_OUTER_BOUND ( 'NONE', #408, .T. ) ;
#21 = FACE_OUTER_BOUND ( 'NONE', #190, .T. ) ;
#22 = SHAPE_DEFINITION_REPRESENTATION ( #196, #344 ) ;
#23 = FACE_OUTER_BOUND ( 'NONE', #184, .T. ) ;
#24 = AXIS2_PLACEMENT_3D ( 'NONE', #273, #323, #299 ) ;
#25 = TOROIDAL_SURFACE ( 'NONE', #26, -1.250000000000000000, 4.000000000000008900 ) ;
#26 = AXIS2_PLACEMENT_3D ( 'NONE', #252, #284, #250 ) ;
#27 = CIRCLE ( 'NONE', #24, 4.465469062812762700 ) ;
#28 = EDGE_CURVE ( 'NONE', #367, #363, #27, .T. ) ;
#29 = EDGE_CURVE ( 'NONE', #410, #348, #76, .T. ) ;
#30 = EDGE_CURVE ( 'NONE', #372, #374, #80, .T. ) ;
#31 = EDGE_CURVE ( 'NONE', #366, #368, #148, .T. ) ;
#32 = LOCAL_TIME ( 15, 45, 13.00000000000000000, #173 ) ;
#33 = ADVANCED_FACE ( 'NONE', ( #194 ), #25, .T. ) ;
#34 = ADVANCED_FACE ( 'NONE', ( #188, #183 ), #286, .F. ) ;
#35 = EDGE_CURVE ( 'NONE', #372, #348, #186, .T. ) ;
#36 = ADVANCED_FACE ( 'NONE', ( #341 ), #86, .T. ) ;
#37 = ADVANCED_FACE ( 'NONE', ( #342 ), #272, .F. ) ;
#38 = ADVANCED_FACE ( 'NONE', ( #21 ), #90, .F. ) ;
#39 = ADVANCED_FACE ( 'NONE', ( #23 ), #258, .F. ) ;
#40 = ADVANCED_FACE ( 'NONE', ( #14 ), #103, .F. ) ;
#41 = EDGE_CURVE ( 'NONE', #360, #363, #121, .T. ) ;
#42 = EDGE_CURVE ( 'NONE', #361, #353, #122, .T. ) ;
#43 = LOCAL_TIME ( 15, 45, 13.00000000000000000, #155 ) ;
#44 = EDGE_CURVE ( 'NONE', #374, #372, #78, .T. ) ;
#45 = EDGE_CURVE ( 'NONE', #363, #367, #89, .T. ) ;
#46 = ADVANCED_FACE ( 'NONE', ( #17 ), #147, .T. ) ;
#47 = ADVANCED_FACE ( 'NONE', ( #11 ), #12, .F. ) ;
#48 = EDGE_CURVE ( 'NONE', #387, #361, #132, .T. ) ;
#49 = EDGE_CURVE ( 'NONE', #360, #382, #109, .T. ) ;
#50 = EDGE_CURVE ( 'NONE', #368, #366, #112, .T. ) ;
#51 = EDGE_CURVE ( 'NONE', #387, #363, #131, .T. ) ;
#52 = EDGE_CURVE ( 'NONE', #368, #372, #104, .T. ) ;
#53 = ADVANCED_FACE ( 'NONE', ( #13 ), #91, .F. ) ;
#54 = EDGE_CURVE ( 'NONE', #382, #360, #113, .T. ) ;
#55 = EDGE_CURVE ( 'NONE', #346, #353, #151, .T. ) ;
#56 = EDGE_CURVE ( 'NONE', #374, #410, #16, .T. ) ;
#57 = LOCAL_TIME ( 15, 45, 13.00000000000000000, #182 ) ;
#58 = EDGE_CURVE ( 'NONE', #382, #367, #81, .T. ) ;
#59 = EDGE_CURVE ( 'NONE', #361, #387, #145, .T. ) ;
#60 = EDGE_CURVE ( 'NONE', #348, #410, #126, .T. ) ;
#61 = EDGE_CURVE ( 'NONE', #366, #374, #114, .T. ) ;
#62 = ADVANCED_FACE ( 'NONE', ( #19 ), #15, .F. ) ;
#63 = EDGE_CURVE ( 'NONE', #353, #346, #102, .T. ) ;
#64 = LOCAL_TIME ( 15, 45, 13.00000000000000000, #154 ) ;
#65 = ADVANCED_FACE ( 'NONE', ( #18 ), #72, .T. ) ;
#66 = EDGE_CURVE ( 'NONE', #387, #346, #75, .T. ) ;
#67 =( GEOMETRIC_REPRESENTATION_CONTEXT ( 3 ) GLOBAL_UNCERTAINTY_ASSIGNED_CONTEXT ( ( #199 ) ) GLOBAL_UNIT_ASSIGNED_CONTEXT ( ( #233, #238, #208 ) ) REPRESENTATION_CONTEXT ( 'NONE', 'WORKASPACE' ) );
#68 = EDGE_CURVE ( 'NONE', #361, #367, #127, .T. ) ;
#69 = LOCAL_TIME ( 15, 45, 13.00000000000000000, #180 ) ;
#70 = ADVANCED_FACE ( 'NONE', ( #20 ), #120, .F. ) ;
#71 = AXIS2_PLACEMENT_3D ( 'NONE', #301, #288, #317 ) ;
#72 = TOROIDAL_SURFACE ( 'NONE', #144, 2.499999999999999600, 2.000000000000023500 ) ;
#73 = AXIS2_PLACEMENT_3D ( 'NONE', #305, #247, #287 ) ;
#74 = AXIS2_PLACEMENT_3D ( 'NONE', #298, #330, #308 ) ;
#75 = CIRCLE ( 'NONE', #117, 4.000000000000008900 ) ;
#76 = CIRCLE ( 'NONE', #150, 1.249999999999997600 ) ;
#77 = CC_DESIGN_APPROVAL ( #105, ( #133 ) ) ;
#78 = CIRCLE ( 'NONE', #135, 1.250000000000000000 ) ;
#79 = CC_DESIGN_PERSON_AND_ORGANIZATION_ASSIGNMENT ( #164, #8, ( #108 ) ) ;
#80 = CIRCLE ( 'NONE', #137, 1.250000000000000000 ) ;
#81 = CIRCLE ( 'NONE', #93, 2.000000000000023500 ) ;
#82 = AXIS2_PLACEMENT_3D ( 'NONE', #336, #339, #332 ) ;
#83 = AXIS2_PLACEMENT_3D ( 'NONE', #251, #303, #310 ) ;
#84 = APPROVAL ( #3, 'UNSPECIFIED' ) ;
#85 = AXIS2_PLACEMENT_3D ( 'NONE', #268, #309, #296 ) ;
#86 = TOROIDAL_SURFACE ( 'NONE', #118, 2.499999999999999600, 2.000000000000023500 ) ;
#87 = AXIS2_PLACEMENT_3D ( 'NONE', #228, #216, #221 ) ;
#88 = AXIS2_PLACEMENT_3D ( 'NONE', #334, #267, #337 ) ;
#89 = CIRCLE ( 'NONE', #85, 4.465469062812762700 ) ;
#90 = TOROIDAL_SURFACE ( 'NONE', #123, 102.7389222034497600, 100.0000000000000000 ) ;
#91 = TOROIDAL_SURFACE ( 'NONE', #143, 0.2500000000000000000, 1.000000000000000000 ) ;
#92 = AXIS2_PLACEMENT_3D ( 'NONE', #212, #226, #245 ) ;
#93 = AXIS2_PLACEMENT_3D ( 'NONE', #292, #293, #297 ) ;
#94 = CC_DESIGN_DATE_AND_TIME_ASSIGNMENT ( #165, #5, ( #99 ) ) ;
#95 = PRODUCT_RELATED_PRODUCT_CATEGORY ( 'detail', '', ( #197 ) ) ;
#96 = AXIS2_PLACEMENT_3D ( 'NONE', #261, #304, #276 ) ;
#97 = AXIS2_PLACEMENT_3D ( 'NONE', #205, #243, #241 ) ;
#98 = AXIS2_PLACEMENT_3D ( 'NONE', #271, #314, #311 ) ;
#99 = PRODUCT_DEFINITION ( 'UNKNOWN', '', #108, #195 ) ;
#100 = CC_DESIGN_PERSON_AND_ORGANIZATION_ASSIGNMENT ( #167, #206, ( #197 ) ) ;
#101 = CC_DESIGN_APPROVAL ( #128, ( #99 ) ) ;
#102 = CIRCLE ( 'NONE', #87, 1.750000000000000000 ) ;
#103 = TOROIDAL_SURFACE ( 'NONE', #136, 102.7389222034497600, 100.0000000000000000 ) ;
#104 = CIRCLE ( 'NONE', #139, 1.000000000000000000 ) ;
#105 = APPROVAL ( #1, 'UNSPECIFIED' ) ;
#106 = CC_DESIGN_SECURITY_CLASSIFICATION ( #133, ( #108 ) ) ;
#107 = AXIS2_PLACEMENT_3D ( 'NONE', #338, #340, #285 ) ;
#108 = PRODUCT_DEFINITION_FORMATION_WITH_SPECIFIED_SOURCE ( 'ANY', '', #197, .NOT_KNOWN. ) ;
#109 = CIRCLE ( 'NONE', #142, 2.500000000000000000 ) ;
#110 = VECTOR ( 'NONE', #290, 1000.000000000000000 ) ;
#111 = CC_DESIGN_PERSON_AND_ORGANIZATION_ASSIGNMENT ( #163, #9, ( #108 ) ) ;
#112 = CIRCLE ( 'NONE', #134, 0.2500000000000001100 ) ;
#113 = CIRCLE ( 'NONE', #98, 2.500000000000000000 ) ;
#114 = CIRCLE ( 'NONE', #146, 1.000000000000000000 ) ;
#115 = AXIS2_PLACEMENT_3D ( 'NONE', #275, #257, #248 ) ;
#116 = AXIS2_PLACEMENT_3D ( 'NONE', #236, #235, #200 ) ;
#117 = AXIS2_PLACEMENT_3D ( 'NONE', #201, #232, #204 ) ;
#118 = AXIS2_PLACEMENT_3D ( 'NONE', #307, #320, #265 ) ;
#119 = CC_DESIGN_APPROVAL ( #84, ( #108 ) ) ;
#120 = TOROIDAL_SURFACE ( 'NONE', #138, 0.2500000000000000000, 1.000000000000000000 ) ;
#121 = CIRCLE ( 'NONE', #130, 2.000000000000023500 ) ;
#122 = CIRCLE ( 'NONE', #107, 4.000000000000008900 ) ;
#123 = AXIS2_PLACEMENT_3D ( 'NONE', #256, #277, #259 ) ;
#124 = CC_DESIGN_PERSON_AND_ORGANIZATION_ASSIGNMENT ( #169, #230, ( #99 ) ) ;
#125 = VECTOR ( 'NONE', #249, 1000.000000000000000 ) ;
#126 = CIRCLE ( 'NONE', #140, 1.249999999999997600 ) ;
#127 = CIRCLE ( 'NONE', #97, 100.0000000000000000 ) ;
#128 = APPROVAL ( #246, 'UNSPECIFIED' ) ;
#129 = AXIS2_PLACEMENT_3D ( 'NONE', #289, #306, #262 ) ;
#130 = AXIS2_PLACEMENT_3D ( 'NONE', #328, #322, #327 ) ;
#131 = CIRCLE ( 'NONE', #71, 100.0000000000000000 ) ;
#132 = CIRCLE ( 'NONE', #83, 2.749573930901943800 ) ;
#133 = SECURITY_CLASSIFICATION ( '', '', #4 ) ;
#134 = AXIS2_PLACEMENT_3D ( 'NONE', #321, #318, #326 ) ;
#135 = AXIS2_PLACEMENT_3D ( 'NONE', #335, #333, #329 ) ;
#136 = AXIS2_PLACEMENT_3D ( 'NONE', #279, #260, #280 ) ;
#137 = AXIS2_PLACEMENT_3D ( 'NONE', #254, #255, #253 ) ;
#138 = AXIS2_PLACEMENT_3D ( 'NONE', #218, #237, #234 ) ;
#139 = AXIS2_PLACEMENT_3D ( 'NONE', #319, #313, #312 ) ;
#140 = AXIS2_PLACEMENT_3D ( 'NONE', #325, #300, #266 ) ;
#141 = CC_DESIGN_DATE_AND_TIME_ASSIGNMENT ( #153, #6, ( #133 ) ) ;
#142 = AXIS2_PLACEMENT_3D ( 'NONE', #295, #324, #331 ) ;
#143 = AXIS2_PLACEMENT_3D ( 'NONE', #270, #269, #274 ) ;
#144 = AXIS2_PLACEMENT_3D ( 'NONE', #242, #217, #211 ) ;
#145 = CIRCLE ( 'NONE', #74, 2.749573930901943800 ) ;
#146 = AXIS2_PLACEMENT_3D ( 'NONE', #315, #302, #264 ) ;
#147 = TOROIDAL_SURFACE ( 'NONE', #88, -1.250000000000000000, 4.000000000000008900 ) ;
#148 = CIRCLE ( 'NONE', #73, 0.2500000000000001100 ) ;
#149 = AXIS2_PLACEMENT_3D ( 'NONE', #316, #263, #294 ) ;
#150 = AXIS2_PLACEMENT_3D ( 'NONE', #282, #281, #283 ) ;
#151 = CIRCLE ( 'NONE', #149, 1.750000000000000000 ) ;
#152 = CC_DESIGN_PERSON_AND_ORGANIZATION_ASSIGNMENT ( #177, #10, ( #133 ) ) ;
#153 = DATE_AND_TIME ( #159, #69 ) ;
#154 = COORDINATED_UNIVERSAL_TIME_OFFSET ( 9, 0, .AHEAD. ) ;
#155 = COORDINATED_UNIVERSAL_TIME_OFFSET ( 9, 0, .AHEAD. ) ;
#156 = CALENDAR_DATE ( 2012, 27, 3 ) ;
#157 = APPROVAL_PERSON_ORGANIZATION ( #158, #84, #2 ) ;
#158 = PERSON_AND_ORGANIZATION ( #198, #166 ) ;
#159 = CALENDAR_DATE ( 2012, 27, 3 ) ;
#160 = APPROVAL_PERSON_ORGANIZATION ( #168, #128, #209 ) ;
#161 = CALENDAR_DATE ( 2012, 27, 3 ) ;
#162 = APPROVAL_PERSON_ORGANIZATION ( #176, #105, #7 ) ;
#163 = PERSON_AND_ORGANIZATION ( #198, #166 ) ;
#164 = PERSON_AND_ORGANIZATION ( #198, #166 ) ;
#165 = DATE_AND_TIME ( #174, #32 ) ;
#166 = ORGANIZATION ( 'UNSPECIFIED', 'UNSPECIFIED', '' ) ;
#167 = PERSON_AND_ORGANIZATION ( #198, #166 ) ;
#168 = PERSON_AND_ORGANIZATION ( #198, #166 ) ;
#169 = PERSON_AND_ORGANIZATION ( #198, #166 ) ;
#170 = APPROVAL_DATE_TIME ( #175, #128 ) ;
#171 = DATE_AND_TIME ( #181, #57 ) ;
#172 = APPROVAL_DATE_TIME ( #171, #105 ) ;
#173 = COORDINATED_UNIVERSAL_TIME_OFFSET ( 9, 0, .AHEAD. ) ;
#174 = CALENDAR_DATE ( 2012, 27, 3 ) ;
#175 = DATE_AND_TIME ( #156, #64 ) ;
#176 = PERSON_AND_ORGANIZATION ( #198, #166 ) ;
#177 = PERSON_AND_ORGANIZATION ( #198, #166 ) ;
#178 = DATE_AND_TIME ( #161, #43 ) ;
#179 = APPROVAL_DATE_TIME ( #178, #84 ) ;
#180 = COORDINATED_UNIVERSAL_TIME_OFFSET ( 9, 0, .AHEAD. ) ;
#181 = CALENDAR_DATE ( 2012, 27, 3 ) ;
#182 = COORDINATED_UNIVERSAL_TIME_OFFSET ( 9, 0, .AHEAD. ) ;
#183 = FACE_OUTER_BOUND ( 'NONE', #185, .T. ) ;
#184 = EDGE_LOOP ( 'NONE', ( #370, #359 ) ) ;
#185 = EDGE_LOOP ( 'NONE', ( #389, #351 ) ) ;
#186 = LINE ( 'NONE', #278, #125 ) ;
#187 = EDGE_LOOP ( 'NONE', ( #411, #369, #406, #352 ) ) ;
#188 = FACE_BOUND ( 'NONE', #192, .T. ) ;
#189 = EDGE_LOOP ( 'NONE', ( #402, #357, #407, #349 ) ) ;
#190 = EDGE_LOOP ( 'NONE', ( #413, #388, #373, #345 ) ) ;
#191 = EDGE_LOOP ( 'NONE', ( #379, #383, #398, #386 ) ) ;
#192 = EDGE_LOOP ( 'NONE', ( #350, #355 ) ) ;
#193 = CLOSED_SHELL ( 'NONE', ( #47, #53, #36, #38, #46, #33, #40, #65, #39, #37, #70, #62, #34 ) ) ;
#194 = FACE_OUTER_BOUND ( 'NONE', #412, .T. ) ;
#195 = DESIGN_CONTEXT ( 'detailed design', #219, 'design' ) ;
#196 = PRODUCT_DEFINITION_SHAPE ( 'NONE', 'NONE',  #99 ) ;
#197 = PRODUCT ( 'C-30-MC-3', 'C-30-MC-3', '', ( #244 ) ) ;
#198 = PERSON ( 'UNSPECIFIED', 'UNSPECIFIED', 'UNSPECIFIED', ('UNSPECIFIED'), ('UNSPECIFIED'), ('UNSPECIFIED') ) ;
#199 = UNCERTAINTY_MEASURE_WITH_UNIT (LENGTH_MEASURE( 1.000000000000000100E-005 ), #233, 'distance_accuracy_value', 'NONE');
#200 = DIRECTION ( 'NONE',  ( 1.000000000000000000, 0.0000000000000000000, 0.0000000000000000000 ) ) ;
#201 = CARTESIAN_POINT ( 'NONE',  ( 1.250000000000000000, -1.530808498934191600E-016, 19.35424868893540700 ) ) ;
#202 = CARTESIAN_POINT ( 'NONE',  ( -1.249999999999997600, 1.530808498934189400E-016, 22.00000000000000000 ) ) ;
#203 = CARTESIAN_POINT ( 'NONE',  ( 0.2500000000000001100, 0.0000000000000000000, 1.999999999999998200 ) ) ;
#204 = DIRECTION ( 'NONE',  ( -1.000000000000000000, 1.224646799147353000E-016, 0.0000000000000000000 ) ) ;
#205 = CARTESIAN_POINT ( 'NONE',  ( 102.7389222034497600, 0.0000000000000000000, 20.87216138895468700 ) ) ;
#206 = PERSON_AND_ORGANIZATION_ROLE ( 'design_owner' ) ;
#207 = CARTESIAN_POINT ( 'NONE',  ( 1.750000000000000000, 0.0000000000000000000, 22.00000000000000000 ) ) ;
#208 =( NAMED_UNIT ( * ) SI_UNIT ( $, .STERADIAN. ) SOLID_ANGLE_UNIT ( ) );
#209 = APPROVAL_ROLE ( '' ) ;
#210 = CARTESIAN_POINT ( 'NONE',  ( -1.750000000000000000, 2.755194406002954300E-016, 22.00000000000000000 ) ) ;
#211 = DIRECTION ( 'NONE',  ( 1.000000000000000000, 0.0000000000000000000, 0.0000000000000000000 ) ) ;
#212 = CARTESIAN_POINT ( 'NONE',  ( 0.0000000000000000000, 0.0000000000000000000, 0.0000000000000000000 ) ) ;
#213 = CARTESIAN_POINT ( 'NONE',  ( 2.500000000000000000, 0.0000000000000000000, 0.0000000000000000000 ) ) ;
#214 = CARTESIAN_POINT ( 'NONE',  ( -1.250000000000000000, 1.530808498934191600E-016, 2.999999999999999100 ) ) ;
#215 = CARTESIAN_POINT ( 'NONE',  ( 2.749573930901932300, 0.0000000000000000000, 19.41262994662852400 ) ) ;
#216 = DIRECTION ( 'NONE',  ( -0.0000000000000000000, -0.0000000000000000000, 1.000000000000000000 ) ) ;
#217 = DIRECTION ( 'NONE',  ( -0.0000000000000000000, -0.0000000000000000000, 1.000000000000000000 ) ) ;
#218 = CARTESIAN_POINT ( 'NONE',  ( 0.0000000000000000000, 0.0000000000000000000, 2.999999999999999600 ) ) ;
#219 = APPLICATION_CONTEXT ( 'configuration controlled 3d designs of mechanical parts and assemblies' ) ;
#220 = APPLICATION_PROTOCOL_DEFINITION ( 'international standard', 'config_control_design', 1994, #240 ) ;
#221 = DIRECTION ( 'NONE',  ( 1.000000000000000000, 0.0000000000000000000, 0.0000000000000000000 ) ) ;
#222 = CARTESIAN_POINT ( 'NONE',  ( 1.250000000000000000, 0.0000000000000000000, 2.999999999999999100 ) ) ;
#223 = CARTESIAN_POINT ( 'NONE',  ( -2.749573930901932300, 3.367256913498057800E-016, 19.41262994662852400 ) ) ;
#224 = APPLICATION_PROTOCOL_DEFINITION ( 'international standard', 'config_control_design', 1994, #219 ) ;
#225 = CARTESIAN_POINT ( 'NONE',  ( -2.500000000000000000, 4.265119696166781800E-016, 0.0000000000000000000 ) ) ;
#226 = DIRECTION ( 'NONE',  ( 0.0000000000000000000, 0.0000000000000000000, 1.000000000000000000 ) ) ;
#227 = CARTESIAN_POINT ( 'NONE',  ( -4.465469062812758200, 5.468622394465183900E-016, 2.370042380175589900 ) ) ;
#228 = CARTESIAN_POINT ( 'NONE',  ( 0.0000000000000000000, 0.0000000000000000000, 22.00000000000000000 ) ) ;
#229 = CARTESIAN_POINT ( 'NONE',  ( -0.2500000000000001100, 9.184850993605149700E-017, 1.999999999999998200 ) ) ;
#230 = PERSON_AND_ORGANIZATION_ROLE ( 'creator' ) ;
#231 = CARTESIAN_POINT ( 'NONE',  ( 1.249999999999997600, 0.0000000000000000000, 22.00000000000000000 ) ) ;
#232 = DIRECTION ( 'NONE',  ( 1.224646799147353200E-016, 1.000000000000000000, 0.0000000000000000000 ) ) ;
#233 =( LENGTH_UNIT ( ) NAMED_UNIT ( * ) SI_UNIT ( .MILLI., .METRE. ) );
#234 = DIRECTION ( 'NONE',  ( 1.000000000000000000, 0.0000000000000000000, 0.0000000000000000000 ) ) ;
#235 = DIRECTION ( 'NONE',  ( -0.0000000000000000000, -0.0000000000000000000, 1.000000000000000000 ) ) ;
#236 = CARTESIAN_POINT ( 'NONE',  ( 0.0000000000000000000, 0.0000000000000000000, 24.92003288749603800 ) ) ;
#237 = DIRECTION ( 'NONE',  ( -0.0000000000000000000, -0.0000000000000000000, 1.000000000000000000 ) ) ;
#238 =( NAMED_UNIT ( * ) PLANE_ANGLE_UNIT ( ) SI_UNIT ( $, .RADIAN. ) );
#239 = CARTESIAN_POINT ( 'NONE',  ( 4.465469062812758200, 0.0000000000000000000, 2.370042380175589900 ) ) ;
#240 = APPLICATION_CONTEXT ( 'configuration controlled 3d designs of mechanical parts and assemblies' ) ;
#241 = DIRECTION ( 'NONE',  ( 0.0000000000000000000, 0.0000000000000000000, -1.000000000000000000 ) ) ;
#242 = CARTESIAN_POINT ( 'NONE',  ( 0.0000000000000000000, 0.0000000000000000000, 2.000000000000001800 ) ) ;
#243 = DIRECTION ( 'NONE',  ( 0.0000000000000000000, -1.000000000000000000, 0.0000000000000000000 ) ) ;
#244 = MECHANICAL_CONTEXT ( 'NONE', #240, 'mechanical' ) ;
#245 = DIRECTION ( 'NONE',  ( 1.000000000000000000, 0.0000000000000000000, 0.0000000000000000000 ) ) ;
#246 = APPROVAL_STATUS ( 'not_yet_approved' ) ;
#247 = DIRECTION ( 'NONE',  ( -0.0000000000000000000, -0.0000000000000000000, 1.000000000000000000 ) ) ;
#248 = DIRECTION ( 'NONE',  ( 1.000000000000000000, 0.0000000000000000000, 0.0000000000000000000 ) ) ;
#249 = DIRECTION ( 'NONE',  ( -0.0000000000000000000, -0.0000000000000000000, 1.000000000000000000 ) ) ;
#250 = DIRECTION ( 'NONE',  ( 1.000000000000000000, 0.0000000000000000000, 0.0000000000000000000 ) ) ;
#251 = CARTESIAN_POINT ( 'NONE',  ( 0.0000000000000000000, 0.0000000000000000000, 19.41262994662852400 ) ) ;
#252 = CARTESIAN_POINT ( 'NONE',  ( 0.0000000000000000000, 0.0000000000000000000, 19.35424868893540700 ) ) ;
#253 = DIRECTION ( 'NONE',  ( 1.000000000000000000, 0.0000000000000000000, 0.0000000000000000000 ) ) ;
#254 = CARTESIAN_POINT ( 'NONE',  ( 0.0000000000000000000, 0.0000000000000000000, 2.999999999999999100 ) ) ;
#255 = DIRECTION ( 'NONE',  ( -0.0000000000000000000, -0.0000000000000000000, 1.000000000000000000 ) ) ;
#256 = CARTESIAN_POINT ( 'NONE',  ( 0.0000000000000000000, 0.0000000000000000000, 20.87216138895468700 ) ) ;
#257 = DIRECTION ( 'NONE',  ( 0.0000000000000000000, -0.0000000000000000000, 1.000000000000000000 ) ) ;
#258 = PLANE ( 'NONE',  #115 ) ;
#259 = DIRECTION ( 'NONE',  ( 1.000000000000000000, 0.0000000000000000000, 0.0000000000000000000 ) ) ;
#260 = DIRECTION ( 'NONE',  ( -0.0000000000000000000, -0.0000000000000000000, 1.000000000000000000 ) ) ;
#261 = CARTESIAN_POINT ( 'NONE',  ( 0.0000000000000000000, -2.449212707644754000E-016, 2.000000000000000000 ) ) ;
#262 = DIRECTION ( 'NONE',  ( -1.000000000000000000, 0.0000000000000000000, -0.0000000000000000000 ) ) ;
#263 = DIRECTION ( 'NONE',  ( -0.0000000000000000000, -0.0000000000000000000, 1.000000000000000000 ) ) ;
#264 = DIRECTION ( 'NONE',  ( -1.000000000000000000, 1.224646799147353200E-016, 0.0000000000000000000 ) ) ;
#265 = DIRECTION ( 'NONE',  ( 1.000000000000000000, 0.0000000000000000000, 0.0000000000000000000 ) ) ;
#266 = DIRECTION ( 'NONE',  ( 1.000000000000000000, 0.0000000000000000000, 0.0000000000000000000 ) ) ;
#267 = DIRECTION ( 'NONE',  ( -0.0000000000000000000, -0.0000000000000000000, 1.000000000000000000 ) ) ;
#268 = CARTESIAN_POINT ( 'NONE',  ( 0.0000000000000000000, 0.0000000000000000000, 2.370042380175588100 ) ) ;
#269 = DIRECTION ( 'NONE',  ( -0.0000000000000000000, -0.0000000000000000000, 1.000000000000000000 ) ) ;
#270 = CARTESIAN_POINT ( 'NONE',  ( 0.0000000000000000000, 0.0000000000000000000, 2.999999999999999600 ) ) ;
#271 = CARTESIAN_POINT ( 'NONE',  ( 0.0000000000000000000, 0.0000000000000000000, 0.0000000000000000000 ) ) ;
#272 = PLANE ( 'NONE',  #96 ) ;
#273 = CARTESIAN_POINT ( 'NONE',  ( 0.0000000000000000000, 0.0000000000000000000, 2.370042380175588100 ) ) ;
#274 = DIRECTION ( 'NONE',  ( 1.000000000000000000, 0.0000000000000000000, 0.0000000000000000000 ) ) ;
#275 = CARTESIAN_POINT ( 'NONE',  ( 0.0000000000000000000, 2.500000000000000000, 0.0000000000000000000 ) ) ;
#276 = DIRECTION ( 'NONE',  ( -1.000000000000000000, 0.0000000000000000000, -0.0000000000000000000 ) ) ;
#277 = DIRECTION ( 'NONE',  ( -0.0000000000000000000, -0.0000000000000000000, 1.000000000000000000 ) ) ;
#278 = CARTESIAN_POINT ( 'NONE',  ( 1.249999999999998900, 0.0000000000000000000, 24.92003288749603800 ) ) ;
#279 = CARTESIAN_POINT ( 'NONE',  ( 0.0000000000000000000, 0.0000000000000000000, 20.87216138895468700 ) ) ;
#280 = DIRECTION ( 'NONE',  ( 1.000000000000000000, 0.0000000000000000000, 0.0000000000000000000 ) ) ;
#281 = DIRECTION ( 'NONE',  ( -0.0000000000000000000, -0.0000000000000000000, 1.000000000000000000 ) ) ;
#282 = CARTESIAN_POINT ( 'NONE',  ( 0.0000000000000000000, 0.0000000000000000000, 22.00000000000000000 ) ) ;
#283 = DIRECTION ( 'NONE',  ( 1.000000000000000000, 0.0000000000000000000, 0.0000000000000000000 ) ) ;
#284 = DIRECTION ( 'NONE',  ( -0.0000000000000000000, -0.0000000000000000000, 1.000000000000000000 ) ) ;
#285 = DIRECTION ( 'NONE',  ( 0.0000000000000000000, 0.0000000000000000000, -1.000000000000000000 ) ) ;
#286 = PLANE ( 'NONE',  #129 ) ;
#287 = DIRECTION ( 'NONE',  ( 1.000000000000000000, 0.0000000000000000000, 0.0000000000000000000 ) ) ;
#288 = DIRECTION ( 'NONE',  ( 1.224646799147353200E-016, 1.000000000000000000, 0.0000000000000000000 ) ) ;
#289 = CARTESIAN_POINT ( 'NONE',  ( 0.0000000000000000000, 1.750000000000000000, 22.00000000000000000 ) ) ;
#290 = DIRECTION ( 'NONE',  ( -0.0000000000000000000, -0.0000000000000000000, 1.000000000000000000 ) ) ;
#291 = CARTESIAN_POINT ( 'NONE',  ( -1.249999999999998900, 1.530808498934190300E-016, 24.92003288749603800 ) ) ;
#292 = CARTESIAN_POINT ( 'NONE',  ( 2.499999999999999600, 0.0000000000000000000, 2.000000000000001800 ) ) ;
#293 = DIRECTION ( 'NONE',  ( 0.0000000000000000000, -1.000000000000000000, 0.0000000000000000000 ) ) ;
#294 = DIRECTION ( 'NONE',  ( 1.000000000000000000, 0.0000000000000000000, 0.0000000000000000000 ) ) ;
#295 = CARTESIAN_POINT ( 'NONE',  ( 0.0000000000000000000, 0.0000000000000000000, 0.0000000000000000000 ) ) ;
#296 = DIRECTION ( 'NONE',  ( 1.000000000000000000, 0.0000000000000000000, 0.0000000000000000000 ) ) ;
#297 = DIRECTION ( 'NONE',  ( 0.0000000000000000000, 0.0000000000000000000, -1.000000000000000000 ) ) ;
#298 = CARTESIAN_POINT ( 'NONE',  ( 0.0000000000000000000, 0.0000000000000000000, 19.41262994662852400 ) ) ;
#299 = DIRECTION ( 'NONE',  ( 1.000000000000000000, 0.0000000000000000000, 0.0000000000000000000 ) ) ;
#300 = DIRECTION ( 'NONE',  ( -0.0000000000000000000, -0.0000000000000000000, 1.000000000000000000 ) ) ;
#301 = CARTESIAN_POINT ( 'NONE',  ( -102.7389222034497600, 1.258188922243037100E-014, 20.87216138895468700 ) ) ;
#302 = DIRECTION ( 'NONE',  ( 1.224646799147353200E-016, 1.000000000000000000, 0.0000000000000000000 ) ) ;
#303 = DIRECTION ( 'NONE',  ( -0.0000000000000000000, -0.0000000000000000000, 1.000000000000000000 ) ) ;
#304 = DIRECTION ( 'NONE',  ( 0.0000000000000000000, 0.0000000000000000000, -1.000000000000000000 ) ) ;
#305 = CARTESIAN_POINT ( 'NONE',  ( 0.0000000000000000000, 0.0000000000000000000, 1.999999999999998200 ) ) ;
#306 = DIRECTION ( 'NONE',  ( 0.0000000000000000000, 0.0000000000000000000, -1.000000000000000000 ) ) ;
#307 = CARTESIAN_POINT ( 'NONE',  ( 0.0000000000000000000, 0.0000000000000000000, 2.000000000000001800 ) ) ;
#308 = DIRECTION ( 'NONE',  ( 1.000000000000000000, 0.0000000000000000000, 0.0000000000000000000 ) ) ;
#309 = DIRECTION ( 'NONE',  ( -0.0000000000000000000, -0.0000000000000000000, 1.000000000000000000 ) ) ;
#310 = DIRECTION ( 'NONE',  ( 1.000000000000000000, 0.0000000000000000000, 0.0000000000000000000 ) ) ;
#311 = DIRECTION ( 'NONE',  ( 1.000000000000000000, 0.0000000000000000000, 0.0000000000000000000 ) ) ;
#312 = DIRECTION ( 'NONE',  ( 0.0000000000000000000, 0.0000000000000000000, -1.000000000000000000 ) ) ;
#313 = DIRECTION ( 'NONE',  ( 0.0000000000000000000, -1.000000000000000000, 0.0000000000000000000 ) ) ;
#314 = DIRECTION ( 'NONE',  ( -0.0000000000000000000, -0.0000000000000000000, 1.000000000000000000 ) ) ;
#315 = CARTESIAN_POINT ( 'NONE',  ( -0.2500000000000000000, 3.061616997868383000E-017, 2.999999999999999600 ) ) ;
#316 = CARTESIAN_POINT ( 'NONE',  ( 0.0000000000000000000, 0.0000000000000000000, 22.00000000000000000 ) ) ;
#317 = DIRECTION ( 'NONE',  ( -1.000000000000000000, 1.224646799147353200E-016, 0.0000000000000000000 ) ) ;
#318 = DIRECTION ( 'NONE',  ( -0.0000000000000000000, -0.0000000000000000000, 1.000000000000000000 ) ) ;
#319 = CARTESIAN_POINT ( 'NONE',  ( 0.2500000000000000000, 0.0000000000000000000, 2.999999999999999600 ) ) ;
#320 = DIRECTION ( 'NONE',  ( -0.0000000000000000000, -0.0000000000000000000, 1.000000000000000000 ) ) ;
#321 = CARTESIAN_POINT ( 'NONE',  ( 0.0000000000000000000, 0.0000000000000000000, 1.999999999999998200 ) ) ;
#322 = DIRECTION ( 'NONE',  ( 1.224646799147353200E-016, 1.000000000000000000, 0.0000000000000000000 ) ) ;
#323 = DIRECTION ( 'NONE',  ( -0.0000000000000000000, -0.0000000000000000000, 1.000000000000000000 ) ) ;
#324 = DIRECTION ( 'NONE',  ( -0.0000000000000000000, -0.0000000000000000000, 1.000000000000000000 ) ) ;
#325 = CARTESIAN_POINT ( 'NONE',  ( 0.0000000000000000000, 0.0000000000000000000, 22.00000000000000000 ) ) ;
#326 = DIRECTION ( 'NONE',  ( 1.000000000000000000, 0.0000000000000000000, 0.0000000000000000000 ) ) ;
#327 = DIRECTION ( 'NONE',  ( -1.000000000000000000, 1.224646799147353200E-016, 0.0000000000000000000 ) ) ;
#328 = CARTESIAN_POINT ( 'NONE',  ( -2.499999999999999600, 3.061616997868382600E-016, 2.000000000000001800 ) ) ;
#329 = DIRECTION ( 'NONE',  ( 1.000000000000000000, 0.0000000000000000000, 0.0000000000000000000 ) ) ;
#330 = DIRECTION ( 'NONE',  ( -0.0000000000000000000, -0.0000000000000000000, 1.000000000000000000 ) ) ;
#331 = DIRECTION ( 'NONE',  ( 1.000000000000000000, 0.0000000000000000000, 0.0000000000000000000 ) ) ;
#332 = DIRECTION ( 'NONE',  ( 1.000000000000000000, 0.0000000000000000000, 0.0000000000000000000 ) ) ;
#333 = DIRECTION ( 'NONE',  ( -0.0000000000000000000, -0.0000000000000000000, 1.000000000000000000 ) ) ;
#334 = CARTESIAN_POINT ( 'NONE',  ( 0.0000000000000000000, 0.0000000000000000000, 19.35424868893540700 ) ) ;
#335 = CARTESIAN_POINT ( 'NONE',  ( 0.0000000000000000000, 0.0000000000000000000, 2.999999999999999100 ) ) ;
#336 = CARTESIAN_POINT ( 'NONE',  ( 0.0000000000000000000, 0.0000000000000000000, 24.92003288749603800 ) ) ;
#337 = DIRECTION ( 'NONE',  ( 1.000000000000000000, 0.0000000000000000000, 0.0000000000000000000 ) ) ;
#338 = CARTESIAN_POINT ( 'NONE',  ( -1.250000000000000000, 0.0000000000000000000, 19.35424868893540700 ) ) ;
#339 = DIRECTION ( 'NONE',  ( -0.0000000000000000000, -0.0000000000000000000, 1.000000000000000000 ) ) ;
#340 = DIRECTION ( 'NONE',  ( 0.0000000000000000000, -1.000000000000000000, 0.0000000000000000000 ) ) ;
#341 = FACE_OUTER_BOUND ( 'NONE', #191, .T. ) ;
#342 = FACE_OUTER_BOUND ( 'NONE', #394, .T. ) ;
#343 = MANIFOLD_SOLID_BREP ( 'ñ]1', #193 ) ;
#344 = ADVANCED_BREP_SHAPE_REPRESENTATION ( 'C-30-MC-3', ( #343, #92 ), #67 ) ;
#345 = ORIENTED_EDGE ( 'NONE', *, *, #68, .F. ) ;
#346 = VERTEX_POINT ( 'NONE', #210 ) ;
#347 = EDGE_LOOP ( 'NONE', ( #393, #404, #405, #409 ) ) ;
#348 = VERTEX_POINT ( 'NONE', #231 ) ;
#349 = ORIENTED_EDGE ( 'NONE', *, *, #42, .F. ) ;
#350 = ORIENTED_EDGE ( 'NONE', *, *, #60, .F. ) ;
#351 = ORIENTED_EDGE ( 'NONE', *, *, #55, .T. ) ;
#352 = ORIENTED_EDGE ( 'NONE', *, *, #35, .F. ) ;
#353 = VERTEX_POINT ( 'NONE', #207 ) ;
#354 = ORIENTED_EDGE ( 'NONE', *, *, #30, .F. ) ;
#355 = ORIENTED_EDGE ( 'NONE', *, *, #29, .F. ) ;
#356 = ORIENTED_EDGE ( 'NONE', *, *, #52, .T. ) ;
#357 = ORIENTED_EDGE ( 'NONE', *, *, #66, .T. ) ;
#358 = ORIENTED_EDGE ( 'NONE', *, *, #35, .T. ) ;
#359 = ORIENTED_EDGE ( 'NONE', *, *, #49, .F. ) ;
#360 = VERTEX_POINT ( 'NONE', #225 ) ;
#361 = VERTEX_POINT ( 'NONE', #215 ) ;
#362 = ORIENTED_EDGE ( 'NONE', *, *, #61, .T. ) ;
#363 = VERTEX_POINT ( 'NONE', #227 ) ;
#364 = ORIENTED_EDGE ( 'NONE', *, *, #44, .T. ) ;
#365 = ORIENTED_EDGE ( 'NONE', *, *, #56, .F. ) ;
#366 = VERTEX_POINT ( 'NONE', #229 ) ;
#367 = VERTEX_POINT ( 'NONE', #239 ) ;
#368 = VERTEX_POINT ( 'NONE', #203 ) ;
#369 = ORIENTED_EDGE ( 'NONE', *, *, #56, .T. ) ;
#370 = ORIENTED_EDGE ( 'NONE', *, *, #54, .F. ) ;
#371 = EDGE_LOOP ( 'NONE', ( #365, #354, #358, #375 ) ) ;
#372 = VERTEX_POINT ( 'NONE', #222 ) ;
#373 = ORIENTED_EDGE ( 'NONE', *, *, #45, .T. ) ;
#374 = VERTEX_POINT ( 'NONE', #214 ) ;
#375 = ORIENTED_EDGE ( 'NONE', *, *, #60, .T. ) ;
#376 = ORIENTED_EDGE ( 'NONE', *, *, #41, .F. ) ;
#377 = ORIENTED_EDGE ( 'NONE', *, *, #31, .F. ) ;
#378 = ORIENTED_EDGE ( 'NONE', *, *, #42, .T. ) ;
#379 = ORIENTED_EDGE ( 'NONE', *, *, #54, .T. ) ;
#380 = ORIENTED_EDGE ( 'NONE', *, *, #30, .T. ) ;
#381 = ORIENTED_EDGE ( 'NONE', *, *, #52, .F. ) ;
#382 = VERTEX_POINT ( 'NONE', #213 ) ;
#383 = ORIENTED_EDGE ( 'NONE', *, *, #41, .T. ) ;
#384 = EDGE_LOOP ( 'NONE', ( #377, #362, #364, #381 ) ) ;
#385 = ORIENTED_EDGE ( 'NONE', *, *, #45, .F. ) ;
#386 = ORIENTED_EDGE ( 'NONE', *, *, #58, .F. ) ;
#387 = VERTEX_POINT ( 'NONE', #223 ) ;
#388 = ORIENTED_EDGE ( 'NONE', *, *, #51, .T. ) ;
#389 = ORIENTED_EDGE ( 'NONE', *, *, #63, .T. ) ;
#390 = ORIENTED_EDGE ( 'NONE', *, *, #48, .T. ) ;
#391 = ORIENTED_EDGE ( 'NONE', *, *, #50, .F. ) ;
#392 = ORIENTED_EDGE ( 'NONE', *, *, #61, .F. ) ;
#393 = ORIENTED_EDGE ( 'NONE', *, *, #51, .F. ) ;
#394 = EDGE_LOOP ( 'NONE', ( #399, #395 ) ) ;
#395 = ORIENTED_EDGE ( 'NONE', *, *, #31, .T. ) ;
#396 = EDGE_LOOP ( 'NONE', ( #376, #397, #400, #385 ) ) ;
#397 = ORIENTED_EDGE ( 'NONE', *, *, #49, .T. ) ;
#398 = ORIENTED_EDGE ( 'NONE', *, *, #28, .F. ) ;
#399 = ORIENTED_EDGE ( 'NONE', *, *, #50, .T. ) ;
#400 = ORIENTED_EDGE ( 'NONE', *, *, #58, .T. ) ;
#401 = ORIENTED_EDGE ( 'NONE', *, *, #55, .F. ) ;
#402 = ORIENTED_EDGE ( 'NONE', *, *, #59, .T. ) ;
#403 = ORIENTED_EDGE ( 'NONE', *, *, #66, .F. ) ;
#404 = ORIENTED_EDGE ( 'NONE', *, *, #59, .F. ) ;
#405 = ORIENTED_EDGE ( 'NONE', *, *, #68, .T. ) ;
#406 = ORIENTED_EDGE ( 'NONE', *, *, #29, .T. ) ;
#407 = ORIENTED_EDGE ( 'NONE', *, *, #63, .F. ) ;
#408 = EDGE_LOOP ( 'NONE', ( #392, #391, #356, #380 ) ) ;
#409 = ORIENTED_EDGE ( 'NONE', *, *, #28, .T. ) ;
#410 = VERTEX_POINT ( 'NONE', #202 ) ;
#411 = ORIENTED_EDGE ( 'NONE', *, *, #44, .F. ) ;
#412 = EDGE_LOOP ( 'NONE', ( #403, #390, #378, #401 ) ) ;
#413 = ORIENTED_EDGE ( 'NONE', *, *, #48, .F. ) ;
ENDSEC;
END-ISO-10303-21;
