ISO-10303-21;
HEADER;
FILE_DESCRIPTION (( 'STEP AP203' ),
    '1' );
FILE_NAME ('C-30-CS-9.STEP',
    '2009-09-16T01:00:31',
    ( ' ' ),
    ( ' ' ),
    'SwSTEP 2.0',
    'SolidWorks 2007',
    '' );
FILE_SCHEMA (( 'CONFIG_CONTROL_DESIGN' ));
ENDSEC;

DATA;
#1 = LOCAL_TIME ( 10, 0, 31.00000000000000000, #25 ) ;
#2 = DIRECTION ( 'NONE',  ( 0.0000000000000000000, 1.000000000000000000, 0.0000000000000000000 ) ) ;
#3 = AXIS2_PLACEMENT_3D ( 'NONE', #24, #27, #6 ) ;
#4 = CARTESIAN_POINT ( 'NONE',  ( 0.0000000000000000000, 0.0000000000000000000, 0.0000000000000000000 ) ) ;
#5 = DIRECTION ( 'NONE',  ( 0.0000000000000000000, 0.0000000000000000000, 1.000000000000000000 ) ) ;
#6 = DIRECTION ( 'NONE',  ( 0.0000000000000000000, 0.0000000000000000000, 1.000000000000000000 ) ) ;
#7 = DIRECTION ( 'NONE',  ( 0.0000000000000000000, 0.0000000000000000000, 1.000000000000000000 ) ) ;
#8 = DIRECTION ( 'NONE',  ( 0.0000000000000000000, 1.000000000000000000, 0.0000000000000000000 ) ) ;
#9 = DATE_TIME_ROLE ( 'classification_date' ) ;
#10 = CARTESIAN_POINT ( 'NONE',  ( 3.673819061467131800E-016, -5.600000000000000500, -3.000000000000000000 ) ) ;
#11 = PERSON_AND_ORGANIZATION ( #280, #301 ) ;
#12 = FACE_OUTER_BOUND ( 'NONE', #70, .T. ) ;
#13 = FACE_OUTER_BOUND ( 'NONE', #100, .T. ) ;
#14 = PERSON_AND_ORGANIZATION_ROLE ( 'creator' ) ;
#15 = AXIS2_PLACEMENT_3D ( 'NONE', #19, #8, #5 ) ;
#16 = CC_DESIGN_DATE_AND_TIME_ASSIGNMENT ( #23, #9, ( #84 ) ) ;
#17 = AXIS2_PLACEMENT_3D ( 'NONE', #4, #2, #7 ) ;
#18 = CONICAL_SURFACE ( 'NONE', #15, 4.499999999999999100, 0.3805063771123649600 ) ;
#19 = CARTESIAN_POINT ( 'NONE',  ( 0.0000000000000000000, -5.600000000000000500, 0.0000000000000000000 ) ) ;
#20 = CIRCLE ( 'NONE', #3, 3.000000000000000000 ) ;
#21 = CALENDAR_DATE ( 2009, 16, 9 ) ;
#22 = CYLINDRICAL_SURFACE ( 'NONE', #17, 3.000000000000000000 ) ;
#23 = DATE_AND_TIME ( #21, #1 ) ;
#24 = CARTESIAN_POINT ( 'NONE',  ( 0.0000000000000000000, -4.000000000000000900, 0.0000000000000000000 ) ) ;
#25 = COORDINATED_UNIVERSAL_TIME_OFFSET ( 9, 0, .AHEAD. ) ;
#26 = CC_DESIGN_PERSON_AND_ORGANIZATION_ASSIGNMENT ( #11, #14, ( #253 ) ) ;
#27 = DIRECTION ( 'NONE',  ( 0.0000000000000000000, 1.000000000000000000, 0.0000000000000000000 ) ) ;
#28 = EDGE_CURVE ( 'NONE', #30, #123, #97, .T. ) ;
#29 = ADVANCED_FACE ( 'NONE', ( #98, #92 ), #132, .T. ) ;
#30 = VERTEX_POINT ( 'NONE', #115 ) ;
#31 = ORIENTED_EDGE ( 'NONE', *, *, #28, .T. ) ;
#32 = ORIENTED_EDGE ( 'NONE', *, *, #35, .T. ) ;
#33 = ORIENTED_EDGE ( 'NONE', *, *, #71, .T. ) ;
#34 = ORIENTED_EDGE ( 'NONE', *, *, #131, .T. ) ;
#35 = EDGE_CURVE ( 'NONE', #39, #55, #113, .T. ) ;
#36 = EDGE_LOOP ( 'NONE', ( #128, #46, #58, #107 ) ) ;
#37 = ADVANCED_FACE ( 'NONE', ( #12 ), #18, .T. ) ;
#38 = ORIENTED_EDGE ( 'NONE', *, *, #47, .T. ) ;
#39 = VERTEX_POINT ( 'NONE', #10 ) ;
#40 = ORIENTED_EDGE ( 'NONE', *, *, #133, .F. ) ;
#41 = MANIFOLD_SOLID_BREP ( 'NONE', #73 ) ;
#42 = ORIENTED_EDGE ( 'NONE', *, *, #78, .F. ) ;
#43 = EDGE_LOOP ( 'NONE', ( #38, #138 ) ) ;
#44 = EDGE_LOOP ( 'NONE', ( #61, #106 ) ) ;
#45 = ADVANCED_FACE ( 'NONE', ( #13 ), #22, .T. ) ;
#46 = ORIENTED_EDGE ( 'NONE', *, *, #89, .T. ) ;
#47 = EDGE_CURVE ( 'NONE', #90, #55, #20, .T. ) ;
#48 = EDGE_CURVE ( 'NONE', #126, #30, #143, .T. ) ;
#49 = VERTEX_POINT ( 'NONE', #151 ) ;
#50 = EDGE_LOOP ( 'NONE', ( #51, #79 ) ) ;
#51 = ORIENTED_EDGE ( 'NONE', *, *, #62, .T. ) ;
#52 = ORIENTED_EDGE ( 'NONE', *, *, #89, .F. ) ;
#53 = EDGE_CURVE ( 'NONE', #91, #69, #190, .T. ) ;
#54 = EDGE_CURVE ( 'NONE', #39, #59, #155, .T. ) ;
#55 = VERTEX_POINT ( 'NONE', #146 ) ;
#56 = ORIENTED_EDGE ( 'NONE', *, *, #48, .F. ) ;
#57 = ORIENTED_EDGE ( 'NONE', *, *, #103, .T. ) ;
#58 = ORIENTED_EDGE ( 'NONE', *, *, #64, .T. ) ;
#59 = VERTEX_POINT ( 'NONE', #145 ) ;
#60 = ORIENTED_EDGE ( 'NONE', *, *, #48, .T. ) ;
#61 = ORIENTED_EDGE ( 'NONE', *, *, #103, .F. ) ;
#62 = EDGE_CURVE ( 'NONE', #124, #123, #156, .T. ) ;
#63 = ORIENTED_EDGE ( 'NONE', *, *, #64, .F. ) ;
#64 = EDGE_CURVE ( 'NONE', #126, #124, #160, .T. ) ;
#65 = ORIENTED_EDGE ( 'NONE', *, *, #133, .T. ) ;
#66 = EDGE_LOOP ( 'NONE', ( #56, #52 ) ) ;
#67 = EDGE_LOOP ( 'NONE', ( #57, #32, #77, #42 ) ) ;
#68 = ORIENTED_EDGE ( 'NONE', *, *, #78, .T. ) ;
#69 = VERTEX_POINT ( 'NONE', #148 ) ;
#70 = EDGE_LOOP ( 'NONE', ( #140, #134, #104, #99 ) ) ;
#71 = EDGE_CURVE ( 'NONE', #49, #74, #161, .T. ) ;
#72 = EDGE_CURVE ( 'NONE', #91, #49, #266, .T. ) ;
#73 = CLOSED_SHELL ( 'NONE', ( #119, #141, #136, #108, #135, #29, #45, #87, #37, #88 ) ) ;
#74 = VERTEX_POINT ( 'NONE', #220 ) ;
#75 = EDGE_LOOP ( 'NONE', ( #60, #31, #121, #63 ) ) ;
#76 = ORIENTED_EDGE ( 'NONE', *, *, #53, .F. ) ;
#77 = ORIENTED_EDGE ( 'NONE', *, *, #47, .F. ) ;
#78 = EDGE_CURVE ( 'NONE', #59, #90, #219, .T. ) ;
#79 = ORIENTED_EDGE ( 'NONE', *, *, #137, .T. ) ;
#80 = DIRECTION ( 'NONE',  ( 0.0000000000000000000, 0.0000000000000000000, -1.000000000000000000 ) ) ;
#81 = DIRECTION ( 'NONE',  ( 0.0000000000000000000, -1.000000000000000000, 0.0000000000000000000 ) ) ;
#82 = CARTESIAN_POINT ( 'NONE',  ( -6.999999999999999100, -4.000000000000000000, 0.0000000000000000000 ) ) ;
#83 = AXIS2_PLACEMENT_3D ( 'NONE', #82, #81, #80 ) ;
#84 = SECURITY_CLASSIFICATION ( '', '', #85 ) ;
#85 = SECURITY_CLASSIFICATION_LEVEL ( 'unclassified' ) ;
#86 = CC_DESIGN_PERSON_AND_ORGANIZATION_ASSIGNMENT ( #109, #114, ( #253 ) ) ;
#87 = ADVANCED_FACE ( 'NONE', ( #215, #214 ), #212, .T. ) ;
#88 = ADVANCED_FACE ( 'NONE', ( #213 ), #240, .T. ) ;
#89 = EDGE_CURVE ( 'NONE', #30, #126, #235, .T. ) ;
#90 = VERTEX_POINT ( 'NONE', #231 ) ;
#91 = VERTEX_POINT ( 'NONE', #230 ) ;
#92 = FACE_OUTER_BOUND ( 'NONE', #66, .T. ) ;
#93 = DIRECTION ( 'NONE',  ( 1.224606353822377500E-016, 0.0000000000000000000, -1.000000000000000000 ) ) ;
#94 = DIRECTION ( 'NONE',  ( 1.000000000000000000, 0.0000000000000000000, 1.224606353822377300E-016 ) ) ;
#95 = CARTESIAN_POINT ( 'NONE',  ( 3.673819061467130800E-016, -4.000000000000000000, -2.999999999999999100 ) ) ;
#96 = AXIS2_PLACEMENT_3D ( 'NONE', #95, #94, #93 ) ;
#97 = CIRCLE ( 'NONE', #96, 4.000000000000000000 ) ;
#98 = FACE_BOUND ( 'NONE', #43, .T. ) ;
#99 = ORIENTED_EDGE ( 'NONE', *, *, #131, .F. ) ;
#100 = EDGE_LOOP ( 'NONE', ( #101, #102, #68, #129 ) ) ;
#101 = ORIENTED_EDGE ( 'NONE', *, *, #35, .F. ) ;
#102 = ORIENTED_EDGE ( 'NONE', *, *, #54, .T. ) ;
#103 = EDGE_CURVE ( 'NONE', #59, #39, #229, .T. ) ;
#104 = ORIENTED_EDGE ( 'NONE', *, *, #53, .T. ) ;
#105 = ORIENTED_EDGE ( 'NONE', *, *, #139, .F. ) ;
#106 = ORIENTED_EDGE ( 'NONE', *, *, #54, .F. ) ;
#107 = ORIENTED_EDGE ( 'NONE', *, *, #137, .F. ) ;
#108 = ADVANCED_FACE ( 'NONE', ( #224 ), #322, .T. ) ;
#109 = PERSON_AND_ORGANIZATION ( #280, #301 ) ;
#110 = DIRECTION ( 'NONE',  ( 0.0000000000000000000, 1.000000000000000000, 0.0000000000000000000 ) ) ;
#111 = VECTOR ( 'NONE', #110, 1000.000000000000000 ) ;
#112 = CARTESIAN_POINT ( 'NONE',  ( 3.673819061467131800E-016, 0.0000000000000000000, -3.000000000000000000 ) ) ;
#113 = LINE ( 'NONE', #112, #111 ) ;
#114 = PERSON_AND_ORGANIZATION_ROLE ( 'design_supplier' ) ;
#115 = CARTESIAN_POINT ( 'NONE',  ( 8.572244476756639800E-016, -3.999999999999999100, -6.999999999999999100 ) ) ;
#116 = CC_DESIGN_PERSON_AND_ORGANIZATION_ASSIGNMENT ( #118, #117, ( #84 ) ) ;
#117 = PERSON_AND_ORGANIZATION_ROLE ( 'classification_officer' ) ;
#118 = PERSON_AND_ORGANIZATION ( #280, #301 ) ;
#119 = ADVANCED_FACE ( 'NONE', ( #317 ), #316, .T. ) ;
#120 = EDGE_LOOP ( 'NONE', ( #65, #34 ) ) ;
#121 = ORIENTED_EDGE ( 'NONE', *, *, #62, .F. ) ;
#122 = EDGE_CURVE ( 'NONE', #55, #90, #315, .T. ) ;
#123 = VERTEX_POINT ( 'NONE', #306 ) ;
#124 = VERTEX_POINT ( 'NONE', #305 ) ;
#125 = ORIENTED_EDGE ( 'NONE', *, *, #72, .T. ) ;
#126 = VERTEX_POINT ( 'NONE', #304 ) ;
#127 = EDGE_LOOP ( 'NONE', ( #125, #33, #40, #76 ) ) ;
#128 = ORIENTED_EDGE ( 'NONE', *, *, #28, .F. ) ;
#129 = ORIENTED_EDGE ( 'NONE', *, *, #122, .F. ) ;
#130 = ORIENTED_EDGE ( 'NONE', *, *, #72, .F. ) ;
#131 = EDGE_CURVE ( 'NONE', #74, #69, #302, .T. ) ;
#132 = PLANE ( 'NONE',  #83 ) ;
#133 = EDGE_CURVE ( 'NONE', #69, #74, #183, .T. ) ;
#134 = ORIENTED_EDGE ( 'NONE', *, *, #139, .T. ) ;
#135 = ADVANCED_FACE ( 'NONE', ( #179 ), #178, .T. ) ;
#136 = ADVANCED_FACE ( 'NONE', ( #172 ), #171, .T. ) ;
#137 = EDGE_CURVE ( 'NONE', #123, #124, #167, .T. ) ;
#138 = ORIENTED_EDGE ( 'NONE', *, *, #122, .T. ) ;
#139 = EDGE_CURVE ( 'NONE', #49, #91, #275, .T. ) ;
#140 = ORIENTED_EDGE ( 'NONE', *, *, #71, .F. ) ;
#141 = ADVANCED_FACE ( 'NONE', ( #270 ), #207, .T. ) ;
#142 = EDGE_LOOP ( 'NONE', ( #130, #105 ) ) ;
#143 = CIRCLE ( 'NONE', #192, 6.999999999999999100 ) ;
#144 = CARTESIAN_POINT ( 'NONE',  ( 0.0000000000000000000, -4.000000000000000000, 2.999999999999999100 ) ) ;
#145 = CARTESIAN_POINT ( 'NONE',  ( 0.0000000000000000000, -5.600000000000000500, 3.000000000000000000 ) ) ;
#146 = CARTESIAN_POINT ( 'NONE',  ( 3.673819061467131800E-016, -4.000000000000000900, -3.000000000000000000 ) ) ;
#147 = CARTESIAN_POINT ( 'NONE',  ( 0.0000000000000000000, 0.0000000000000000000, 0.0000000000000000000 ) ) ;
#148 = CARTESIAN_POINT ( 'NONE',  ( 0.0000000000000000000, -5.600000000000000500, 4.499999999999999100 ) ) ;
#149 = CARTESIAN_POINT ( 'NONE',  ( 0.0000000000000000000, -3.999999999999999100, 0.0000000000000000000 ) ) ;
#150 = VECTOR ( 'NONE', #153, 1000.000000000000100 ) ;
#151 = CARTESIAN_POINT ( 'NONE',  ( 4.286122238378318900E-016, -10.60000000000000000, -2.499999999999998700 ) ) ;
#152 = AXIS2_PLACEMENT_3D ( 'NONE', #144, #163, #154 ) ;
#153 = DIRECTION ( 'NONE',  ( 0.0000000000000000000, 0.9284766908852593000, 0.3713906763541037200 ) ) ;
#154 = DIRECTION ( 'NONE',  ( 0.0000000000000000000, 0.0000000000000000000, 1.000000000000000000 ) ) ;
#155 = CIRCLE ( 'NONE', #157, 3.000000000000000000 ) ;
#156 = CIRCLE ( 'NONE', #165, 2.999999999999999600 ) ;
#157 = AXIS2_PLACEMENT_3D ( 'NONE', #162, #189, #191 ) ;
#158 = DIRECTION ( 'NONE',  ( 0.0000000000000000000, 0.0000000000000000000, 1.000000000000000000 ) ) ;
#159 = CARTESIAN_POINT ( 'NONE',  ( 0.0000000000000000000, -5.600000000000000500, 4.499999999999999100 ) ) ;
#160 = CIRCLE ( 'NONE', #152, 4.000000000000000000 ) ;
#161 = LINE ( 'NONE', #269, #268 ) ;
#162 = CARTESIAN_POINT ( 'NONE',  ( 0.0000000000000000000, -5.600000000000000500, 0.0000000000000000000 ) ) ;
#163 = DIRECTION ( 'NONE',  ( -1.000000000000000000, 0.0000000000000000000, 0.0000000000000000000 ) ) ;
#164 = DIRECTION ( 'NONE',  ( 0.0000000000000000000, 1.000000000000000000, 0.0000000000000000000 ) ) ;
#165 = AXIS2_PLACEMENT_3D ( 'NONE', #147, #164, #158 ) ;
#166 = DIRECTION ( 'NONE',  ( 0.0000000000000000000, 0.0000000000000000000, 1.000000000000000000 ) ) ;
#167 = CIRCLE ( 'NONE', #279, 2.999999999999999600 ) ;
#168 = DIRECTION ( 'NONE',  ( 0.0000000000000000000, 0.0000000000000000000, 1.000000000000000000 ) ) ;
#169 = DIRECTION ( 'NONE',  ( 0.0000000000000000000, 1.000000000000000000, 0.0000000000000000000 ) ) ;
#170 = AXIS2_PLACEMENT_3D ( 'NONE', #177, #169, #168 ) ;
#171 = TOROIDAL_SURFACE ( 'NONE', #170, 2.999999999999999100, 4.000000000000000000 ) ;
#172 = FACE_OUTER_BOUND ( 'NONE', #75, .T. ) ;
#173 = DIRECTION ( 'NONE',  ( 0.0000000000000000000, 0.0000000000000000000, 1.000000000000000000 ) ) ;
#174 = DIRECTION ( 'NONE',  ( 0.0000000000000000000, 1.000000000000000000, 0.0000000000000000000 ) ) ;
#175 = CARTESIAN_POINT ( 'NONE',  ( 0.0000000000000000000, -4.000000000000000000, 0.0000000000000000000 ) ) ;
#176 = AXIS2_PLACEMENT_3D ( 'NONE', #175, #174, #173 ) ;
#177 = CARTESIAN_POINT ( 'NONE',  ( 0.0000000000000000000, -4.000000000000000000, 0.0000000000000000000 ) ) ;
#178 = TOROIDAL_SURFACE ( 'NONE', #176, 2.999999999999999100, 4.000000000000000000 ) ;
#179 = FACE_OUTER_BOUND ( 'NONE', #36, .T. ) ;
#180 = DIRECTION ( 'NONE',  ( 0.0000000000000000000, 0.0000000000000000000, 1.000000000000000000 ) ) ;
#181 = DIRECTION ( 'NONE',  ( 0.0000000000000000000, 1.000000000000000000, 0.0000000000000000000 ) ) ;
#182 = AXIS2_PLACEMENT_3D ( 'NONE', #303, #181, #180 ) ;
#183 = CIRCLE ( 'NONE', #182, 4.499999999999999100 ) ;
#184 = DIRECTION ( 'NONE',  ( 0.0000000000000000000, 0.0000000000000000000, 1.000000000000000000 ) ) ;
#185 = DIRECTION ( 'NONE',  ( 0.0000000000000000000, 1.000000000000000000, 0.0000000000000000000 ) ) ;
#186 = CARTESIAN_POINT ( 'NONE',  ( 0.0000000000000000000, -5.600000000000000500, 0.0000000000000000000 ) ) ;
#187 = AXIS2_PLACEMENT_3D ( 'NONE', #186, #185, #184 ) ;
#188 = DIRECTION ( 'NONE',  ( 0.0000000000000000000, 1.000000000000000000, 0.0000000000000000000 ) ) ;
#189 = DIRECTION ( 'NONE',  ( 0.0000000000000000000, 1.000000000000000000, 0.0000000000000000000 ) ) ;
#190 = LINE ( 'NONE', #159, #150 ) ;
#191 = DIRECTION ( 'NONE',  ( 0.0000000000000000000, 0.0000000000000000000, 1.000000000000000000 ) ) ;
#192 = AXIS2_PLACEMENT_3D ( 'NONE', #149, #188, #166 ) ;
#193 = DIRECTION ( 'NONE',  ( 1.000000000000000000, 0.0000000000000000000, 0.0000000000000000000 ) ) ;
#194 = CARTESIAN_POINT ( 'NONE',  ( 0.0000000000000000000, 0.0000000000000000000, 0.0000000000000000000 ) ) ;
#195 = AXIS2_PLACEMENT_3D ( 'NONE', #194, #202, #193 ) ;
#196 = ADVANCED_BREP_SHAPE_REPRESENTATION ( 'C-30-CS-9', ( #41, #195 ), #197 ) ;
#197 =( GEOMETRIC_REPRESENTATION_CONTEXT ( 3 ) GLOBAL_UNCERTAINTY_ASSIGNED_CONTEXT ( ( #198 ) ) GLOBAL_UNIT_ASSIGNED_CONTEXT ( ( #201, #200, #199 ) ) REPRESENTATION_CONTEXT ( 'NONE', 'WORKASPACE' ) );
#198 = UNCERTAINTY_MEASURE_WITH_UNIT (LENGTH_MEASURE( 1.000000000000000100E-005 ), #201, 'distance_accuracy_value', 'NONE');
#199 =( NAMED_UNIT ( * ) SI_UNIT ( $, .STERADIAN. ) SOLID_ANGLE_UNIT ( ) );
#200 =( NAMED_UNIT ( * ) PLANE_ANGLE_UNIT ( ) SI_UNIT ( $, .RADIAN. ) );
#201 =( LENGTH_UNIT ( ) NAMED_UNIT ( * ) SI_UNIT ( .MILLI., .METRE. ) );
#202 = DIRECTION ( 'NONE',  ( 0.0000000000000000000, 0.0000000000000000000, 1.000000000000000000 ) ) ;
#203 = DIRECTION ( 'NONE',  ( 0.0000000000000000000, 0.0000000000000000000, 1.000000000000000000 ) ) ;
#204 = DIRECTION ( 'NONE',  ( 0.0000000000000000000, 1.000000000000000000, 0.0000000000000000000 ) ) ;
#205 = CARTESIAN_POINT ( 'NONE',  ( 0.0000000000000000000, 0.0000000000000000000, 0.0000000000000000000 ) ) ;
#206 = AXIS2_PLACEMENT_3D ( 'NONE', #205, #204, #203 ) ;
#207 = CYLINDRICAL_SURFACE ( 'NONE', #206, 3.000000000000000000 ) ;
#208 = DIRECTION ( 'NONE',  ( 0.0000000000000000000, 0.0000000000000000000, 1.000000000000000000 ) ) ;
#209 = DIRECTION ( 'NONE',  ( 0.0000000000000000000, 1.000000000000000000, 0.0000000000000000000 ) ) ;
#210 = CARTESIAN_POINT ( 'NONE',  ( -3.000000000000000000, -5.600000000000000500, 0.0000000000000000000 ) ) ;
#211 = AXIS2_PLACEMENT_3D ( 'NONE', #210, #209, #208 ) ;
#212 = PLANE ( 'NONE',  #211 ) ;
#213 = FACE_OUTER_BOUND ( 'NONE', #142, .T. ) ;
#214 = FACE_BOUND ( 'NONE', #44, .T. ) ;
#215 = FACE_OUTER_BOUND ( 'NONE', #120, .T. ) ;
#216 = DIRECTION ( 'NONE',  ( 0.0000000000000000000, 1.000000000000000000, 0.0000000000000000000 ) ) ;
#217 = VECTOR ( 'NONE', #216, 1000.000000000000000 ) ;
#218 = CARTESIAN_POINT ( 'NONE',  ( 0.0000000000000000000, 0.0000000000000000000, 3.000000000000000000 ) ) ;
#219 = LINE ( 'NONE', #218, #217 ) ;
#220 = CARTESIAN_POINT ( 'NONE',  ( 5.510728592200696700E-016, -5.600000000000000500, -4.499999999999999100 ) ) ;
#221 = DIRECTION ( 'NONE',  ( 0.0000000000000000000, 0.0000000000000000000, 1.000000000000000000 ) ) ;
#222 = DIRECTION ( 'NONE',  ( 0.0000000000000000000, 1.000000000000000000, 0.0000000000000000000 ) ) ;
#223 = CARTESIAN_POINT ( 'NONE',  ( 0.0000000000000000000, -10.60000000000000000, 0.0000000000000000000 ) ) ;
#224 = FACE_OUTER_BOUND ( 'NONE', #50, .T. ) ;
#225 = DIRECTION ( 'NONE',  ( 0.0000000000000000000, 0.0000000000000000000, 1.000000000000000000 ) ) ;
#226 = DIRECTION ( 'NONE',  ( 0.0000000000000000000, 1.000000000000000000, 0.0000000000000000000 ) ) ;
#227 = CARTESIAN_POINT ( 'NONE',  ( 0.0000000000000000000, -5.600000000000000500, 0.0000000000000000000 ) ) ;
#228 = AXIS2_PLACEMENT_3D ( 'NONE', #227, #226, #225 ) ;
#229 = CIRCLE ( 'NONE', #228, 3.000000000000000000 ) ;
#230 = CARTESIAN_POINT ( 'NONE',  ( 0.0000000000000000000, -10.60000000000000000, 2.499999999999998700 ) ) ;
#231 = CARTESIAN_POINT ( 'NONE',  ( 0.0000000000000000000, -4.000000000000000900, 3.000000000000000000 ) ) ;
#232 = DIRECTION ( 'NONE',  ( 0.0000000000000000000, 0.0000000000000000000, 1.000000000000000000 ) ) ;
#233 = DIRECTION ( 'NONE',  ( 0.0000000000000000000, 1.000000000000000000, 0.0000000000000000000 ) ) ;
#234 = AXIS2_PLACEMENT_3D ( 'NONE', #241, #233, #232 ) ;
#235 = CIRCLE ( 'NONE', #234, 6.999999999999999100 ) ;
#236 = DIRECTION ( 'NONE',  ( 0.0000000000000000000, 0.0000000000000000000, -1.000000000000000000 ) ) ;
#237 = DIRECTION ( 'NONE',  ( 0.0000000000000000000, -1.000000000000000000, 0.0000000000000000000 ) ) ;
#238 = CARTESIAN_POINT ( 'NONE',  ( -2.499999999999998700, -10.60000000000000000, 0.0000000000000000000 ) ) ;
#239 = AXIS2_PLACEMENT_3D ( 'NONE', #238, #237, #236 ) ;
#240 = PLANE ( 'NONE',  #239 ) ;
#241 = CARTESIAN_POINT ( 'NONE',  ( 0.0000000000000000000, -3.999999999999999100, 0.0000000000000000000 ) ) ;
#242 = CC_DESIGN_APPROVAL ( #250, ( #253 ) ) ;
#243 = APPROVAL_DATE_TIME ( #244, #250 ) ;
#244 = DATE_AND_TIME ( #245, #246 ) ;
#245 = CALENDAR_DATE ( 2009, 16, 9 ) ;
#246 = LOCAL_TIME ( 10, 0, 31.00000000000000000, #247 ) ;
#247 = COORDINATED_UNIVERSAL_TIME_OFFSET ( 9, 0, .AHEAD. ) ;
#248 = APPROVAL_PERSON_ORGANIZATION ( #252, #250, #249 ) ;
#249 = APPROVAL_ROLE ( '' ) ;
#250 = APPROVAL ( #251, 'UNSPECIFIED' ) ;
#251 = APPROVAL_STATUS ( 'not_yet_approved' ) ;
#252 = PERSON_AND_ORGANIZATION ( #280, #301 ) ;
#253 = PRODUCT_DEFINITION_FORMATION_WITH_SPECIFIED_SOURCE ( 'ANY', '', #281, .NOT_KNOWN. ) ;
#254 = CC_DESIGN_DATE_AND_TIME_ASSIGNMENT ( #256, #255, ( #294 ) ) ;
#255 = DATE_TIME_ROLE ( 'creation_date' ) ;
#256 = DATE_AND_TIME ( #257, #258 ) ;
#257 = CALENDAR_DATE ( 2009, 16, 9 ) ;
#258 = LOCAL_TIME ( 10, 0, 31.00000000000000000, #259 ) ;
#259 = COORDINATED_UNIVERSAL_TIME_OFFSET ( 9, 0, .AHEAD. ) ;
#260 = CC_DESIGN_PERSON_AND_ORGANIZATION_ASSIGNMENT ( #262, #261, ( #294 ) ) ;
#261 = PERSON_AND_ORGANIZATION_ROLE ( 'creator' ) ;
#262 = PERSON_AND_ORGANIZATION ( #280, #301 ) ;
#263 = CC_DESIGN_APPROVAL ( #291, ( #294 ) ) ;
#264 = APPROVAL_DATE_TIME ( #285, #291 ) ;
#265 = AXIS2_PLACEMENT_3D ( 'NONE', #223, #222, #221 ) ;
#266 = CIRCLE ( 'NONE', #265, 2.499999999999998700 ) ;
#267 = DIRECTION ( 'NONE',  ( 4.548073820136255300E-017, 0.9284766908852593000, -0.3713906763541037200 ) ) ;
#268 = VECTOR ( 'NONE', #267, 1000.000000000000100 ) ;
#269 = CARTESIAN_POINT ( 'NONE',  ( 5.510728592200696700E-016, -5.600000000000000500, -4.499999999999999100 ) ) ;
#270 = FACE_OUTER_BOUND ( 'NONE', #67, .T. ) ;
#271 = DIRECTION ( 'NONE',  ( 0.0000000000000000000, 0.0000000000000000000, 1.000000000000000000 ) ) ;
#272 = DIRECTION ( 'NONE',  ( 0.0000000000000000000, 1.000000000000000000, 0.0000000000000000000 ) ) ;
#273 = CARTESIAN_POINT ( 'NONE',  ( 0.0000000000000000000, -10.60000000000000000, 0.0000000000000000000 ) ) ;
#274 = AXIS2_PLACEMENT_3D ( 'NONE', #273, #272, #271 ) ;
#275 = CIRCLE ( 'NONE', #274, 2.499999999999998700 ) ;
#276 = DIRECTION ( 'NONE',  ( 0.0000000000000000000, 0.0000000000000000000, 1.000000000000000000 ) ) ;
#277 = DIRECTION ( 'NONE',  ( 0.0000000000000000000, 1.000000000000000000, 0.0000000000000000000 ) ) ;
#278 = CARTESIAN_POINT ( 'NONE',  ( 0.0000000000000000000, 0.0000000000000000000, 0.0000000000000000000 ) ) ;
#279 = AXIS2_PLACEMENT_3D ( 'NONE', #278, #277, #276 ) ;
#280 = PERSON ( 'UNSPECIFIED', 'UNSPECIFIED', 'UNSPECIFIED', ('UNSPECIFIED'), ('UNSPECIFIED'), ('UNSPECIFIED') ) ;
#281 = PRODUCT ( 'C-30-CS-9', 'C-30-CS-9', '', ( #282 ) ) ;
#282 = MECHANICAL_CONTEXT ( 'NONE', #284, 'mechanical' ) ;
#283 = APPLICATION_PROTOCOL_DEFINITION ( 'international standard', 'config_control_design', 1994, #284 ) ;
#284 = APPLICATION_CONTEXT ( 'configuration controlled 3d designs of mechanical parts and assemblies' ) ;
#285 = DATE_AND_TIME ( #286, #287 ) ;
#286 = CALENDAR_DATE ( 2009, 16, 9 ) ;
#287 = LOCAL_TIME ( 10, 0, 31.00000000000000000, #288 ) ;
#288 = COORDINATED_UNIVERSAL_TIME_OFFSET ( 9, 0, .AHEAD. ) ;
#289 = APPROVAL_PERSON_ORGANIZATION ( #293, #291, #290 ) ;
#290 = APPROVAL_ROLE ( '' ) ;
#291 = APPROVAL ( #292, 'UNSPECIFIED' ) ;
#292 = APPROVAL_STATUS ( 'not_yet_approved' ) ;
#293 = PERSON_AND_ORGANIZATION ( #280, #301 ) ;
#294 = PRODUCT_DEFINITION ( 'UNKNOWN', '', #253, #295 ) ;
#295 = DESIGN_CONTEXT ( 'detailed design', #297, 'design' ) ;
#296 = APPLICATION_PROTOCOL_DEFINITION ( 'international standard', 'config_control_design', 1994, #297 ) ;
#297 = APPLICATION_CONTEXT ( 'configuration controlled 3d designs of mechanical parts and assemblies' ) ;
#298 = CC_DESIGN_PERSON_AND_ORGANIZATION_ASSIGNMENT ( #300, #299, ( #281 ) ) ;
#299 = PERSON_AND_ORGANIZATION_ROLE ( 'design_owner' ) ;
#300 = PERSON_AND_ORGANIZATION ( #280, #301 ) ;
#301 = ORGANIZATION ( 'UNSPECIFIED', 'UNSPECIFIED', '' ) ;
#302 = CIRCLE ( 'NONE', #187, 4.499999999999999100 ) ;
#303 = CARTESIAN_POINT ( 'NONE',  ( 0.0000000000000000000, -5.600000000000000500, 0.0000000000000000000 ) ) ;
#304 = CARTESIAN_POINT ( 'NONE',  ( 0.0000000000000000000, -3.999999999999999100, 6.999999999999999100 ) ) ;
#305 = CARTESIAN_POINT ( 'NONE',  ( 0.0000000000000000000, 0.0000000000000000000, 2.999999999999999600 ) ) ;
#306 = CARTESIAN_POINT ( 'NONE',  ( 6.123031769111885300E-016, 0.0000000000000000000, -2.999999999999999600 ) ) ;
#307 = DIRECTION ( 'NONE',  ( 0.0000000000000000000, 0.0000000000000000000, 1.000000000000000000 ) ) ;
#308 = DIRECTION ( 'NONE',  ( 0.0000000000000000000, 1.000000000000000000, 0.0000000000000000000 ) ) ;
#309 = CARTESIAN_POINT ( 'NONE',  ( 0.0000000000000000000, -4.000000000000000900, 0.0000000000000000000 ) ) ;
#310 = AXIS2_PLACEMENT_3D ( 'NONE', #309, #308, #307 ) ;
#311 = DIRECTION ( 'NONE',  ( 0.0000000000000000000, 0.0000000000000000000, 1.000000000000000000 ) ) ;
#312 = DIRECTION ( 'NONE',  ( 0.0000000000000000000, 1.000000000000000000, 0.0000000000000000000 ) ) ;
#313 = CARTESIAN_POINT ( 'NONE',  ( 0.0000000000000000000, -5.600000000000000500, 0.0000000000000000000 ) ) ;
#314 = AXIS2_PLACEMENT_3D ( 'NONE', #313, #312, #311 ) ;
#315 = CIRCLE ( 'NONE', #310, 3.000000000000000000 ) ;
#316 = CONICAL_SURFACE ( 'NONE', #314, 4.499999999999999100, 0.3805063771123649600 ) ;
#317 = FACE_OUTER_BOUND ( 'NONE', #127, .T. ) ;
#318 = DIRECTION ( 'NONE',  ( 0.0000000000000000000, 0.0000000000000000000, 1.000000000000000000 ) ) ;
#319 = DIRECTION ( 'NONE',  ( 0.0000000000000000000, 1.000000000000000000, 0.0000000000000000000 ) ) ;
#320 = CARTESIAN_POINT ( 'NONE',  ( 0.0000000000000000000, 0.0000000000000000000, 0.0000000000000000000 ) ) ;
#321 = AXIS2_PLACEMENT_3D ( 'NONE', #320, #319, #318 ) ;
#322 = PLANE ( 'NONE',  #321 ) ;
#323 = APPROVAL_ROLE ( '' ) ;
#324 = DATE_AND_TIME ( #332, #330 ) ;
#325 = COORDINATED_UNIVERSAL_TIME_OFFSET ( 9, 0, .AHEAD. ) ;
#326 = SHAPE_DEFINITION_REPRESENTATION ( #331, #196 ) ;
#327 = PERSON_AND_ORGANIZATION ( #280, #301 ) ;
#328 = APPROVAL_STATUS ( 'not_yet_approved' ) ;
#329 = APPROVAL ( #328, 'UNSPECIFIED' ) ;
#330 = LOCAL_TIME ( 10, 0, 31.00000000000000000, #325 ) ;
#331 = PRODUCT_DEFINITION_SHAPE ( 'NONE', 'NONE',  #294 ) ;
#332 = CALENDAR_DATE ( 2009, 16, 9 ) ;
#333 = APPROVAL_DATE_TIME ( #324, #329 ) ;
#334 = APPROVAL_PERSON_ORGANIZATION ( #327, #329, #323 ) ;
#335 = CC_DESIGN_SECURITY_CLASSIFICATION ( #84, ( #253 ) ) ;
#336 = CC_DESIGN_APPROVAL ( #329, ( #84 ) ) ;
#337 = PRODUCT_RELATED_PRODUCT_CATEGORY ( 'detail', '', ( #281 ) ) ;
ENDSEC;
END-ISO-10303-21;
