ISO-10303-21;
HEADER;
FILE_DESCRIPTION (( 'STEP AP203' ),
    '1' );
FILE_NAME ('C-30-CS-8.STEP',
    '2009-09-16T00:59:51',
    ( ' ' ),
    ( ' ' ),
    'SwSTEP 2.0',
    'SolidWorks 2007',
    '' );
FILE_SCHEMA (( 'CONFIG_CONTROL_DESIGN' ));
ENDSEC;

DATA;
#1 = EDGE_CURVE ( 'NONE', #3, #8, #104, .T. ) ;
#2 = EDGE_LOOP ( 'NONE', ( #23, #34 ) ) ;
#3 = VERTEX_POINT ( 'NONE', #116 ) ;
#4 = EDGE_CURVE ( 'NONE', #82, #12, #113, .T. ) ;
#5 = ORIENTED_EDGE ( 'NONE', *, *, #1, .F. ) ;
#6 = ADVANCED_FACE ( 'NONE', ( #289, #288 ), #287, .T. ) ;
#7 = ORIENTED_EDGE ( 'NONE', *, *, #29, .F. ) ;
#8 = VERTEX_POINT ( 'NONE', #264 ) ;
#9 = VERTEX_POINT ( 'NONE', #290 ) ;
#10 = EDGE_CURVE ( 'NONE', #9, #13, #295, .T. ) ;
#11 = ORIENTED_EDGE ( 'NONE', *, *, #19, .T. ) ;
#12 = VERTEX_POINT ( 'NONE', #259 ) ;
#13 = VERTEX_POINT ( 'NONE', #258 ) ;
#14 = EDGE_LOOP ( 'NONE', ( #38, #30 ) ) ;
#15 = ORIENTED_EDGE ( 'NONE', *, *, #37, .F. ) ;
#16 = EDGE_CURVE ( 'NONE', #9, #3, #184, .T. ) ;
#17 = ADVANCED_FACE ( 'NONE', ( #180 ), #179, .T. ) ;
#18 = ORIENTED_EDGE ( 'NONE', *, *, #16, .F. ) ;
#19 = EDGE_CURVE ( 'NONE', #13, #8, #286, .T. ) ;
#20 = VERTEX_POINT ( 'NONE', #281 ) ;
#21 = ORIENTED_EDGE ( 'NONE', *, *, #10, .T. ) ;
#22 = ORIENTED_EDGE ( 'NONE', *, *, #10, .F. ) ;
#23 = ORIENTED_EDGE ( 'NONE', *, *, #35, .T. ) ;
#24 = EDGE_CURVE ( 'NONE', #13, #9, #147, .T. ) ;
#25 = EDGE_LOOP ( 'NONE', ( #21, #11, #5, #18 ) ) ;
#26 = ADVANCED_FACE ( 'NONE', ( #142 ), #141, .T. ) ;
#27 = EDGE_CURVE ( 'NONE', #12, #20, #135, .T. ) ;
#28 = ORIENTED_EDGE ( 'NONE', *, *, #35, .F. ) ;
#29 = EDGE_CURVE ( 'NONE', #8, #3, #131, .T. ) ;
#30 = ORIENTED_EDGE ( 'NONE', *, *, #29, .T. ) ;
#31 = ORIENTED_EDGE ( 'NONE', *, *, #24, .T. ) ;
#32 = EDGE_LOOP ( 'NONE', ( #33, #31, #44, #7 ) ) ;
#33 = ORIENTED_EDGE ( 'NONE', *, *, #19, .F. ) ;
#34 = ORIENTED_EDGE ( 'NONE', *, *, #27, .T. ) ;
#35 = EDGE_CURVE ( 'NONE', #20, #12, #126, .T. ) ;
#36 = ORIENTED_EDGE ( 'NONE', *, *, #4, .F. ) ;
#37 = EDGE_CURVE ( 'NONE', #86, #20, #121, .T. ) ;
#38 = ORIENTED_EDGE ( 'NONE', *, *, #1, .T. ) ;
#39 = ADVANCED_FACE ( 'NONE', ( #117 ), #157, .T. ) ;
#40 = ADVANCED_FACE ( 'NONE', ( #158 ), #152, .T. ) ;
#41 = EDGE_LOOP ( 'NONE', ( #36, #45, #54, #50 ) ) ;
#42 = EDGE_LOOP ( 'NONE', ( #22, #43 ) ) ;
#43 = ORIENTED_EDGE ( 'NONE', *, *, #24, .F. ) ;
#44 = ORIENTED_EDGE ( 'NONE', *, *, #16, .T. ) ;
#45 = ORIENTED_EDGE ( 'NONE', *, *, #47, .T. ) ;
#46 = ORIENTED_EDGE ( 'NONE', *, *, #101, .T. ) ;
#47 = EDGE_CURVE ( 'NONE', #82, #86, #256, .T. ) ;
#48 = ADVANCED_FACE ( 'NONE', ( #251, #250 ), #249, .T. ) ;
#49 = ORIENTED_EDGE ( 'NONE', *, *, #57, .T. ) ;
#50 = ORIENTED_EDGE ( 'NONE', *, *, #27, .F. ) ;
#51 = ORIENTED_EDGE ( 'NONE', *, *, #59, .T. ) ;
#52 = ORIENTED_EDGE ( 'NONE', *, *, #98, .F. ) ;
#53 = ORIENTED_EDGE ( 'NONE', *, *, #99, .T. ) ;
#54 = ORIENTED_EDGE ( 'NONE', *, *, #37, .T. ) ;
#55 = EDGE_LOOP ( 'NONE', ( #53, #49 ) ) ;
#56 = ADVANCED_FACE ( 'NONE', ( #244 ), #243, .T. ) ;
#57 = EDGE_CURVE ( 'NONE', #100, #87, #237, .T. ) ;
#58 = EDGE_LOOP ( 'NONE', ( #52, #51, #46, #66 ) ) ;
#59 = EDGE_CURVE ( 'NONE', #90, #96, #233, .T. ) ;
#60 = CLOSED_SHELL ( 'NONE', ( #80, #95, #26, #17, #40, #6, #39, #48, #56, #61 ) ) ;
#61 = ADVANCED_FACE ( 'NONE', ( #317 ), #316, .T. ) ;
#62 = ORIENTED_EDGE ( 'NONE', *, *, #59, .F. ) ;
#63 = DIRECTION ( 'NONE',  ( 0.0000000000000000000, 0.0000000000000000000, 1.000000000000000000 ) ) ;
#64 = EDGE_LOOP ( 'NONE', ( #68, #67 ) ) ;
#65 = ORIENTED_EDGE ( 'NONE', *, *, #89, .F. ) ;
#66 = ORIENTED_EDGE ( 'NONE', *, *, #57, .F. ) ;
#67 = ORIENTED_EDGE ( 'NONE', *, *, #47, .F. ) ;
#68 = ORIENTED_EDGE ( 'NONE', *, *, #85, .F. ) ;
#69 = EDGE_LOOP ( 'NONE', ( #65, #62 ) ) ;
#70 = DIRECTION ( 'NONE',  ( 0.0000000000000000000, 1.000000000000000000, 0.0000000000000000000 ) ) ;
#71 = DATE_AND_TIME ( #92, #93 ) ;
#72 = CC_DESIGN_DATE_AND_TIME_ASSIGNMENT ( #71, #73, ( #189 ) ) ;
#73 = DATE_TIME_ROLE ( 'classification_date' ) ;
#74 = DATE_AND_TIME ( #115, #78 ) ;
#75 = COORDINATED_UNIVERSAL_TIME_OFFSET ( 9, 0, .AHEAD. ) ;
#76 = APPROVAL_DATE_TIME ( #74, #109 ) ;
#77 = VECTOR ( 'NONE', #70, 1000.000000000000000 ) ;
#78 = LOCAL_TIME ( 9, 59, 51.00000000000000000, #75 ) ;
#79 = MANIFOLD_SOLID_BREP ( 'NONE', #60 ) ;
#80 = ADVANCED_FACE ( 'NONE', ( #311 ), #310, .T. ) ;
#81 = ORIENTED_EDGE ( 'NONE', *, *, #89, .T. ) ;
#82 = VERTEX_POINT ( 'NONE', #280 ) ;
#83 = ORIENTED_EDGE ( 'NONE', *, *, #85, .T. ) ;
#84 = ORIENTED_EDGE ( 'NONE', *, *, #4, .T. ) ;
#85 = EDGE_CURVE ( 'NONE', #86, #82, #279, .T. ) ;
#86 = VERTEX_POINT ( 'NONE', #274 ) ;
#87 = VERTEX_POINT ( 'NONE', #273 ) ;
#88 = EDGE_LOOP ( 'NONE', ( #83, #84, #28, #15 ) ) ;
#89 = EDGE_CURVE ( 'NONE', #96, #90, #272, .T. ) ;
#90 = VERTEX_POINT ( 'NONE', #267 ) ;
#91 = EDGE_LOOP ( 'NONE', ( #81, #103, #97, #102 ) ) ;
#92 = CALENDAR_DATE ( 2009, 16, 9 ) ;
#93 = LOCAL_TIME ( 9, 59, 51.00000000000000000, #94 ) ;
#94 = COORDINATED_UNIVERSAL_TIME_OFFSET ( 9, 0, .AHEAD. ) ;
#95 = ADVANCED_FACE ( 'NONE', ( #266 ), #265, .T. ) ;
#96 = VERTEX_POINT ( 'NONE', #329 ) ;
#97 = ORIENTED_EDGE ( 'NONE', *, *, #99, .F. ) ;
#98 = EDGE_CURVE ( 'NONE', #90, #100, #328, .T. ) ;
#99 = EDGE_CURVE ( 'NONE', #87, #100, #324, .T. ) ;
#100 = VERTEX_POINT ( 'NONE', #230 ) ;
#101 = EDGE_CURVE ( 'NONE', #96, #87, #229, .T. ) ;
#102 = ORIENTED_EDGE ( 'NONE', *, *, #101, .F. ) ;
#103 = ORIENTED_EDGE ( 'NONE', *, *, #98, .T. ) ;
#104 = CIRCLE ( 'NONE', #112, 3.000000000000000400 ) ;
#105 = APPROVAL_STATUS ( 'not_yet_approved' ) ;
#106 = PERSON_AND_ORGANIZATION ( #297, #296 ) ;
#107 = APPROVAL_PERSON_ORGANIZATION ( #106, #109, #108 ) ;
#108 = APPROVAL_ROLE ( '' ) ;
#109 = APPROVAL ( #105, 'UNSPECIFIED' ) ;
#110 = DIRECTION ( 'NONE',  ( 0.0000000000000000000, 1.000000000000000000, 0.0000000000000000000 ) ) ;
#111 = CARTESIAN_POINT ( 'NONE',  ( 0.0000000000000000000, -4.336808689942017700E-016, 0.0000000000000000000 ) ) ;
#112 = AXIS2_PLACEMENT_3D ( 'NONE', #111, #110, #63 ) ;
#113 = LINE ( 'NONE', #114, #77 ) ;
#114 = CARTESIAN_POINT ( 'NONE',  ( 3.061515884555942700E-016, 0.0000000000000000000, -2.499999999999999600 ) ) ;
#115 = CALENDAR_DATE ( 2009, 16, 9 ) ;
#116 = CARTESIAN_POINT ( 'NONE',  ( 0.0000000000000000000, -4.336808689942017700E-016, 3.000000000000000400 ) ) ;
#117 = FACE_OUTER_BOUND ( 'NONE', #41, .T. ) ;
#118 = DIRECTION ( 'NONE',  ( 0.0000000000000000000, 1.000000000000000000, 0.0000000000000000000 ) ) ;
#119 = VECTOR ( 'NONE', #118, 1000.000000000000000 ) ;
#120 = CARTESIAN_POINT ( 'NONE',  ( 0.0000000000000000000, 0.0000000000000000000, 2.499999999999999600 ) ) ;
#121 = LINE ( 'NONE', #120, #119 ) ;
#122 = DIRECTION ( 'NONE',  ( 0.0000000000000000000, 0.0000000000000000000, 1.000000000000000000 ) ) ;
#123 = DIRECTION ( 'NONE',  ( 0.0000000000000000000, 1.000000000000000000, 0.0000000000000000000 ) ) ;
#124 = CARTESIAN_POINT ( 'NONE',  ( 0.0000000000000000000, -3.000000000000000900, 0.0000000000000000000 ) ) ;
#125 = AXIS2_PLACEMENT_3D ( 'NONE', #124, #123, #122 ) ;
#126 = CIRCLE ( 'NONE', #125, 2.500000000000000000 ) ;
#127 = DIRECTION ( 'NONE',  ( 0.0000000000000000000, 0.0000000000000000000, 1.000000000000000000 ) ) ;
#128 = DIRECTION ( 'NONE',  ( 0.0000000000000000000, 1.000000000000000000, 0.0000000000000000000 ) ) ;
#129 = CARTESIAN_POINT ( 'NONE',  ( 0.0000000000000000000, -4.336808689942017700E-016, 0.0000000000000000000 ) ) ;
#130 = AXIS2_PLACEMENT_3D ( 'NONE', #129, #128, #127 ) ;
#131 = CIRCLE ( 'NONE', #130, 3.000000000000000400 ) ;
#132 = DIRECTION ( 'NONE',  ( 0.0000000000000000000, 0.0000000000000000000, 1.000000000000000000 ) ) ;
#133 = DIRECTION ( 'NONE',  ( 0.0000000000000000000, 1.000000000000000000, 0.0000000000000000000 ) ) ;
#134 = AXIS2_PLACEMENT_3D ( 'NONE', #140, #133, #132 ) ;
#135 = CIRCLE ( 'NONE', #134, 2.500000000000000000 ) ;
#136 = DIRECTION ( 'NONE',  ( 0.0000000000000000000, 0.0000000000000000000, 1.000000000000000000 ) ) ;
#137 = DIRECTION ( 'NONE',  ( 0.0000000000000000000, 1.000000000000000000, 0.0000000000000000000 ) ) ;
#138 = CARTESIAN_POINT ( 'NONE',  ( 0.0000000000000000000, -3.000000000000000400, 0.0000000000000000000 ) ) ;
#139 = AXIS2_PLACEMENT_3D ( 'NONE', #138, #137, #136 ) ;
#140 = CARTESIAN_POINT ( 'NONE',  ( 0.0000000000000000000, -3.000000000000000900, 0.0000000000000000000 ) ) ;
#141 = TOROIDAL_SURFACE ( 'NONE', #139, 3.000000000000000000, 3.000000000000000000 ) ;
#142 = FACE_OUTER_BOUND ( 'NONE', #25, .T. ) ;
#143 = DIRECTION ( 'NONE',  ( 0.0000000000000000000, 0.0000000000000000000, 1.000000000000000000 ) ) ;
#144 = DIRECTION ( 'NONE',  ( 0.0000000000000000000, 1.000000000000000000, 0.0000000000000000000 ) ) ;
#145 = CARTESIAN_POINT ( 'NONE',  ( 0.0000000000000000000, -3.000000000000000000, 0.0000000000000000000 ) ) ;
#146 = AXIS2_PLACEMENT_3D ( 'NONE', #145, #144, #143 ) ;
#147 = CIRCLE ( 'NONE', #146, 6.000000000000000000 ) ;
#148 = DIRECTION ( 'NONE',  ( 0.0000000000000000000, 0.0000000000000000000, 1.000000000000000000 ) ) ;
#149 = DIRECTION ( 'NONE',  ( 0.0000000000000000000, 1.000000000000000000, 0.0000000000000000000 ) ) ;
#150 = CARTESIAN_POINT ( 'NONE',  ( 0.0000000000000000000, -3.000000000000000400, 0.0000000000000000000 ) ) ;
#151 = AXIS2_PLACEMENT_3D ( 'NONE', #150, #149, #148 ) ;
#152 = TOROIDAL_SURFACE ( 'NONE', #151, 3.000000000000000000, 3.000000000000000000 ) ;
#153 = DIRECTION ( 'NONE',  ( 0.0000000000000000000, 0.0000000000000000000, 1.000000000000000000 ) ) ;
#154 = DIRECTION ( 'NONE',  ( 0.0000000000000000000, 1.000000000000000000, 0.0000000000000000000 ) ) ;
#155 = CARTESIAN_POINT ( 'NONE',  ( 0.0000000000000000000, 0.0000000000000000000, 0.0000000000000000000 ) ) ;
#156 = AXIS2_PLACEMENT_3D ( 'NONE', #155, #154, #153 ) ;
#157 = CYLINDRICAL_SURFACE ( 'NONE', #156, 2.499999999999999600 ) ;
#158 = FACE_OUTER_BOUND ( 'NONE', #32, .T. ) ;
#159 = DATE_AND_TIME ( #199, #200 ) ;
#160 = COORDINATED_UNIVERSAL_TIME_OFFSET ( 9, 0, .AHEAD. ) ;
#161 = APPROVAL_PERSON_ORGANIZATION ( #165, #163, #162 ) ;
#162 = APPROVAL_ROLE ( '' ) ;
#163 = APPROVAL ( #164, 'UNSPECIFIED' ) ;
#164 = APPROVAL_STATUS ( 'not_yet_approved' ) ;
#165 = PERSON_AND_ORGANIZATION ( #297, #296 ) ;
#166 = PRODUCT_DEFINITION_FORMATION_WITH_SPECIFIED_SOURCE ( 'ANY', '', #298, .NOT_KNOWN. ) ;
#167 = CC_DESIGN_DATE_AND_TIME_ASSIGNMENT ( #169, #168, ( #209 ) ) ;
#168 = DATE_TIME_ROLE ( 'creation_date' ) ;
#169 = DATE_AND_TIME ( #170, #171 ) ;
#170 = CALENDAR_DATE ( 2009, 16, 9 ) ;
#171 = LOCAL_TIME ( 9, 59, 51.00000000000000000, #172 ) ;
#172 = COORDINATED_UNIVERSAL_TIME_OFFSET ( 9, 0, .AHEAD. ) ;
#173 = CC_DESIGN_PERSON_AND_ORGANIZATION_ASSIGNMENT ( #175, #174, ( #209 ) ) ;
#174 = PERSON_AND_ORGANIZATION_ROLE ( 'creator' ) ;
#175 = PERSON_AND_ORGANIZATION ( #297, #296 ) ;
#176 = CC_DESIGN_APPROVAL ( #206, ( #209 ) ) ;
#177 = APPROVAL_DATE_TIME ( #178, #206 ) ;
#178 = DATE_AND_TIME ( #201, #202 ) ;
#179 = PLANE ( 'NONE',  #305 ) ;
#180 = FACE_OUTER_BOUND ( 'NONE', #14, .T. ) ;
#181 = DIRECTION ( 'NONE',  ( 0.0000000000000000000, 0.0000000000000000000, 1.000000000000000000 ) ) ;
#182 = DIRECTION ( 'NONE',  ( -1.000000000000000000, 0.0000000000000000000, 0.0000000000000000000 ) ) ;
#183 = AXIS2_PLACEMENT_3D ( 'NONE', #257, #182, #181 ) ;
#184 = CIRCLE ( 'NONE', #183, 3.000000000000000000 ) ;
#185 = CC_DESIGN_APPROVAL ( #109, ( #189 ) ) ;
#186 = CC_DESIGN_PERSON_AND_ORGANIZATION_ASSIGNMENT ( #188, #187, ( #189 ) ) ;
#187 = PERSON_AND_ORGANIZATION_ROLE ( 'classification_officer' ) ;
#188 = PERSON_AND_ORGANIZATION ( #297, #296 ) ;
#189 = SECURITY_CLASSIFICATION ( '', '', #190 ) ;
#190 = SECURITY_CLASSIFICATION_LEVEL ( 'unclassified' ) ;
#191 = CC_DESIGN_PERSON_AND_ORGANIZATION_ASSIGNMENT ( #193, #192, ( #166 ) ) ;
#192 = PERSON_AND_ORGANIZATION_ROLE ( 'design_supplier' ) ;
#193 = PERSON_AND_ORGANIZATION ( #297, #296 ) ;
#194 = CC_DESIGN_PERSON_AND_ORGANIZATION_ASSIGNMENT ( #196, #195, ( #166 ) ) ;
#195 = PERSON_AND_ORGANIZATION_ROLE ( 'creator' ) ;
#196 = PERSON_AND_ORGANIZATION ( #297, #296 ) ;
#197 = CC_DESIGN_APPROVAL ( #163, ( #166 ) ) ;
#198 = APPROVAL_DATE_TIME ( #159, #163 ) ;
#199 = CALENDAR_DATE ( 2009, 16, 9 ) ;
#200 = LOCAL_TIME ( 9, 59, 51.00000000000000000, #160 ) ;
#201 = CALENDAR_DATE ( 2009, 16, 9 ) ;
#202 = LOCAL_TIME ( 9, 59, 51.00000000000000000, #203 ) ;
#203 = COORDINATED_UNIVERSAL_TIME_OFFSET ( 9, 0, .AHEAD. ) ;
#204 = APPROVAL_PERSON_ORGANIZATION ( #208, #206, #205 ) ;
#205 = APPROVAL_ROLE ( '' ) ;
#206 = APPROVAL ( #207, 'UNSPECIFIED' ) ;
#207 = APPROVAL_STATUS ( 'not_yet_approved' ) ;
#208 = PERSON_AND_ORGANIZATION ( #297, #296 ) ;
#209 = PRODUCT_DEFINITION ( 'UNKNOWN', '', #166, #210 ) ;
#210 = DESIGN_CONTEXT ( 'detailed design', #212, 'design' ) ;
#211 = APPLICATION_PROTOCOL_DEFINITION ( 'international standard', 'config_control_design', 1994, #212 ) ;
#212 = APPLICATION_CONTEXT ( 'configuration controlled 3d designs of mechanical parts and assemblies' ) ;
#213 = CC_DESIGN_PERSON_AND_ORGANIZATION_ASSIGNMENT ( #215, #214, ( #298 ) ) ;
#214 = PERSON_AND_ORGANIZATION_ROLE ( 'design_owner' ) ;
#215 = PERSON_AND_ORGANIZATION ( #297, #296 ) ;
#216 = DIRECTION ( 'NONE',  ( 1.000000000000000000, 0.0000000000000000000, 0.0000000000000000000 ) ) ;
#217 = DIRECTION ( 'NONE',  ( 0.0000000000000000000, 0.0000000000000000000, 1.000000000000000000 ) ) ;
#218 = CARTESIAN_POINT ( 'NONE',  ( 0.0000000000000000000, 0.0000000000000000000, 0.0000000000000000000 ) ) ;
#219 = AXIS2_PLACEMENT_3D ( 'NONE', #218, #217, #216 ) ;
#220 = ADVANCED_BREP_SHAPE_REPRESENTATION ( 'C-30-CS-8', ( #79, #219 ), #221 ) ;
#221 =( GEOMETRIC_REPRESENTATION_CONTEXT ( 3 ) GLOBAL_UNCERTAINTY_ASSIGNED_CONTEXT ( ( #222 ) ) GLOBAL_UNIT_ASSIGNED_CONTEXT ( ( #225, #224, #223 ) ) REPRESENTATION_CONTEXT ( 'NONE', 'WORKASPACE' ) );
#222 = UNCERTAINTY_MEASURE_WITH_UNIT (LENGTH_MEASURE( 1.000000000000000100E-005 ), #225, 'distance_accuracy_value', 'NONE');
#223 =( NAMED_UNIT ( * ) SI_UNIT ( $, .STERADIAN. ) SOLID_ANGLE_UNIT ( ) );
#224 =( NAMED_UNIT ( * ) PLANE_ANGLE_UNIT ( ) SI_UNIT ( $, .RADIAN. ) );
#225 =( LENGTH_UNIT ( ) NAMED_UNIT ( * ) SI_UNIT ( .MILLI., .METRE. ) );
#226 = DIRECTION ( 'NONE',  ( 0.0000000000000000000, 0.9363291775690444400, 0.3511234415883918700 ) ) ;
#227 = VECTOR ( 'NONE', #226, 1000.000000000000000 ) ;
#228 = CARTESIAN_POINT ( 'NONE',  ( 0.0000000000000000000, -4.600000000000000500, 3.499999999999999600 ) ) ;
#229 = LINE ( 'NONE', #228, #227 ) ;
#230 = CARTESIAN_POINT ( 'NONE',  ( 4.286122238378319900E-016, -4.600000000000000500, -3.499999999999999600 ) ) ;
#231 = DIRECTION ( 'NONE',  ( 0.0000000000000000000, 0.0000000000000000000, 1.000000000000000000 ) ) ;
#232 = CARTESIAN_POINT ( 'NONE',  ( 0.0000000000000000000, -8.599999999999999600, 0.0000000000000000000 ) ) ;
#233 = CIRCLE ( 'NONE', #320, 1.999999999999999100 ) ;
#234 = DIRECTION ( 'NONE',  ( 0.0000000000000000000, 0.0000000000000000000, 1.000000000000000000 ) ) ;
#235 = DIRECTION ( 'NONE',  ( 0.0000000000000000000, 1.000000000000000000, 0.0000000000000000000 ) ) ;
#236 = AXIS2_PLACEMENT_3D ( 'NONE', #242, #235, #234 ) ;
#237 = CIRCLE ( 'NONE', #236, 3.499999999999999600 ) ;
#238 = DIRECTION ( 'NONE',  ( 0.0000000000000000000, 0.0000000000000000000, 1.000000000000000000 ) ) ;
#239 = DIRECTION ( 'NONE',  ( 0.0000000000000000000, 1.000000000000000000, 0.0000000000000000000 ) ) ;
#240 = CARTESIAN_POINT ( 'NONE',  ( 0.0000000000000000000, -4.600000000000000500, 0.0000000000000000000 ) ) ;
#241 = AXIS2_PLACEMENT_3D ( 'NONE', #240, #239, #238 ) ;
#242 = CARTESIAN_POINT ( 'NONE',  ( 0.0000000000000000000, -4.600000000000000500, 0.0000000000000000000 ) ) ;
#243 = CONICAL_SURFACE ( 'NONE', #241, 3.499999999999999600, 0.3587706702705724100 ) ;
#244 = FACE_OUTER_BOUND ( 'NONE', #58, .T. ) ;
#245 = DIRECTION ( 'NONE',  ( 0.0000000000000000000, 0.0000000000000000000, 1.000000000000000000 ) ) ;
#246 = DIRECTION ( 'NONE',  ( 0.0000000000000000000, 1.000000000000000000, 0.0000000000000000000 ) ) ;
#247 = CARTESIAN_POINT ( 'NONE',  ( -2.499999999999999600, -4.600000000000000500, 0.0000000000000000000 ) ) ;
#248 = AXIS2_PLACEMENT_3D ( 'NONE', #247, #246, #245 ) ;
#249 = PLANE ( 'NONE',  #248 ) ;
#250 = FACE_BOUND ( 'NONE', #64, .T. ) ;
#251 = FACE_OUTER_BOUND ( 'NONE', #55, .T. ) ;
#252 = DIRECTION ( 'NONE',  ( 0.0000000000000000000, 0.0000000000000000000, 1.000000000000000000 ) ) ;
#253 = DIRECTION ( 'NONE',  ( 0.0000000000000000000, 1.000000000000000000, 0.0000000000000000000 ) ) ;
#254 = CARTESIAN_POINT ( 'NONE',  ( 0.0000000000000000000, -4.600000000000000500, 0.0000000000000000000 ) ) ;
#255 = AXIS2_PLACEMENT_3D ( 'NONE', #254, #253, #252 ) ;
#256 = CIRCLE ( 'NONE', #255, 2.499999999999999600 ) ;
#257 = CARTESIAN_POINT ( 'NONE',  ( 0.0000000000000000000, -3.000000000000000400, 3.000000000000000000 ) ) ;
#258 = CARTESIAN_POINT ( 'NONE',  ( 7.347638122934263500E-016, -3.000000000000000000, -6.000000000000000000 ) ) ;
#259 = CARTESIAN_POINT ( 'NONE',  ( 3.061515884555943100E-016, -3.000000000000000900, -2.500000000000000000 ) ) ;
#260 = DIRECTION ( 'NONE',  ( 0.0000000000000000000, 0.0000000000000000000, -1.000000000000000000 ) ) ;
#261 = DIRECTION ( 'NONE',  ( 0.0000000000000000000, -1.000000000000000000, 0.0000000000000000000 ) ) ;
#262 = CARTESIAN_POINT ( 'NONE',  ( -6.000000000000000000, -3.000000000000000400, 0.0000000000000000000 ) ) ;
#263 = AXIS2_PLACEMENT_3D ( 'NONE', #262, #261, #260 ) ;
#264 = CARTESIAN_POINT ( 'NONE',  ( 5.510728592200698600E-016, -4.336808689942017700E-016, -3.000000000000000900 ) ) ;
#265 = CYLINDRICAL_SURFACE ( 'NONE', #333, 2.499999999999999600 ) ;
#266 = FACE_OUTER_BOUND ( 'NONE', #88, .T. ) ;
#267 = CARTESIAN_POINT ( 'NONE',  ( 3.367667473011537000E-016, -8.599999999999999600, -1.999999999999999100 ) ) ;
#268 = DIRECTION ( 'NONE',  ( 0.0000000000000000000, 0.0000000000000000000, 1.000000000000000000 ) ) ;
#269 = DIRECTION ( 'NONE',  ( 0.0000000000000000000, 1.000000000000000000, 0.0000000000000000000 ) ) ;
#270 = CARTESIAN_POINT ( 'NONE',  ( 0.0000000000000000000, -8.599999999999999600, 0.0000000000000000000 ) ) ;
#271 = AXIS2_PLACEMENT_3D ( 'NONE', #270, #269, #268 ) ;
#272 = CIRCLE ( 'NONE', #271, 1.999999999999999100 ) ;
#273 = CARTESIAN_POINT ( 'NONE',  ( 0.0000000000000000000, -4.600000000000000500, 3.499999999999999600 ) ) ;
#274 = CARTESIAN_POINT ( 'NONE',  ( 0.0000000000000000000, -4.600000000000000500, 2.499999999999999600 ) ) ;
#275 = DIRECTION ( 'NONE',  ( 0.0000000000000000000, 0.0000000000000000000, 1.000000000000000000 ) ) ;
#276 = DIRECTION ( 'NONE',  ( 0.0000000000000000000, 1.000000000000000000, 0.0000000000000000000 ) ) ;
#277 = CARTESIAN_POINT ( 'NONE',  ( 0.0000000000000000000, -4.600000000000000500, 0.0000000000000000000 ) ) ;
#278 = AXIS2_PLACEMENT_3D ( 'NONE', #277, #276, #275 ) ;
#279 = CIRCLE ( 'NONE', #278, 2.499999999999999600 ) ;
#280 = CARTESIAN_POINT ( 'NONE',  ( 3.061515884555942700E-016, -4.600000000000000500, -2.499999999999999600 ) ) ;
#281 = CARTESIAN_POINT ( 'NONE',  ( 0.0000000000000000000, -3.000000000000000900, 2.500000000000000000 ) ) ;
#282 = DIRECTION ( 'NONE',  ( 1.224606353822377300E-016, 0.0000000000000000000, -1.000000000000000000 ) ) ;
#283 = DIRECTION ( 'NONE',  ( 1.000000000000000000, 0.0000000000000000000, 1.224606353822377300E-016 ) ) ;
#284 = CARTESIAN_POINT ( 'NONE',  ( 3.673819061467131800E-016, -3.000000000000000400, -3.000000000000000000 ) ) ;
#285 = AXIS2_PLACEMENT_3D ( 'NONE', #284, #283, #282 ) ;
#286 = CIRCLE ( 'NONE', #285, 3.000000000000000000 ) ;
#287 = PLANE ( 'NONE',  #263 ) ;
#288 = FACE_OUTER_BOUND ( 'NONE', #42, .T. ) ;
#289 = FACE_BOUND ( 'NONE', #2, .T. ) ;
#290 = CARTESIAN_POINT ( 'NONE',  ( 0.0000000000000000000, -3.000000000000000000, 6.000000000000000000 ) ) ;
#291 = DIRECTION ( 'NONE',  ( 0.0000000000000000000, 0.0000000000000000000, 1.000000000000000000 ) ) ;
#292 = DIRECTION ( 'NONE',  ( 0.0000000000000000000, 1.000000000000000000, 0.0000000000000000000 ) ) ;
#293 = CARTESIAN_POINT ( 'NONE',  ( 0.0000000000000000000, -3.000000000000000000, 0.0000000000000000000 ) ) ;
#294 = AXIS2_PLACEMENT_3D ( 'NONE', #293, #292, #291 ) ;
#295 = CIRCLE ( 'NONE', #294, 6.000000000000000000 ) ;
#296 = ORGANIZATION ( 'UNSPECIFIED', 'UNSPECIFIED', '' ) ;
#297 = PERSON ( 'UNSPECIFIED', 'UNSPECIFIED', 'UNSPECIFIED', ('UNSPECIFIED'), ('UNSPECIFIED'), ('UNSPECIFIED') ) ;
#298 = PRODUCT ( 'C-30-CS-8', 'C-30-CS-8', '', ( #299 ) ) ;
#299 = MECHANICAL_CONTEXT ( 'NONE', #301, 'mechanical' ) ;
#300 = APPLICATION_PROTOCOL_DEFINITION ( 'international standard', 'config_control_design', 1994, #301 ) ;
#301 = APPLICATION_CONTEXT ( 'configuration controlled 3d designs of mechanical parts and assemblies' ) ;
#302 = DIRECTION ( 'NONE',  ( 0.0000000000000000000, 0.0000000000000000000, 1.000000000000000000 ) ) ;
#303 = DIRECTION ( 'NONE',  ( 0.0000000000000000000, 1.000000000000000000, 0.0000000000000000000 ) ) ;
#304 = CARTESIAN_POINT ( 'NONE',  ( 0.0000000000000000000, -2.168404344971008900E-016, 0.0000000000000000000 ) ) ;
#305 = AXIS2_PLACEMENT_3D ( 'NONE', #304, #303, #302 ) ;
#306 = DIRECTION ( 'NONE',  ( 0.0000000000000000000, 0.0000000000000000000, 1.000000000000000000 ) ) ;
#307 = DIRECTION ( 'NONE',  ( 0.0000000000000000000, 1.000000000000000000, 0.0000000000000000000 ) ) ;
#308 = CARTESIAN_POINT ( 'NONE',  ( 0.0000000000000000000, -4.600000000000000500, 0.0000000000000000000 ) ) ;
#309 = AXIS2_PLACEMENT_3D ( 'NONE', #308, #307, #306 ) ;
#310 = CONICAL_SURFACE ( 'NONE', #309, 3.499999999999999600, 0.3587706702705724100 ) ;
#311 = FACE_OUTER_BOUND ( 'NONE', #91, .T. ) ;
#312 = DIRECTION ( 'NONE',  ( 0.0000000000000000000, 0.0000000000000000000, -1.000000000000000000 ) ) ;
#313 = DIRECTION ( 'NONE',  ( 0.0000000000000000000, -1.000000000000000000, 0.0000000000000000000 ) ) ;
#314 = CARTESIAN_POINT ( 'NONE',  ( -1.999999999999999100, -8.599999999999999600, 0.0000000000000000000 ) ) ;
#315 = AXIS2_PLACEMENT_3D ( 'NONE', #314, #313, #312 ) ;
#316 = PLANE ( 'NONE',  #315 ) ;
#317 = FACE_OUTER_BOUND ( 'NONE', #69, .T. ) ;
#318 = DIRECTION ( 'NONE',  ( 0.0000000000000000000, 0.0000000000000000000, 1.000000000000000000 ) ) ;
#319 = DIRECTION ( 'NONE',  ( 0.0000000000000000000, 1.000000000000000000, 0.0000000000000000000 ) ) ;
#320 = AXIS2_PLACEMENT_3D ( 'NONE', #232, #319, #318 ) ;
#321 = DIRECTION ( 'NONE',  ( 0.0000000000000000000, 1.000000000000000000, 0.0000000000000000000 ) ) ;
#322 = CARTESIAN_POINT ( 'NONE',  ( 0.0000000000000000000, -4.600000000000000500, 0.0000000000000000000 ) ) ;
#323 = AXIS2_PLACEMENT_3D ( 'NONE', #322, #321, #231 ) ;
#324 = CIRCLE ( 'NONE', #323, 3.499999999999999600 ) ;
#325 = DIRECTION ( 'NONE',  ( 4.299879975451250400E-017, 0.9363291775690444400, -0.3511234415883918700 ) ) ;
#326 = VECTOR ( 'NONE', #325, 1000.000000000000000 ) ;
#327 = CARTESIAN_POINT ( 'NONE',  ( 4.286122238378319900E-016, -4.600000000000000500, -3.499999999999999600 ) ) ;
#328 = LINE ( 'NONE', #327, #326 ) ;
#329 = CARTESIAN_POINT ( 'NONE',  ( 0.0000000000000000000, -8.599999999999999600, 1.999999999999999100 ) ) ;
#330 = DIRECTION ( 'NONE',  ( 0.0000000000000000000, 0.0000000000000000000, 1.000000000000000000 ) ) ;
#331 = DIRECTION ( 'NONE',  ( 0.0000000000000000000, 1.000000000000000000, 0.0000000000000000000 ) ) ;
#332 = CARTESIAN_POINT ( 'NONE',  ( 0.0000000000000000000, 0.0000000000000000000, 0.0000000000000000000 ) ) ;
#333 = AXIS2_PLACEMENT_3D ( 'NONE', #332, #331, #330 ) ;
#334 = SHAPE_DEFINITION_REPRESENTATION ( #335, #220 ) ;
#335 = PRODUCT_DEFINITION_SHAPE ( 'NONE', 'NONE',  #209 ) ;
#336 = PRODUCT_RELATED_PRODUCT_CATEGORY ( 'detail', '', ( #298 ) ) ;
#337 = CC_DESIGN_SECURITY_CLASSIFICATION ( #189, ( #166 ) ) ;
ENDSEC;
END-ISO-10303-21;
