ISO-10303-21;
HEADER;
FILE_DESCRIPTION (( 'STEP AP203' ),
    '1' );
FILE_NAME ('C-30-CS-7.STEP',
    '2009-09-16T00:59:20',
    ( ' ' ),
    ( ' ' ),
    'SwSTEP 2.0',
    'SolidWorks 2007',
    '' );
FILE_SCHEMA (( 'CONFIG_CONTROL_DESIGN' ));
ENDSEC;

DATA;
#1 = ADVANCED_FACE ( 'NONE', ( #42 ), #40, .T. ) ;
#2 = EDGE_LOOP ( 'NONE', ( #3, #4, #5, #6 ) ) ;
#3 = ORIENTED_EDGE ( 'NONE', *, *, #111, .F. ) ;
#4 = ORIENTED_EDGE ( 'NONE', *, *, #77, .T. ) ;
#5 = ORIENTED_EDGE ( 'NONE', *, *, #110, .T. ) ;
#6 = ORIENTED_EDGE ( 'NONE', *, *, #7, .F. ) ;
#7 = EDGE_CURVE ( 'NONE', #117, #98, #35, .T. ) ;
#8 = ADVANCED_FACE ( 'NONE', ( #36 ), #30, .T. ) ;
#9 = EDGE_LOOP ( 'NONE', ( #10, #11 ) ) ;
#10 = ORIENTED_EDGE ( 'NONE', *, *, #96, .T. ) ;
#11 = ORIENTED_EDGE ( 'NONE', *, *, #7, .T. ) ;
#12 = ORIENTED_EDGE ( 'NONE', *, *, #58, .F. ) ;
#13 = VERTEX_POINT ( 'NONE', #25 ) ;
#14 = EDGE_LOOP ( 'NONE', ( #67, #55 ) ) ;
#15 = ORIENTED_EDGE ( 'NONE', *, *, #16, .F. ) ;
#16 = EDGE_CURVE ( 'NONE', #109, #87, #23, .T. ) ;
#17 = ADVANCED_FACE ( 'NONE', ( #150 ), #188, .T. ) ;
#18 = AXIS2_PLACEMENT_3D ( 'NONE', #24, #116, #115 ) ;
#19 = DIRECTION ( 'NONE',  ( 0.0000000000000000000, 0.0000000000000000000, 1.000000000000000000 ) ) ;
#20 = DIRECTION ( 'NONE',  ( 0.0000000000000000000, 1.000000000000000000, 0.0000000000000000000 ) ) ;
#21 = CARTESIAN_POINT ( 'NONE',  ( 0.0000000000000000000, -4.599999999999998800, 0.0000000000000000000 ) ) ;
#22 = AXIS2_PLACEMENT_3D ( 'NONE', #21, #20, #19 ) ;
#23 = CIRCLE ( 'NONE', #22, 1.999999999999998200 ) ;
#24 = CARTESIAN_POINT ( 'NONE',  ( 0.0000000000000000000, 0.0000000000000000000, 0.0000000000000000000 ) ) ;
#25 = CARTESIAN_POINT ( 'NONE',  ( 0.0000000000000000000, -4.599999999999998800, 2.749999999999999600 ) ) ;
#26 = DIRECTION ( 'NONE',  ( 0.0000000000000000000, 0.0000000000000000000, 1.000000000000000000 ) ) ;
#27 = DIRECTION ( 'NONE',  ( 0.0000000000000000000, 1.000000000000000000, 0.0000000000000000000 ) ) ;
#28 = CARTESIAN_POINT ( 'NONE',  ( -2.000000000000000000, 0.0000000000000000000, 0.0000000000000000000 ) ) ;
#29 = AXIS2_PLACEMENT_3D ( 'NONE', #28, #27, #26 ) ;
#30 = PLANE ( 'NONE',  #29 ) ;
#31 = DIRECTION ( 'NONE',  ( 0.0000000000000000000, 0.0000000000000000000, 1.000000000000000000 ) ) ;
#32 = DIRECTION ( 'NONE',  ( 0.0000000000000000000, 1.000000000000000000, 0.0000000000000000000 ) ) ;
#33 = CARTESIAN_POINT ( 'NONE',  ( 0.0000000000000000000, 0.0000000000000000000, 0.0000000000000000000 ) ) ;
#34 = AXIS2_PLACEMENT_3D ( 'NONE', #33, #32, #31 ) ;
#35 = CIRCLE ( 'NONE', #34, 2.000000000000000000 ) ;
#36 = FACE_OUTER_BOUND ( 'NONE', #9, .T. ) ;
#37 = DIRECTION ( 'NONE',  ( 0.0000000000000000000, 0.0000000000000000000, 1.000000000000000000 ) ) ;
#38 = DIRECTION ( 'NONE',  ( 0.0000000000000000000, 1.000000000000000000, 0.0000000000000000000 ) ) ;
#39 = AXIS2_PLACEMENT_3D ( 'NONE', #41, #38, #37 ) ;
#40 = TOROIDAL_SURFACE ( 'NONE', #39, 2.000000000000000000, 3.000000000000000000 ) ;
#41 = CARTESIAN_POINT ( 'NONE',  ( 0.0000000000000000000, -3.000000000000000000, 0.0000000000000000000 ) ) ;
#42 = FACE_OUTER_BOUND ( 'NONE', #2, .T. ) ;
#43 = CLOSED_SHELL ( 'NONE', ( #79, #104, #106, #71, #53, #44, #17, #65, #1, #8 ) ) ;
#44 = ADVANCED_FACE ( 'NONE', ( #155, #184 ), #151, .T. ) ;
#45 = EDGE_LOOP ( 'NONE', ( #46, #47 ) ) ;
#46 = ORIENTED_EDGE ( 'NONE', *, *, #58, .T. ) ;
#47 = ORIENTED_EDGE ( 'NONE', *, *, #52, .T. ) ;
#48 = EDGE_LOOP ( 'NONE', ( #49, #15 ) ) ;
#49 = ORIENTED_EDGE ( 'NONE', *, *, #103, .F. ) ;
#50 = ORIENTED_EDGE ( 'NONE', *, *, #69, .T. ) ;
#51 = ORIENTED_EDGE ( 'NONE', *, *, #52, .F. ) ;
#52 = EDGE_CURVE ( 'NONE', #92, #13, #252, .T. ) ;
#53 = ADVANCED_FACE ( 'NONE', ( #132 ), #122, .T. ) ;
#54 = ORIENTED_EDGE ( 'NONE', *, *, #100, .F. ) ;
#55 = ORIENTED_EDGE ( 'NONE', *, *, #56, .F. ) ;
#56 = EDGE_CURVE ( 'NONE', #91, #90, #258, .T. ) ;
#57 = EDGE_LOOP ( 'NONE', ( #54, #68, #50, #51 ) ) ;
#58 = EDGE_CURVE ( 'NONE', #13, #92, #249, .T. ) ;
#59 = EDGE_LOOP ( 'NONE', ( #60, #61, #62, #63 ) ) ;
#60 = ORIENTED_EDGE ( 'NONE', *, *, #94, .F. ) ;
#61 = ORIENTED_EDGE ( 'NONE', *, *, #16, .T. ) ;
#62 = ORIENTED_EDGE ( 'NONE', *, *, #102, .T. ) ;
#63 = ORIENTED_EDGE ( 'NONE', *, *, #64, .F. ) ;
#64 = EDGE_CURVE ( 'NONE', #95, #114, #246, .T. ) ;
#65 = ADVANCED_FACE ( 'NONE', ( #259, #247 ), #183, .T. ) ;
#66 = EDGE_LOOP ( 'NONE', ( #72, #73 ) ) ;
#67 = ORIENTED_EDGE ( 'NONE', *, *, #89, .F. ) ;
#68 = ORIENTED_EDGE ( 'NONE', *, *, #56, .T. ) ;
#69 = EDGE_CURVE ( 'NONE', #90, #13, #120, .T. ) ;
#70 = ORIENTED_EDGE ( 'NONE', *, *, #69, .F. ) ;
#71 = ADVANCED_FACE ( 'NONE', ( #144 ), #143, .T. ) ;
#72 = ORIENTED_EDGE ( 'NONE', *, *, #113, .T. ) ;
#73 = ORIENTED_EDGE ( 'NONE', *, *, #64, .T. ) ;
#74 = EDGE_LOOP ( 'NONE', ( #75, #76 ) ) ;
#75 = ORIENTED_EDGE ( 'NONE', *, *, #81, .F. ) ;
#76 = ORIENTED_EDGE ( 'NONE', *, *, #77, .F. ) ;
#77 = EDGE_CURVE ( 'NONE', #82, #108, #133, .T. ) ;
#78 = MANIFOLD_SOLID_BREP ( 'NONE', #43 ) ;
#79 = ADVANCED_FACE ( 'NONE', ( #134 ), #238, .T. ) ;
#80 = EDGE_LOOP ( 'NONE', ( #84, #83, #97, #88 ) ) ;
#81 = EDGE_CURVE ( 'NONE', #108, #82, #232, .T. ) ;
#82 = VERTEX_POINT ( 'NONE', #233 ) ;
#83 = ORIENTED_EDGE ( 'NONE', *, *, #111, .T. ) ;
#84 = ORIENTED_EDGE ( 'NONE', *, *, #81, .T. ) ;
#85 = ORIENTED_EDGE ( 'NONE', *, *, #89, .T. ) ;
#86 = ORIENTED_EDGE ( 'NONE', *, *, #103, .T. ) ;
#87 = VERTEX_POINT ( 'NONE', #248 ) ;
#88 = ORIENTED_EDGE ( 'NONE', *, *, #110, .F. ) ;
#89 = EDGE_CURVE ( 'NONE', #90, #91, #131, .T. ) ;
#90 = VERTEX_POINT ( 'NONE', #126 ) ;
#91 = VERTEX_POINT ( 'NONE', #125 ) ;
#92 = VERTEX_POINT ( 'NONE', #124 ) ;
#93 = ORIENTED_EDGE ( 'NONE', *, *, #94, .T. ) ;
#94 = EDGE_CURVE ( 'NONE', #109, #95, #138, .T. ) ;
#95 = VERTEX_POINT ( 'NONE', #204 ) ;
#96 = EDGE_CURVE ( 'NONE', #98, #117, #203, .T. ) ;
#97 = ORIENTED_EDGE ( 'NONE', *, *, #96, .F. ) ;
#98 = VERTEX_POINT ( 'NONE', #164 ) ;
#99 = ORIENTED_EDGE ( 'NONE', *, *, #100, .T. ) ;
#100 = EDGE_CURVE ( 'NONE', #91, #92, #163, .T. ) ;
#101 = ORIENTED_EDGE ( 'NONE', *, *, #102, .F. ) ;
#102 = EDGE_CURVE ( 'NONE', #87, #114, #243, .T. ) ;
#103 = EDGE_CURVE ( 'NONE', #87, #109, #182, .T. ) ;
#104 = ADVANCED_FACE ( 'NONE', ( #239 ), #175, .T. ) ;
#105 = EDGE_LOOP ( 'NONE', ( #86, #93, #112, #101 ) ) ;
#106 = ADVANCED_FACE ( 'NONE', ( #176 ), #171, .T. ) ;
#107 = EDGE_LOOP ( 'NONE', ( #85, #99, #12, #70 ) ) ;
#108 = VERTEX_POINT ( 'NONE', #226 ) ;
#109 = VERTEX_POINT ( 'NONE', #225 ) ;
#110 = EDGE_CURVE ( 'NONE', #108, #98, #224, .T. ) ;
#111 = EDGE_CURVE ( 'NONE', #82, #117, #219, .T. ) ;
#112 = ORIENTED_EDGE ( 'NONE', *, *, #113, .F. ) ;
#113 = EDGE_CURVE ( 'NONE', #114, #95, #214, .T. ) ;
#114 = VERTEX_POINT ( 'NONE', #209 ) ;
#115 = DIRECTION ( 'NONE',  ( 1.000000000000000000, 0.0000000000000000000, 0.0000000000000000000 ) ) ;
#116 = DIRECTION ( 'NONE',  ( 0.0000000000000000000, 0.0000000000000000000, 1.000000000000000000 ) ) ;
#117 = VERTEX_POINT ( 'NONE', #208 ) ;
#118 = VECTOR ( 'NONE', #145, 1000.000000000000000 ) ;
#119 = CARTESIAN_POINT ( 'NONE',  ( 0.0000000000000000000, -4.599999999999998800, 2.749999999999999600 ) ) ;
#120 = LINE ( 'NONE', #119, #118 ) ;
#121 = AXIS2_PLACEMENT_3D ( 'NONE', #191, #253, #195 ) ;
#122 = CONICAL_SURFACE ( 'NONE', #156, 2.749999999999999600, 0.3587706702705722500 ) ;
#123 = CARTESIAN_POINT ( 'NONE',  ( 0.0000000000000000000, -4.599999999999998800, 0.0000000000000000000 ) ) ;
#124 = CARTESIAN_POINT ( 'NONE',  ( 3.367667473011536500E-016, -4.599999999999998800, -2.749999999999999600 ) ) ;
#125 = CARTESIAN_POINT ( 'NONE',  ( 2.449212707644753500E-016, -8.599999999999999600, -1.249999999999998900 ) ) ;
#126 = CARTESIAN_POINT ( 'NONE',  ( 0.0000000000000000000, -8.599999999999999600, 1.249999999999998900 ) ) ;
#127 = DIRECTION ( 'NONE',  ( 0.0000000000000000000, 0.0000000000000000000, 1.000000000000000000 ) ) ;
#128 = DIRECTION ( 'NONE',  ( 0.0000000000000000000, 1.000000000000000000, 0.0000000000000000000 ) ) ;
#129 = CARTESIAN_POINT ( 'NONE',  ( 0.0000000000000000000, -8.599999999999999600, 0.0000000000000000000 ) ) ;
#130 = AXIS2_PLACEMENT_3D ( 'NONE', #129, #128, #127 ) ;
#131 = CIRCLE ( 'NONE', #130, 1.249999999999998900 ) ;
#132 = FACE_OUTER_BOUND ( 'NONE', #57, .T. ) ;
#133 = CIRCLE ( 'NONE', #149, 5.000000000000000000 ) ;
#134 = FACE_OUTER_BOUND ( 'NONE', #80, .T. ) ;
#135 = AXIS2_PLACEMENT_3D ( 'NONE', #196, #255, #190 ) ;
#136 = DIRECTION ( 'NONE',  ( 0.0000000000000000000, 1.000000000000000000, 0.0000000000000000000 ) ) ;
#137 = CARTESIAN_POINT ( 'NONE',  ( 2.449212707644752500E-016, 0.0000000000000000000, -1.999999999999998200 ) ) ;
#138 = LINE ( 'NONE', #137, #205 ) ;
#139 = ADVANCED_BREP_SHAPE_REPRESENTATION ( 'C-30-CS-7', ( #78, #18 ), #140 ) ;
#140 =( GEOMETRIC_REPRESENTATION_CONTEXT ( 3 ) GLOBAL_UNCERTAINTY_ASSIGNED_CONTEXT ( ( #141 ) ) GLOBAL_UNIT_ASSIGNED_CONTEXT ( ( #207, #206, #142 ) ) REPRESENTATION_CONTEXT ( 'NONE', 'WORKASPACE' ) );
#141 = UNCERTAINTY_MEASURE_WITH_UNIT (LENGTH_MEASURE( 1.000000000000000100E-005 ), #207, 'distance_accuracy_value', 'NONE');
#142 =( NAMED_UNIT ( * ) SI_UNIT ( $, .STERADIAN. ) SOLID_ANGLE_UNIT ( ) );
#143 = PLANE ( 'NONE',  #245 ) ;
#144 = FACE_OUTER_BOUND ( 'NONE', #14, .T. ) ;
#145 = DIRECTION ( 'NONE',  ( 0.0000000000000000000, 0.9363291775690445500, 0.3511234415883917000 ) ) ;
#146 = DIRECTION ( 'NONE',  ( 0.0000000000000000000, 0.0000000000000000000, 1.000000000000000000 ) ) ;
#147 = DIRECTION ( 'NONE',  ( 0.0000000000000000000, 1.000000000000000000, 0.0000000000000000000 ) ) ;
#148 = CARTESIAN_POINT ( 'NONE',  ( 0.0000000000000000000, -3.000000000000000000, 0.0000000000000000000 ) ) ;
#149 = AXIS2_PLACEMENT_3D ( 'NONE', #148, #147, #146 ) ;
#150 = FACE_OUTER_BOUND ( 'NONE', #59, .T. ) ;
#151 = PLANE ( 'NONE',  #154 ) ;
#152 = CARTESIAN_POINT ( 'NONE',  ( 0.0000000000000000000, -4.599999999999998800, 0.0000000000000000000 ) ) ;
#153 = AXIS2_PLACEMENT_3D ( 'NONE', #123, #234, #159 ) ;
#154 = AXIS2_PLACEMENT_3D ( 'NONE', #256, #158, #260 ) ;
#155 = FACE_OUTER_BOUND ( 'NONE', #45, .T. ) ;
#156 = AXIS2_PLACEMENT_3D ( 'NONE', #152, #186, #189 ) ;
#157 = DIRECTION ( 'NONE',  ( 0.0000000000000000000, 1.000000000000000000, 0.0000000000000000000 ) ) ;
#158 = DIRECTION ( 'NONE',  ( 0.0000000000000000000, 1.000000000000000000, 0.0000000000000000000 ) ) ;
#159 = DIRECTION ( 'NONE',  ( 0.0000000000000000000, 0.0000000000000000000, 1.000000000000000000 ) ) ;
#160 = CARTESIAN_POINT ( 'NONE',  ( 0.0000000000000000000, -4.599999999999998800, 0.0000000000000000000 ) ) ;
#161 = VECTOR ( 'NONE', #244, 1000.000000000000000 ) ;
#162 = CARTESIAN_POINT ( 'NONE',  ( 3.367667473011536500E-016, -4.599999999999998800, -2.749999999999999600 ) ) ;
#163 = LINE ( 'NONE', #162, #161 ) ;
#164 = CARTESIAN_POINT ( 'NONE',  ( 0.0000000000000000000, 0.0000000000000000000, 2.000000000000000000 ) ) ;
#165 = DIRECTION ( 'NONE',  ( 0.0000000000000000000, 0.0000000000000000000, 1.000000000000000000 ) ) ;
#166 = DIRECTION ( 'NONE',  ( 0.0000000000000000000, 1.000000000000000000, 0.0000000000000000000 ) ) ;
#167 = CARTESIAN_POINT ( 'NONE',  ( 0.0000000000000000000, 0.0000000000000000000, 0.0000000000000000000 ) ) ;
#168 = AXIS2_PLACEMENT_3D ( 'NONE', #167, #166, #165 ) ;
#169 = CARTESIAN_POINT ( 'NONE',  ( 0.0000000000000000000, -4.599999999999998800, 0.0000000000000000000 ) ) ;
#170 = AXIS2_PLACEMENT_3D ( 'NONE', #169, #228, #227 ) ;
#171 = CONICAL_SURFACE ( 'NONE', #170, 2.749999999999999600, 0.3587706702705722500 ) ;
#172 = DIRECTION ( 'NONE',  ( 0.0000000000000000000, 0.0000000000000000000, 1.000000000000000000 ) ) ;
#173 = DIRECTION ( 'NONE',  ( 0.0000000000000000000, 1.000000000000000000, 0.0000000000000000000 ) ) ;
#174 = AXIS2_PLACEMENT_3D ( 'NONE', #177, #173, #172 ) ;
#175 = CYLINDRICAL_SURFACE ( 'NONE', #174, 1.999999999999998200 ) ;
#176 = FACE_OUTER_BOUND ( 'NONE', #107, .T. ) ;
#177 = CARTESIAN_POINT ( 'NONE',  ( 0.0000000000000000000, 0.0000000000000000000, 0.0000000000000000000 ) ) ;
#178 = DIRECTION ( 'NONE',  ( 0.0000000000000000000, 0.0000000000000000000, 1.000000000000000000 ) ) ;
#179 = DIRECTION ( 'NONE',  ( 0.0000000000000000000, 1.000000000000000000, 0.0000000000000000000 ) ) ;
#180 = CARTESIAN_POINT ( 'NONE',  ( 0.0000000000000000000, -4.599999999999998800, 0.0000000000000000000 ) ) ;
#181 = AXIS2_PLACEMENT_3D ( 'NONE', #180, #179, #178 ) ;
#182 = CIRCLE ( 'NONE', #181, 1.999999999999998200 ) ;
#183 = PLANE ( 'NONE',  #202 ) ;
#184 = FACE_BOUND ( 'NONE', #48, .T. ) ;
#185 = DIRECTION ( 'NONE',  ( 0.0000000000000000000, 0.0000000000000000000, 1.000000000000000000 ) ) ;
#186 = DIRECTION ( 'NONE',  ( 0.0000000000000000000, 1.000000000000000000, 0.0000000000000000000 ) ) ;
#187 = CARTESIAN_POINT ( 'NONE',  ( 0.0000000000000000000, -2.999999999999999100, 0.0000000000000000000 ) ) ;
#188 = CYLINDRICAL_SURFACE ( 'NONE', #135, 1.999999999999998200 ) ;
#189 = DIRECTION ( 'NONE',  ( 0.0000000000000000000, 0.0000000000000000000, 1.000000000000000000 ) ) ;
#190 = DIRECTION ( 'NONE',  ( 0.0000000000000000000, 0.0000000000000000000, 1.000000000000000000 ) ) ;
#191 = CARTESIAN_POINT ( 'NONE',  ( 0.0000000000000000000, -8.599999999999999600, 0.0000000000000000000 ) ) ;
#192 = DIRECTION ( 'NONE',  ( 0.0000000000000000000, 0.0000000000000000000, -1.000000000000000000 ) ) ;
#193 = DIRECTION ( 'NONE',  ( 0.0000000000000000000, -1.000000000000000000, 0.0000000000000000000 ) ) ;
#194 = CARTESIAN_POINT ( 'NONE',  ( -1.999999999999998200, -2.999999999999999600, 0.0000000000000000000 ) ) ;
#195 = DIRECTION ( 'NONE',  ( 0.0000000000000000000, 0.0000000000000000000, 1.000000000000000000 ) ) ;
#196 = CARTESIAN_POINT ( 'NONE',  ( 0.0000000000000000000, 0.0000000000000000000, 0.0000000000000000000 ) ) ;
#197 = CARTESIAN_POINT ( 'NONE',  ( 0.0000000000000000000, -3.000000000000000000, 0.0000000000000000000 ) ) ;
#198 = DIRECTION ( 'NONE',  ( 0.0000000000000000000, 0.0000000000000000000, 1.000000000000000000 ) ) ;
#199 = DIRECTION ( 'NONE',  ( 0.0000000000000000000, 1.000000000000000000, 0.0000000000000000000 ) ) ;
#200 = CARTESIAN_POINT ( 'NONE',  ( 0.0000000000000000000, -3.000000000000000000, 0.0000000000000000000 ) ) ;
#201 = AXIS2_PLACEMENT_3D ( 'NONE', #200, #199, #198 ) ;
#202 = AXIS2_PLACEMENT_3D ( 'NONE', #194, #193, #192 ) ;
#203 = CIRCLE ( 'NONE', #168, 2.000000000000000000 ) ;
#204 = CARTESIAN_POINT ( 'NONE',  ( 2.449212707644752500E-016, -2.999999999999999100, -1.999999999999998200 ) ) ;
#205 = VECTOR ( 'NONE', #136, 1000.000000000000000 ) ;
#206 =( NAMED_UNIT ( * ) PLANE_ANGLE_UNIT ( ) SI_UNIT ( $, .RADIAN. ) );
#207 =( LENGTH_UNIT ( ) NAMED_UNIT ( * ) SI_UNIT ( .MILLI., .METRE. ) );
#208 = CARTESIAN_POINT ( 'NONE',  ( 4.286122238378319900E-016, 0.0000000000000000000, -2.000000000000000000 ) ) ;
#209 = CARTESIAN_POINT ( 'NONE',  ( 0.0000000000000000000, -2.999999999999999100, 1.999999999999998200 ) ) ;
#210 = DIRECTION ( 'NONE',  ( 0.0000000000000000000, 0.0000000000000000000, 1.000000000000000000 ) ) ;
#211 = DIRECTION ( 'NONE',  ( 0.0000000000000000000, 1.000000000000000000, 0.0000000000000000000 ) ) ;
#212 = CARTESIAN_POINT ( 'NONE',  ( 0.0000000000000000000, -2.999999999999999100, 0.0000000000000000000 ) ) ;
#213 = AXIS2_PLACEMENT_3D ( 'NONE', #212, #211, #210 ) ;
#214 = CIRCLE ( 'NONE', #213, 1.999999999999998200 ) ;
#215 = DIRECTION ( 'NONE',  ( 1.224606353822377300E-016, 0.0000000000000000000, -1.000000000000000000 ) ) ;
#216 = DIRECTION ( 'NONE',  ( 1.000000000000000000, 0.0000000000000000000, 1.224606353822377300E-016 ) ) ;
#217 = CARTESIAN_POINT ( 'NONE',  ( 2.449212707644754500E-016, -3.000000000000000000, -2.000000000000000000 ) ) ;
#218 = AXIS2_PLACEMENT_3D ( 'NONE', #217, #216, #215 ) ;
#219 = CIRCLE ( 'NONE', #218, 3.000000000000000000 ) ;
#220 = DIRECTION ( 'NONE',  ( 0.0000000000000000000, 0.0000000000000000000, 1.000000000000000000 ) ) ;
#221 = DIRECTION ( 'NONE',  ( -1.000000000000000000, 0.0000000000000000000, 0.0000000000000000000 ) ) ;
#222 = CARTESIAN_POINT ( 'NONE',  ( 0.0000000000000000000, -3.000000000000000000, 2.000000000000000000 ) ) ;
#223 = AXIS2_PLACEMENT_3D ( 'NONE', #222, #221, #220 ) ;
#224 = CIRCLE ( 'NONE', #223, 3.000000000000000000 ) ;
#225 = CARTESIAN_POINT ( 'NONE',  ( 2.449212707644752500E-016, -4.599999999999998800, -1.999999999999998200 ) ) ;
#226 = CARTESIAN_POINT ( 'NONE',  ( 0.0000000000000000000, -3.000000000000000000, 5.000000000000000000 ) ) ;
#227 = DIRECTION ( 'NONE',  ( 0.0000000000000000000, 0.0000000000000000000, 1.000000000000000000 ) ) ;
#228 = DIRECTION ( 'NONE',  ( 0.0000000000000000000, 1.000000000000000000, 0.0000000000000000000 ) ) ;
#229 = DIRECTION ( 'NONE',  ( 0.0000000000000000000, 0.0000000000000000000, 1.000000000000000000 ) ) ;
#230 = DIRECTION ( 'NONE',  ( 0.0000000000000000000, 1.000000000000000000, 0.0000000000000000000 ) ) ;
#231 = AXIS2_PLACEMENT_3D ( 'NONE', #197, #230, #229 ) ;
#232 = CIRCLE ( 'NONE', #231, 5.000000000000000000 ) ;
#233 = CARTESIAN_POINT ( 'NONE',  ( 6.123031769111886300E-016, -3.000000000000000000, -5.000000000000000000 ) ) ;
#234 = DIRECTION ( 'NONE',  ( 0.0000000000000000000, 1.000000000000000000, 0.0000000000000000000 ) ) ;
#235 = DIRECTION ( 'NONE',  ( 0.0000000000000000000, 0.0000000000000000000, -1.000000000000000000 ) ) ;
#236 = DIRECTION ( 'NONE',  ( 0.0000000000000000000, -1.000000000000000000, 0.0000000000000000000 ) ) ;
#237 = CARTESIAN_POINT ( 'NONE',  ( 1.053161464287243900E-015, -8.599999999999999600, 0.0000000000000000000 ) ) ;
#238 = TOROIDAL_SURFACE ( 'NONE', #201, 2.000000000000000000, 3.000000000000000000 ) ;
#239 = FACE_OUTER_BOUND ( 'NONE', #105, .T. ) ;
#240 = DIRECTION ( 'NONE',  ( 0.0000000000000000000, 1.000000000000000000, 0.0000000000000000000 ) ) ;
#241 = VECTOR ( 'NONE', #240, 1000.000000000000000 ) ;
#242 = CARTESIAN_POINT ( 'NONE',  ( 0.0000000000000000000, 0.0000000000000000000, 1.999999999999998200 ) ) ;
#243 = LINE ( 'NONE', #242, #241 ) ;
#244 = DIRECTION ( 'NONE',  ( 4.299879975451248600E-017, 0.9363291775690445500, -0.3511234415883917000 ) ) ;
#245 = AXIS2_PLACEMENT_3D ( 'NONE', #237, #236, #235 ) ;
#246 = CIRCLE ( 'NONE', #251, 1.999999999999998200 ) ;
#247 = FACE_OUTER_BOUND ( 'NONE', #74, .T. ) ;
#248 = CARTESIAN_POINT ( 'NONE',  ( 0.0000000000000000000, -4.599999999999998800, 1.999999999999998200 ) ) ;
#249 = CIRCLE ( 'NONE', #153, 2.749999999999999600 ) ;
#250 = DIRECTION ( 'NONE',  ( 0.0000000000000000000, 1.000000000000000000, 0.0000000000000000000 ) ) ;
#251 = AXIS2_PLACEMENT_3D ( 'NONE', #187, #157, #185 ) ;
#252 = CIRCLE ( 'NONE', #257, 2.749999999999999600 ) ;
#253 = DIRECTION ( 'NONE',  ( 0.0000000000000000000, 1.000000000000000000, 0.0000000000000000000 ) ) ;
#254 = DIRECTION ( 'NONE',  ( 0.0000000000000000000, 0.0000000000000000000, 1.000000000000000000 ) ) ;
#255 = DIRECTION ( 'NONE',  ( 0.0000000000000000000, 1.000000000000000000, 0.0000000000000000000 ) ) ;
#256 = CARTESIAN_POINT ( 'NONE',  ( -2.749999999999999600, -4.599999999999998800, 0.0000000000000000000 ) ) ;
#257 = AXIS2_PLACEMENT_3D ( 'NONE', #160, #250, #254 ) ;
#258 = CIRCLE ( 'NONE', #121, 1.249999999999998900 ) ;
#259 = FACE_BOUND ( 'NONE', #66, .T. ) ;
#260 = DIRECTION ( 'NONE',  ( 0.0000000000000000000, 0.0000000000000000000, 1.000000000000000000 ) ) ;
#261 = APPROVAL ( #262, 'UNSPECIFIED' ) ;
#262 = APPROVAL_STATUS ( 'not_yet_approved' ) ;
#263 = PERSON_AND_ORGANIZATION ( #289, #336 ) ;
#264 = DESIGN_CONTEXT ( 'detailed design', #302, 'design' ) ;
#265 = APPLICATION_PROTOCOL_DEFINITION ( 'international standard', 'config_control_design', 1994, #291 ) ;
#266 = PERSON_AND_ORGANIZATION_ROLE ( 'design_owner' ) ;
#267 = CC_DESIGN_SECURITY_CLASSIFICATION ( #334, ( #321 ) ) ;
#268 = CC_DESIGN_APPROVAL ( #281, ( #334 ) ) ;
#269 = APPROVAL_DATE_TIME ( #270, #281 ) ;
#270 = DATE_AND_TIME ( #271, #272 ) ;
#271 = CALENDAR_DATE ( 2009, 16, 9 ) ;
#272 = LOCAL_TIME ( 9, 59, 20.00000000000000000, #273 ) ;
#273 = COORDINATED_UNIVERSAL_TIME_OFFSET ( 9, 0, .AHEAD. ) ;
#274 = APPROVAL_PERSON_ORGANIZATION ( #283, #281, #280 ) ;
#275 = CC_DESIGN_DATE_AND_TIME_ASSIGNMENT ( #277, #276, ( #327 ) ) ;
#276 = DATE_TIME_ROLE ( 'creation_date' ) ;
#277 = DATE_AND_TIME ( #278, #279 ) ;
#278 = CALENDAR_DATE ( 2009, 16, 9 ) ;
#279 = LOCAL_TIME ( 9, 59, 20.00000000000000000, #293 ) ;
#280 = APPROVAL_ROLE ( '' ) ;
#281 = APPROVAL ( #282, 'UNSPECIFIED' ) ;
#282 = APPROVAL_STATUS ( 'not_yet_approved' ) ;
#283 = PERSON_AND_ORGANIZATION ( #289, #336 ) ;
#284 = CC_DESIGN_DATE_AND_TIME_ASSIGNMENT ( #286, #285, ( #334 ) ) ;
#285 = DATE_TIME_ROLE ( 'classification_date' ) ;
#286 = DATE_AND_TIME ( #287, #329 ) ;
#287 = CALENDAR_DATE ( 2009, 16, 9 ) ;
#288 = SHAPE_DEFINITION_REPRESENTATION ( #297, #139 ) ;
#289 = PERSON ( 'UNSPECIFIED', 'UNSPECIFIED', 'UNSPECIFIED', ('UNSPECIFIED'), ('UNSPECIFIED'), ('UNSPECIFIED') ) ;
#290 = PERSON_AND_ORGANIZATION ( #289, #336 ) ;
#291 = APPLICATION_CONTEXT ( 'configuration controlled 3d designs of mechanical parts and assemblies' ) ;
#292 = MECHANICAL_CONTEXT ( 'NONE', #291, 'mechanical' ) ;
#293 = COORDINATED_UNIVERSAL_TIME_OFFSET ( 9, 0, .AHEAD. ) ;
#294 = CC_DESIGN_PERSON_AND_ORGANIZATION_ASSIGNMENT ( #296, #295, ( #327 ) ) ;
#295 = PERSON_AND_ORGANIZATION_ROLE ( 'creator' ) ;
#296 = PERSON_AND_ORGANIZATION ( #289, #336 ) ;
#297 = PRODUCT_DEFINITION_SHAPE ( 'NONE', 'NONE',  #327 ) ;
#298 = PRODUCT_RELATED_PRODUCT_CATEGORY ( 'detail', '', ( #312 ) ) ;
#299 = CC_DESIGN_APPROVAL ( #261, ( #327 ) ) ;
#300 = APPROVAL_DATE_TIME ( #301, #261 ) ;
#301 = DATE_AND_TIME ( #322, #323 ) ;
#302 = APPLICATION_CONTEXT ( 'configuration controlled 3d designs of mechanical parts and assemblies' ) ;
#303 = CC_DESIGN_PERSON_AND_ORGANIZATION_ASSIGNMENT ( #305, #304, ( #321 ) ) ;
#304 = PERSON_AND_ORGANIZATION_ROLE ( 'creator' ) ;
#305 = PERSON_AND_ORGANIZATION ( #289, #336 ) ;
#306 = CC_DESIGN_APPROVAL ( #318, ( #321 ) ) ;
#307 = APPROVAL_DATE_TIME ( #308, #318 ) ;
#308 = DATE_AND_TIME ( #313, #314 ) ;
#309 = CC_DESIGN_PERSON_AND_ORGANIZATION_ASSIGNMENT ( #311, #310, ( #321 ) ) ;
#310 = PERSON_AND_ORGANIZATION_ROLE ( 'design_supplier' ) ;
#311 = PERSON_AND_ORGANIZATION ( #289, #336 ) ;
#312 = PRODUCT ( 'C-30-CS-7', 'C-30-CS-7', '', ( #292 ) ) ;
#313 = CALENDAR_DATE ( 2009, 16, 9 ) ;
#314 = LOCAL_TIME ( 9, 59, 20.00000000000000000, #315 ) ;
#315 = COORDINATED_UNIVERSAL_TIME_OFFSET ( 9, 0, .AHEAD. ) ;
#316 = APPROVAL_PERSON_ORGANIZATION ( #320, #318, #317 ) ;
#317 = APPROVAL_ROLE ( '' ) ;
#318 = APPROVAL ( #319, 'UNSPECIFIED' ) ;
#319 = APPROVAL_STATUS ( 'not_yet_approved' ) ;
#320 = PERSON_AND_ORGANIZATION ( #289, #336 ) ;
#321 = PRODUCT_DEFINITION_FORMATION_WITH_SPECIFIED_SOURCE ( 'ANY', '', #312, .NOT_KNOWN. ) ;
#322 = CALENDAR_DATE ( 2009, 16, 9 ) ;
#323 = LOCAL_TIME ( 9, 59, 20.00000000000000000, #324 ) ;
#324 = COORDINATED_UNIVERSAL_TIME_OFFSET ( 9, 0, .AHEAD. ) ;
#325 = APPROVAL_PERSON_ORGANIZATION ( #263, #261, #326 ) ;
#326 = APPROVAL_ROLE ( '' ) ;
#327 = PRODUCT_DEFINITION ( 'UNKNOWN', '', #321, #264 ) ;
#328 = APPLICATION_PROTOCOL_DEFINITION ( 'international standard', 'config_control_design', 1994, #302 ) ;
#329 = LOCAL_TIME ( 9, 59, 20.00000000000000000, #330 ) ;
#330 = COORDINATED_UNIVERSAL_TIME_OFFSET ( 9, 0, .AHEAD. ) ;
#331 = CC_DESIGN_PERSON_AND_ORGANIZATION_ASSIGNMENT ( #333, #332, ( #334 ) ) ;
#332 = PERSON_AND_ORGANIZATION_ROLE ( 'classification_officer' ) ;
#333 = PERSON_AND_ORGANIZATION ( #289, #336 ) ;
#334 = SECURITY_CLASSIFICATION ( '', '', #335 ) ;
#335 = SECURITY_CLASSIFICATION_LEVEL ( 'unclassified' ) ;
#336 = ORGANIZATION ( 'UNSPECIFIED', 'UNSPECIFIED', '' ) ;
#337 = CC_DESIGN_PERSON_AND_ORGANIZATION_ASSIGNMENT ( #290, #266, ( #312 ) ) ;
ENDSEC;
END-ISO-10303-21;
