ISO-10303-21;
HEADER;
FILE_DESCRIPTION (( 'STEP AP203' ),
    '1' );
FILE_NAME ('C-30-CS-4.STEP',
    '2006-06-08T00:01:00',
    ( ' ' ),
    ( ' ' ),
    'SwSTEP 2.0',
    'SolidWorks 2005204',
    '' );
FILE_SCHEMA (( 'CONFIG_CONTROL_DESIGN' ));
ENDSEC;

DATA;
#1 = SECURITY_CLASSIFICATION ( '', '', #278 ) ;
#2 = PERSON_AND_ORGANIZATION ( #245, #277 ) ;
#3 = CC_DESIGN_PERSON_AND_ORGANIZATION_ASSIGNMENT ( #2, #4, ( #1 ) ) ;
#4 = PERSON_AND_ORGANIZATION_ROLE ( 'classification_officer' ) ;
#5 = COORDINATED_UNIVERSAL_TIME_OFFSET ( 9, 0, .AHEAD. ) ;
#6 = DATE_AND_TIME ( #9, #7 ) ;
#7 = LOCAL_TIME ( 9, 1, 0.0000000000000000000, #5 ) ;
#8 = DATE_TIME_ROLE ( 'classification_date' ) ;
#9 = CALENDAR_DATE ( 2006, 8, 6 ) ;
#10 = CC_DESIGN_DATE_AND_TIME_ASSIGNMENT ( #6, #8, ( #1 ) ) ;
#11 = ADVANCED_BREP_SHAPE_REPRESENTATION ( 'C-30-CS-4', ( #175, #244 ), #12 ) ;
#12 =( GEOMETRIC_REPRESENTATION_CONTEXT ( 3 ) GLOBAL_UNCERTAINTY_ASSIGNED_CONTEXT ( ( #13 ) ) GLOBAL_UNIT_ASSIGNED_CONTEXT ( ( #159, #15, #14 ) ) REPRESENTATION_CONTEXT ( 'NONE', 'WORKASPACE' ) );
#13 = UNCERTAINTY_MEASURE_WITH_UNIT (LENGTH_MEASURE( 1.000000000000000100E-005 ), #159, 'distance_accuracy_value', 'NONE');
#14 =( NAMED_UNIT ( * ) SI_UNIT ( $, .STERADIAN. ) SOLID_ANGLE_UNIT ( ) );
#15 =( NAMED_UNIT ( * ) PLANE_ANGLE_UNIT ( ) SI_UNIT ( $, .RADIAN. ) );
#16 = CARTESIAN_POINT ( 'NONE',  ( 0.0000000000000000000, 3.000000000000002700, 2.999999999999995600 ) ) ;
#17 = DIRECTION ( 'NONE',  ( 0.0000000000000000000, 0.0000000000000000000, 1.000000000000000000 ) ) ;
#18 = DIRECTION ( 'NONE',  ( 0.0000000000000000000, 1.000000000000000000, 0.0000000000000000000 ) ) ;
#19 = CARTESIAN_POINT ( 'NONE',  ( 0.0000000000000000000, 3.000000000000002700, 0.0000000000000000000 ) ) ;
#20 = AXIS2_PLACEMENT_3D ( 'NONE', #19, #18, #17 ) ;
#21 = CIRCLE ( 'NONE', #20, 2.999999999999995600 ) ;
#22 = DIRECTION ( 'NONE',  ( -1.000000000000000000, 0.0000000000000000000, 0.0000000000000000000 ) ) ;
#23 = DIRECTION ( 'NONE',  ( 0.0000000000000000000, 0.0000000000000000000, 1.000000000000000000 ) ) ;
#24 = CARTESIAN_POINT ( 'NONE',  ( 4.336808689942017700E-015, 2.500000000000000400, 0.0000000000000000000 ) ) ;
#25 = AXIS2_PLACEMENT_3D ( 'NONE', #24, #23, #22 ) ;
#26 = SPHERICAL_SURFACE ( 'NONE', #25, 7.500000000000000000 ) ;
#27 = FACE_OUTER_BOUND ( 'NONE', #234, .T. ) ;
#28 = DIRECTION ( 'NONE',  ( 0.0000000000000000000, 0.8944271909999159700, 0.4472135954999576500 ) ) ;
#29 = VECTOR ( 'NONE', #28, 1000.000000000000200 ) ;
#30 = CARTESIAN_POINT ( 'NONE',  ( 0.0000000000000000000, 3.000000000000002700, 2.999999999999995600 ) ) ;
#31 = LINE ( 'NONE', #30, #29 ) ;
#32 = CARTESIAN_POINT ( 'NONE',  ( 3.877566140261760100E-015, 10.00000000000000000, 0.0000000000000000000 ) ) ;
#33 = CARTESIAN_POINT ( 'NONE',  ( 6.000000000000000000, 6.999999999999999100, 7.347880794884114800E-016 ) ) ;
#34 = DIRECTION ( 'NONE',  ( -1.000000000000000000, 0.0000000000000000000, 0.0000000000000000000 ) ) ;
#35 = DIRECTION ( 'NONE',  ( 0.0000000000000000000, 0.0000000000000000000, 1.000000000000000000 ) ) ;
#36 = AXIS2_PLACEMENT_3D ( 'NONE', #38, #35, #34 ) ;
#37 = SPHERICAL_SURFACE ( 'NONE', #36, 7.500000000000000000 ) ;
#38 = CARTESIAN_POINT ( 'NONE',  ( 4.336808689942017700E-015, 2.500000000000000400, 0.0000000000000000000 ) ) ;
#39 = DIRECTION ( 'NONE',  ( -1.000000000000000000, 0.0000000000000000000, 0.0000000000000000000 ) ) ;
#40 = DIRECTION ( 'NONE',  ( 0.0000000000000000000, 0.0000000000000000000, -1.000000000000000000 ) ) ;
#41 = CARTESIAN_POINT ( 'NONE',  ( 4.336808689942017700E-015, 2.500000000000000400, 0.0000000000000000000 ) ) ;
#42 = AXIS2_PLACEMENT_3D ( 'NONE', #41, #40, #39 ) ;
#43 = CIRCLE ( 'NONE', #42, 7.500000000000000000 ) ;
#44 = FACE_OUTER_BOUND ( 'NONE', #240, .T. ) ;
#45 = CARTESIAN_POINT ( 'NONE',  ( -5.999999999999996400, 6.999999999999999100, 0.0000000000000000000 ) ) ;
#46 = DIRECTION ( 'NONE',  ( 1.000000000000000000, 0.0000000000000000000, 1.224646799147353000E-016 ) ) ;
#47 = DIRECTION ( 'NONE',  ( -1.224646799147353200E-016, 0.0000000000000000000, 1.000000000000000000 ) ) ;
#48 = CARTESIAN_POINT ( 'NONE',  ( 4.336808689942017700E-015, 2.500000000000000400, 0.0000000000000000000 ) ) ;
#49 = AXIS2_PLACEMENT_3D ( 'NONE', #48, #47, #46 ) ;
#50 = CIRCLE ( 'NONE', #49, 7.500000000000000000 ) ;
#51 = DIRECTION ( 'NONE',  ( 0.0000000000000000000, 0.0000000000000000000, 1.000000000000000000 ) ) ;
#52 = DIRECTION ( 'NONE',  ( 0.0000000000000000000, 1.000000000000000000, 0.0000000000000000000 ) ) ;
#53 = CARTESIAN_POINT ( 'NONE',  ( 0.0000000000000000000, 6.999999999999999100, 0.0000000000000000000 ) ) ;
#54 = AXIS2_PLACEMENT_3D ( 'NONE', #53, #52, #51 ) ;
#55 = CIRCLE ( 'NONE', #54, 5.999999999999996400 ) ;
#56 = DIRECTION ( 'NONE',  ( 0.0000000000000000000, 0.0000000000000000000, 1.000000000000000000 ) ) ;
#57 = DIRECTION ( 'NONE',  ( 0.0000000000000000000, 1.000000000000000000, 0.0000000000000000000 ) ) ;
#58 = CARTESIAN_POINT ( 'NONE',  ( 0.0000000000000000000, 6.999999999999999100, 0.0000000000000000000 ) ) ;
#59 = AXIS2_PLACEMENT_3D ( 'NONE', #58, #57, #56 ) ;
#60 = CIRCLE ( 'NONE', #59, 5.999999999999996400 ) ;
#61 = DIRECTION ( 'NONE',  ( 0.0000000000000000000, 0.0000000000000000000, -1.000000000000000000 ) ) ;
#62 = DIRECTION ( 'NONE',  ( 0.0000000000000000000, -1.000000000000000000, 0.0000000000000000000 ) ) ;
#63 = CARTESIAN_POINT ( 'NONE',  ( -1.499999999999995600, 0.0000000000000000000, 0.0000000000000000000 ) ) ;
#64 = AXIS2_PLACEMENT_3D ( 'NONE', #63, #62, #61 ) ;
#65 = PLANE ( 'NONE',  #64 ) ;
#66 = FACE_OUTER_BOUND ( 'NONE', #239, .T. ) ;
#67 = DIRECTION ( 'NONE',  ( 0.0000000000000000000, 0.0000000000000000000, 1.000000000000000000 ) ) ;
#68 = DIRECTION ( 'NONE',  ( 0.0000000000000000000, 1.000000000000000000, 0.0000000000000000000 ) ) ;
#69 = AXIS2_PLACEMENT_3D ( 'NONE', #75, #68, #67 ) ;
#70 = CIRCLE ( 'NONE', #69, 1.499999999999995600 ) ;
#71 = DIRECTION ( 'NONE',  ( 0.0000000000000000000, 0.0000000000000000000, 1.000000000000000000 ) ) ;
#72 = DIRECTION ( 'NONE',  ( 0.0000000000000000000, 1.000000000000000000, 0.0000000000000000000 ) ) ;
#73 = CARTESIAN_POINT ( 'NONE',  ( 0.0000000000000000000, 3.000000000000002700, 0.0000000000000000000 ) ) ;
#74 = AXIS2_PLACEMENT_3D ( 'NONE', #73, #72, #71 ) ;
#75 = CARTESIAN_POINT ( 'NONE',  ( 0.0000000000000000000, 0.0000000000000000000, 0.0000000000000000000 ) ) ;
#76 = CONICAL_SURFACE ( 'NONE', #74, 2.999999999999995600, 0.4636476090008058200 ) ;
#77 = FACE_OUTER_BOUND ( 'NONE', #207, .T. ) ;
#78 = DIRECTION ( 'NONE',  ( 0.0000000000000000000, 0.0000000000000000000, 1.000000000000000000 ) ) ;
#79 = DIRECTION ( 'NONE',  ( 0.0000000000000000000, 1.000000000000000000, 0.0000000000000000000 ) ) ;
#80 = CARTESIAN_POINT ( 'NONE',  ( -2.499999999999995600, 3.000000000000001300, 0.0000000000000000000 ) ) ;
#81 = AXIS2_PLACEMENT_3D ( 'NONE', #80, #79, #78 ) ;
#82 = PLANE ( 'NONE',  #81 ) ;
#83 = FACE_BOUND ( 'NONE', #202, .T. ) ;
#84 = FACE_OUTER_BOUND ( 'NONE', #206, .T. ) ;
#85 = DIRECTION ( 'NONE',  ( 0.0000000000000000000, 0.0000000000000000000, 1.000000000000000000 ) ) ;
#86 = DIRECTION ( 'NONE',  ( 0.0000000000000000000, 1.000000000000000000, 0.0000000000000000000 ) ) ;
#87 = AXIS2_PLACEMENT_3D ( 'NONE', #93, #86, #85 ) ;
#88 = CIRCLE ( 'NONE', #87, 2.999999999999995600 ) ;
#89 = DIRECTION ( 'NONE',  ( 0.0000000000000000000, 0.0000000000000000000, 1.000000000000000000 ) ) ;
#90 = DIRECTION ( 'NONE',  ( 0.0000000000000000000, 1.000000000000000000, 0.0000000000000000000 ) ) ;
#91 = CARTESIAN_POINT ( 'NONE',  ( 0.0000000000000000000, 37.24569319114028300, 0.0000000000000000000 ) ) ;
#92 = AXIS2_PLACEMENT_3D ( 'NONE', #91, #90, #89 ) ;
#93 = CARTESIAN_POINT ( 'NONE',  ( 0.0000000000000000000, 3.000000000000002700, 0.0000000000000000000 ) ) ;
#94 = CYLINDRICAL_SURFACE ( 'NONE', #92, 2.499999999999996000 ) ;
#95 = FACE_OUTER_BOUND ( 'NONE', #195, .T. ) ;
#96 = DIRECTION ( 'NONE',  ( 0.0000000000000000000, 0.0000000000000000000, 1.000000000000000000 ) ) ;
#97 = DIRECTION ( 'NONE',  ( 0.0000000000000000000, 1.000000000000000000, 0.0000000000000000000 ) ) ;
#98 = CARTESIAN_POINT ( 'NONE',  ( 0.0000000000000000000, 3.000000000000002700, 0.0000000000000000000 ) ) ;
#99 = AXIS2_PLACEMENT_3D ( 'NONE', #98, #97, #96 ) ;
#100 = CIRCLE ( 'NONE', #99, 2.499999999999995600 ) ;
#101 = DIRECTION ( 'NONE',  ( 0.0000000000000000000, 0.0000000000000000000, -1.000000000000000000 ) ) ;
#102 = DIRECTION ( 'NONE',  ( 0.0000000000000000000, -1.000000000000000000, 0.0000000000000000000 ) ) ;
#103 = CARTESIAN_POINT ( 'NONE',  ( -2.499999999999996000, 6.999999999999999100, 0.0000000000000000000 ) ) ;
#104 = AXIS2_PLACEMENT_3D ( 'NONE', #103, #102, #101 ) ;
#105 = PLANE ( 'NONE',  #104 ) ;
#106 = FACE_OUTER_BOUND ( 'NONE', #191, .T. ) ;
#107 = DIRECTION ( 'NONE',  ( 0.0000000000000000000, 0.0000000000000000000, 1.000000000000000000 ) ) ;
#108 = DIRECTION ( 'NONE',  ( 0.0000000000000000000, 1.000000000000000000, 0.0000000000000000000 ) ) ;
#109 = CARTESIAN_POINT ( 'NONE',  ( 0.0000000000000000000, 6.999999999999999100, 0.0000000000000000000 ) ) ;
#110 = AXIS2_PLACEMENT_3D ( 'NONE', #109, #108, #107 ) ;
#111 = CIRCLE ( 'NONE', #110, 2.499999999999996000 ) ;
#112 = FACE_BOUND ( 'NONE', #188, .T. ) ;
#113 = CARTESIAN_POINT ( 'NONE',  ( 3.061616997868378200E-016, 6.999999999999999100, -2.499999999999996000 ) ) ;
#114 = CARTESIAN_POINT ( 'NONE',  ( 3.061616997868377700E-016, 3.000000000000002700, -2.499999999999995600 ) ) ;
#115 = CARTESIAN_POINT ( 'NONE',  ( 0.0000000000000000000, 3.000000000000002700, 2.499999999999995600 ) ) ;
#116 = DIRECTION ( 'NONE',  ( 0.0000000000000000000, 0.0000000000000000000, 1.000000000000000000 ) ) ;
#117 = DIRECTION ( 'NONE',  ( 0.0000000000000000000, 1.000000000000000000, 0.0000000000000000000 ) ) ;
#118 = CARTESIAN_POINT ( 'NONE',  ( 0.0000000000000000000, 3.000000000000002700, 0.0000000000000000000 ) ) ;
#119 = AXIS2_PLACEMENT_3D ( 'NONE', #118, #117, #116 ) ;
#120 = DIRECTION ( 'NONE',  ( 0.0000000000000000000, 0.0000000000000000000, 1.000000000000000000 ) ) ;
#121 = DIRECTION ( 'NONE',  ( 0.0000000000000000000, 1.000000000000000000, 0.0000000000000000000 ) ) ;
#122 = CARTESIAN_POINT ( 'NONE',  ( 0.0000000000000000000, 37.24569319114028300, 0.0000000000000000000 ) ) ;
#123 = AXIS2_PLACEMENT_3D ( 'NONE', #122, #121, #120 ) ;
#124 = CIRCLE ( 'NONE', #119, 2.499999999999995600 ) ;
#125 = CYLINDRICAL_SURFACE ( 'NONE', #123, 2.499999999999996000 ) ;
#126 = FACE_OUTER_BOUND ( 'NONE', #177, .T. ) ;
#127 = CARTESIAN_POINT ( 'NONE',  ( 3.673940397442054400E-016, 3.000000000000002700, -2.999999999999995600 ) ) ;
#128 = DIRECTION ( 'NONE',  ( 5.476786982642023200E-017, 0.8944271909999159700, -0.4472135954999576500 ) ) ;
#129 = VECTOR ( 'NONE', #128, 1000.000000000000200 ) ;
#130 = CARTESIAN_POINT ( 'NONE',  ( 3.673940397442054400E-016, 3.000000000000002700, -2.999999999999995600 ) ) ;
#131 = LINE ( 'NONE', #130, #129 ) ;
#132 = CARTESIAN_POINT ( 'NONE',  ( 2.755455298081539400E-016, 0.0000000000000000000, -1.499999999999995600 ) ) ;
#133 = CARTESIAN_POINT ( 'NONE',  ( 0.0000000000000000000, 0.0000000000000000000, 1.499999999999995600 ) ) ;
#134 = DIRECTION ( 'NONE',  ( 0.0000000000000000000, 0.0000000000000000000, 1.000000000000000000 ) ) ;
#135 = DIRECTION ( 'NONE',  ( 0.0000000000000000000, 1.000000000000000000, 0.0000000000000000000 ) ) ;
#136 = AXIS2_PLACEMENT_3D ( 'NONE', #143, #135, #134 ) ;
#137 = CIRCLE ( 'NONE', #136, 1.499999999999995600 ) ;
#138 = DIRECTION ( 'NONE',  ( 0.0000000000000000000, 0.0000000000000000000, 1.000000000000000000 ) ) ;
#139 = DIRECTION ( 'NONE',  ( 0.0000000000000000000, 1.000000000000000000, 0.0000000000000000000 ) ) ;
#140 = CARTESIAN_POINT ( 'NONE',  ( 0.0000000000000000000, 3.000000000000002700, 0.0000000000000000000 ) ) ;
#141 = AXIS2_PLACEMENT_3D ( 'NONE', #140, #139, #138 ) ;
#142 = CONICAL_SURFACE ( 'NONE', #141, 2.999999999999995600, 0.4636476090008058200 ) ;
#143 = CARTESIAN_POINT ( 'NONE',  ( 0.0000000000000000000, 0.0000000000000000000, 0.0000000000000000000 ) ) ;
#144 = FACE_OUTER_BOUND ( 'NONE', #167, .T. ) ;
#145 = DIRECTION ( 'NONE',  ( 0.0000000000000000000, 1.000000000000000000, 0.0000000000000000000 ) ) ;
#146 = VECTOR ( 'NONE', #145, 1000.000000000000000 ) ;
#147 = CARTESIAN_POINT ( 'NONE',  ( 0.0000000000000000000, 37.24569319114028300, 2.499999999999996000 ) ) ;
#148 = LINE ( 'NONE', #147, #146 ) ;
#149 = CARTESIAN_POINT ( 'NONE',  ( 0.0000000000000000000, 6.999999999999999100, 2.499999999999996000 ) ) ;
#150 = DIRECTION ( 'NONE',  ( 0.0000000000000000000, 0.0000000000000000000, 1.000000000000000000 ) ) ;
#151 = DIRECTION ( 'NONE',  ( 0.0000000000000000000, 1.000000000000000000, 0.0000000000000000000 ) ) ;
#152 = CARTESIAN_POINT ( 'NONE',  ( 0.0000000000000000000, 6.999999999999999100, 0.0000000000000000000 ) ) ;
#153 = AXIS2_PLACEMENT_3D ( 'NONE', #152, #151, #150 ) ;
#154 = CIRCLE ( 'NONE', #153, 2.499999999999996000 ) ;
#155 = DIRECTION ( 'NONE',  ( 0.0000000000000000000, 1.000000000000000000, 0.0000000000000000000 ) ) ;
#156 = VECTOR ( 'NONE', #155, 1000.000000000000000 ) ;
#157 = CARTESIAN_POINT ( 'NONE',  ( 3.061616997868378200E-016, 37.24569319114028300, -2.499999999999996000 ) ) ;
#158 = LINE ( 'NONE', #157, #156 ) ;
#159 =( LENGTH_UNIT ( ) NAMED_UNIT ( * ) SI_UNIT ( .MILLI., .METRE. ) );
#160 = EDGE_CURVE ( 'NONE', #181, #183, #158, .T. ) ;
#161 = ORIENTED_EDGE ( 'NONE', *, *, #162, .F. ) ;
#162 = EDGE_CURVE ( 'NONE', #163, #183, #154, .T. ) ;
#163 = VERTEX_POINT ( 'NONE', #149 ) ;
#164 = ORIENTED_EDGE ( 'NONE', *, *, #165, .F. ) ;
#165 = EDGE_CURVE ( 'NONE', #180, #163, #148, .T. ) ;
#166 = ADVANCED_FACE ( 'NONE', ( #144 ), #142, .T. ) ;
#167 = EDGE_LOOP ( 'NONE', ( #168, #172, #236, #231 ) ) ;
#168 = ORIENTED_EDGE ( 'NONE', *, *, #169, .T. ) ;
#169 = EDGE_CURVE ( 'NONE', #170, #171, #137, .T. ) ;
#170 = VERTEX_POINT ( 'NONE', #133 ) ;
#171 = VERTEX_POINT ( 'NONE', #132 ) ;
#172 = ORIENTED_EDGE ( 'NONE', *, *, #173, .T. ) ;
#173 = EDGE_CURVE ( 'NONE', #171, #174, #131, .T. ) ;
#174 = VERTEX_POINT ( 'NONE', #127 ) ;
#175 = MANIFOLD_SOLID_BREP ( 'NONE', #194 ) ;
#176 = ADVANCED_FACE ( 'NONE', ( #126 ), #125, .T. ) ;
#177 = EDGE_LOOP ( 'NONE', ( #178, #182, #161, #164 ) ) ;
#178 = ORIENTED_EDGE ( 'NONE', *, *, #179, .T. ) ;
#179 = EDGE_CURVE ( 'NONE', #180, #181, #124, .T. ) ;
#180 = VERTEX_POINT ( 'NONE', #115 ) ;
#181 = VERTEX_POINT ( 'NONE', #114 ) ;
#182 = ORIENTED_EDGE ( 'NONE', *, *, #160, .T. ) ;
#183 = VERTEX_POINT ( 'NONE', #113 ) ;
#184 = ORIENTED_EDGE ( 'NONE', *, *, #165, .T. ) ;
#185 = ORIENTED_EDGE ( 'NONE', *, *, #186, .F. ) ;
#186 = EDGE_CURVE ( 'NONE', #183, #163, #111, .T. ) ;
#187 = ADVANCED_FACE ( 'NONE', ( #112, #106 ), #105, .T. ) ;
#188 = EDGE_LOOP ( 'NONE', ( #189, #190 ) ) ;
#189 = ORIENTED_EDGE ( 'NONE', *, *, #162, .T. ) ;
#190 = ORIENTED_EDGE ( 'NONE', *, *, #186, .T. ) ;
#191 = EDGE_LOOP ( 'NONE', ( #192, #193 ) ) ;
#192 = ORIENTED_EDGE ( 'NONE', *, *, #221, .F. ) ;
#193 = ORIENTED_EDGE ( 'NONE', *, *, #217, .F. ) ;
#194 = CLOSED_SHELL ( 'NONE', ( #187, #176, #227, #199, #233, #205, #166, #210, #216 ) ) ;
#195 = EDGE_LOOP ( 'NONE', ( #200, #238, #184, #185 ) ) ;
#196 = EDGE_CURVE ( 'NONE', #181, #180, #100, .T. ) ;
#197 = ORIENTED_EDGE ( 'NONE', *, *, #196, .F. ) ;
#198 = ORIENTED_EDGE ( 'NONE', *, *, #179, .F. ) ;
#199 = ADVANCED_FACE ( 'NONE', ( #95 ), #94, .T. ) ;
#200 = ORIENTED_EDGE ( 'NONE', *, *, #160, .F. ) ;
#201 = ORIENTED_EDGE ( 'NONE', *, *, #204, .T. ) ;
#202 = EDGE_LOOP ( 'NONE', ( #198, #197 ) ) ;
#203 = ORIENTED_EDGE ( 'NONE', *, *, #235, .T. ) ;
#204 = EDGE_CURVE ( 'NONE', #174, #237, #88, .T. ) ;
#205 = ADVANCED_FACE ( 'NONE', ( #84, #83 ), #82, .T. ) ;
#206 = EDGE_LOOP ( 'NONE', ( #203, #201 ) ) ;
#207 = EDGE_LOOP ( 'NONE', ( #211, #208, #209, #212 ) ) ;
#208 = ORIENTED_EDGE ( 'NONE', *, *, #214, .T. ) ;
#209 = ORIENTED_EDGE ( 'NONE', *, *, #232, .T. ) ;
#210 = ADVANCED_FACE ( 'NONE', ( #77 ), #76, .T. ) ;
#211 = ORIENTED_EDGE ( 'NONE', *, *, #173, .F. ) ;
#212 = ORIENTED_EDGE ( 'NONE', *, *, #204, .F. ) ;
#213 = ORIENTED_EDGE ( 'NONE', *, *, #169, .F. ) ;
#214 = EDGE_CURVE ( 'NONE', #171, #170, #70, .T. ) ;
#215 = ORIENTED_EDGE ( 'NONE', *, *, #214, .F. ) ;
#216 = ADVANCED_FACE ( 'NONE', ( #66 ), #65, .T. ) ;
#217 = EDGE_CURVE ( 'NONE', #228, #225, #60, .T. ) ;
#218 = ORIENTED_EDGE ( 'NONE', *, *, #223, .F. ) ;
#219 = ORIENTED_EDGE ( 'NONE', *, *, #226, .T. ) ;
#220 = ORIENTED_EDGE ( 'NONE', *, *, #217, .T. ) ;
#221 = EDGE_CURVE ( 'NONE', #225, #228, #55, .T. ) ;
#222 = ORIENTED_EDGE ( 'NONE', *, *, #223, .T. ) ;
#223 = EDGE_CURVE ( 'NONE', #228, #229, #50, .T. ) ;
#224 = ORIENTED_EDGE ( 'NONE', *, *, #226, .F. ) ;
#225 = VERTEX_POINT ( 'NONE', #45 ) ;
#226 = EDGE_CURVE ( 'NONE', #225, #229, #43, .T. ) ;
#227 = ADVANCED_FACE ( 'NONE', ( #44 ), #37, .T. ) ;
#228 = VERTEX_POINT ( 'NONE', #33 ) ;
#229 = VERTEX_POINT ( 'NONE', #32 ) ;
#230 = ORIENTED_EDGE ( 'NONE', *, *, #221, .T. ) ;
#231 = ORIENTED_EDGE ( 'NONE', *, *, #232, .F. ) ;
#232 = EDGE_CURVE ( 'NONE', #170, #237, #31, .T. ) ;
#233 = ADVANCED_FACE ( 'NONE', ( #27 ), #26, .T. ) ;
#234 = EDGE_LOOP ( 'NONE', ( #230, #222, #224 ) ) ;
#235 = EDGE_CURVE ( 'NONE', #237, #174, #21, .T. ) ;
#236 = ORIENTED_EDGE ( 'NONE', *, *, #235, .F. ) ;
#237 = VERTEX_POINT ( 'NONE', #16 ) ;
#238 = ORIENTED_EDGE ( 'NONE', *, *, #196, .T. ) ;
#239 = EDGE_LOOP ( 'NONE', ( #213, #215 ) ) ;
#240 = EDGE_LOOP ( 'NONE', ( #218, #220, #219 ) ) ;
#241 = DIRECTION ( 'NONE',  ( 1.000000000000000000, 0.0000000000000000000, 0.0000000000000000000 ) ) ;
#242 = DIRECTION ( 'NONE',  ( 0.0000000000000000000, 0.0000000000000000000, 1.000000000000000000 ) ) ;
#243 = CARTESIAN_POINT ( 'NONE',  ( 0.0000000000000000000, 0.0000000000000000000, 0.0000000000000000000 ) ) ;
#244 = AXIS2_PLACEMENT_3D ( 'NONE', #243, #242, #241 ) ;
#245 = PERSON ( 'UNSPECIFIED', 'UNSPECIFIED', 'UNSPECIFIED', ('UNSPECIFIED'), ('UNSPECIFIED'), ('UNSPECIFIED') ) ;
#246 = PRODUCT ( 'C-30-CS-4', 'C-30-CS-4', '', ( #247 ) ) ;
#247 = MECHANICAL_CONTEXT ( 'NONE', #249, 'mechanical' ) ;
#248 = APPLICATION_PROTOCOL_DEFINITION ( 'international standard', 'config_control_design', 1994, #249 ) ;
#249 = APPLICATION_CONTEXT ( 'configuration controlled 3d designs of mechanical parts and assemblies' ) ;
#250 = CC_DESIGN_DATE_AND_TIME_ASSIGNMENT ( #252, #251, ( #270 ) ) ;
#251 = DATE_TIME_ROLE ( 'creation_date' ) ;
#252 = DATE_AND_TIME ( #253, #254 ) ;
#253 = CALENDAR_DATE ( 2006, 8, 6 ) ;
#254 = LOCAL_TIME ( 9, 1, 0.0000000000000000000, #255 ) ;
#255 = COORDINATED_UNIVERSAL_TIME_OFFSET ( 9, 0, .AHEAD. ) ;
#256 = CC_DESIGN_PERSON_AND_ORGANIZATION_ASSIGNMENT ( #258, #257, ( #270 ) ) ;
#257 = PERSON_AND_ORGANIZATION_ROLE ( 'creator' ) ;
#258 = PERSON_AND_ORGANIZATION ( #245, #277 ) ;
#259 = CC_DESIGN_APPROVAL ( #267, ( #270 ) ) ;
#260 = APPROVAL_DATE_TIME ( #261, #267 ) ;
#261 = DATE_AND_TIME ( #262, #263 ) ;
#262 = CALENDAR_DATE ( 2006, 8, 6 ) ;
#263 = LOCAL_TIME ( 9, 1, 0.0000000000000000000, #264 ) ;
#264 = COORDINATED_UNIVERSAL_TIME_OFFSET ( 9, 0, .AHEAD. ) ;
#265 = APPROVAL_PERSON_ORGANIZATION ( #269, #267, #266 ) ;
#266 = APPROVAL_ROLE ( '' ) ;
#267 = APPROVAL ( #268, 'UNSPECIFIED' ) ;
#268 = APPROVAL_STATUS ( 'not_yet_approved' ) ;
#269 = PERSON_AND_ORGANIZATION ( #245, #277 ) ;
#270 = PRODUCT_DEFINITION ( 'UNKNOWN', '', #296, #271 ) ;
#271 = DESIGN_CONTEXT ( 'detailed design', #273, 'design' ) ;
#272 = APPLICATION_PROTOCOL_DEFINITION ( 'international standard', 'config_control_design', 1994, #273 ) ;
#273 = APPLICATION_CONTEXT ( 'configuration controlled 3d designs of mechanical parts and assemblies' ) ;
#274 = CC_DESIGN_PERSON_AND_ORGANIZATION_ASSIGNMENT ( #276, #275, ( #246 ) ) ;
#275 = PERSON_AND_ORGANIZATION_ROLE ( 'design_owner' ) ;
#276 = PERSON_AND_ORGANIZATION ( #245, #277 ) ;
#277 = ORGANIZATION ( 'UNSPECIFIED', 'UNSPECIFIED', '' ) ;
#278 = SECURITY_CLASSIFICATION_LEVEL ( 'unclassified' ) ;
#279 = CC_DESIGN_PERSON_AND_ORGANIZATION_ASSIGNMENT ( #281, #280, ( #296 ) ) ;
#280 = PERSON_AND_ORGANIZATION_ROLE ( 'design_supplier' ) ;
#281 = PERSON_AND_ORGANIZATION ( #245, #277 ) ;
#282 = CC_DESIGN_PERSON_AND_ORGANIZATION_ASSIGNMENT ( #284, #283, ( #296 ) ) ;
#283 = PERSON_AND_ORGANIZATION_ROLE ( 'creator' ) ;
#284 = PERSON_AND_ORGANIZATION ( #245, #277 ) ;
#285 = CC_DESIGN_APPROVAL ( #293, ( #296 ) ) ;
#286 = APPROVAL_DATE_TIME ( #287, #293 ) ;
#287 = DATE_AND_TIME ( #288, #289 ) ;
#288 = CALENDAR_DATE ( 2006, 8, 6 ) ;
#289 = LOCAL_TIME ( 9, 1, 0.0000000000000000000, #290 ) ;
#290 = COORDINATED_UNIVERSAL_TIME_OFFSET ( 9, 0, .AHEAD. ) ;
#291 = APPROVAL_PERSON_ORGANIZATION ( #295, #293, #292 ) ;
#292 = APPROVAL_ROLE ( '' ) ;
#293 = APPROVAL ( #294, 'UNSPECIFIED' ) ;
#294 = APPROVAL_STATUS ( 'not_yet_approved' ) ;
#295 = PERSON_AND_ORGANIZATION ( #245, #277 ) ;
#296 = PRODUCT_DEFINITION_FORMATION_WITH_SPECIFIED_SOURCE ( 'ANY', '', #246, .NOT_KNOWN. ) ;
#297 = PERSON_AND_ORGANIZATION ( #245, #277 ) ;
#298 = DATE_AND_TIME ( #299, #300 ) ;
#299 = CALENDAR_DATE ( 2006, 8, 6 ) ;
#300 = LOCAL_TIME ( 9, 1, 0.0000000000000000000, #303 ) ;
#301 = APPROVAL_ROLE ( '' ) ;
#302 = APPROVAL ( #306, 'UNSPECIFIED' ) ;
#303 = COORDINATED_UNIVERSAL_TIME_OFFSET ( 9, 0, .AHEAD. ) ;
#304 = APPROVAL_PERSON_ORGANIZATION ( #297, #302, #301 ) ;
#305 = SHAPE_DEFINITION_REPRESENTATION ( #311, #11 ) ;
#306 = APPROVAL_STATUS ( 'not_yet_approved' ) ;
#307 = CC_DESIGN_APPROVAL ( #302, ( #1 ) ) ;
#308 = APPROVAL_DATE_TIME ( #298, #302 ) ;
#309 = PRODUCT_RELATED_PRODUCT_CATEGORY ( 'detail', '', ( #246 ) ) ;
#310 = CC_DESIGN_SECURITY_CLASSIFICATION ( #1, ( #296 ) ) ;
#311 = PRODUCT_DEFINITION_SHAPE ( 'NONE', 'NONE',  #270 ) ;
ENDSEC;
END-ISO-10303-21;
