ISO-10303-21;
HEADER;
FILE_DESCRIPTION (( 'STEP AP203' ),
    '1' );
FILE_NAME ('C-30-CS-10.STEP',
    '2009-09-16T01:01:01',
    ( ' ' ),
    ( ' ' ),
    'SwSTEP 2.0',
    'SolidWorks 2007',
    '' );
FILE_SCHEMA (( 'CONFIG_CONTROL_DESIGN' ));
ENDSEC;

DATA;
#1 = DIRECTION ( 'NONE',  ( 0.0000000000000000000, 0.0000000000000000000, 1.000000000000000000 ) ) ;
#2 = CARTESIAN_POINT ( 'NONE',  ( 0.0000000000000000000, -4.000000000000000900, 0.0000000000000000000 ) ) ;
#3 = CIRCLE ( 'NONE', #33, 3.999999999999999100 ) ;
#4 = DIRECTION ( 'NONE',  ( 0.0000000000000000000, 0.0000000000000000000, 1.000000000000000000 ) ) ;
#5 = DIRECTION ( 'NONE',  ( -1.000000000000000000, 0.0000000000000000000, 0.0000000000000000000 ) ) ;
#6 = CARTESIAN_POINT ( 'NONE',  ( 0.0000000000000000000, -4.000000000000000000, 4.000000000000000000 ) ) ;
#7 = AXIS2_PLACEMENT_3D ( 'NONE', #6, #5, #4 ) ;
#8 = CIRCLE ( 'NONE', #7, 4.000000000000000000 ) ;
#9 = DIRECTION ( 'NONE',  ( 1.224606353822377300E-016, 0.0000000000000000000, -1.000000000000000000 ) ) ;
#10 = DIRECTION ( 'NONE',  ( 1.000000000000000000, 0.0000000000000000000, 1.224606353822377300E-016 ) ) ;
#11 = AXIS2_PLACEMENT_3D ( 'NONE', #17, #10, #9 ) ;
#12 = CIRCLE ( 'NONE', #11, 4.000000000000000000 ) ;
#13 = DIRECTION ( 'NONE',  ( 0.0000000000000000000, 0.0000000000000000000, -1.000000000000000000 ) ) ;
#14 = DIRECTION ( 'NONE',  ( 0.0000000000000000000, -1.000000000000000000, 0.0000000000000000000 ) ) ;
#15 = CARTESIAN_POINT ( 'NONE',  ( -8.000000000000000000, -4.000000000000000000, 0.0000000000000000000 ) ) ;
#16 = AXIS2_PLACEMENT_3D ( 'NONE', #15, #14, #13 ) ;
#17 = CARTESIAN_POINT ( 'NONE',  ( 4.898425415289509000E-016, -4.000000000000000000, -4.000000000000000000 ) ) ;
#18 = CIRCLE ( 'NONE', #152, 4.000000000000001800 ) ;
#19 = CARTESIAN_POINT ( 'NONE',  ( 7.347638122934264500E-016, -8.673617379884035500E-016, -4.000000000000001800 ) ) ;
#20 = DIRECTION ( 'NONE',  ( 0.0000000000000000000, 0.0000000000000000000, 1.000000000000000000 ) ) ;
#21 = DIRECTION ( 'NONE',  ( 0.0000000000000000000, 1.000000000000000000, 0.0000000000000000000 ) ) ;
#22 = CARTESIAN_POINT ( 'NONE',  ( 0.0000000000000000000, -4.000000000000000900, 0.0000000000000000000 ) ) ;
#23 = AXIS2_PLACEMENT_3D ( 'NONE', #22, #21, #20 ) ;
#24 = CIRCLE ( 'NONE', #23, 3.999999999999999100 ) ;
#25 = DIRECTION ( 'NONE',  ( 0.0000000000000000000, 0.0000000000000000000, 1.000000000000000000 ) ) ;
#26 = DIRECTION ( 'NONE',  ( 0.0000000000000000000, 1.000000000000000000, 0.0000000000000000000 ) ) ;
#27 = CARTESIAN_POINT ( 'NONE',  ( 0.0000000000000000000, -4.336808689942017700E-016, 0.0000000000000000000 ) ) ;
#28 = AXIS2_PLACEMENT_3D ( 'NONE', #27, #26, #25 ) ;
#29 = PLANE ( 'NONE',  #28 ) ;
#30 = FACE_OUTER_BOUND ( 'NONE', #126, .T. ) ;
#31 = DIRECTION ( 'NONE',  ( 0.0000000000000000000, 0.0000000000000000000, 1.000000000000000000 ) ) ;
#32 = DIRECTION ( 'NONE',  ( 0.0000000000000000000, 1.000000000000000000, 0.0000000000000000000 ) ) ;
#33 = AXIS2_PLACEMENT_3D ( 'NONE', #2, #32, #31 ) ;
#34 = EDGE_LOOP ( 'NONE', ( #164, #156, #170, #172 ) ) ;
#35 = ORIENTED_EDGE ( 'NONE', *, *, #157, .T. ) ;
#36 = DIRECTION ( 'NONE',  ( 0.0000000000000000000, 0.0000000000000000000, 1.000000000000000000 ) ) ;
#37 = DIRECTION ( 'NONE',  ( 0.0000000000000000000, 1.000000000000000000, 0.0000000000000000000 ) ) ;
#38 = CARTESIAN_POINT ( 'NONE',  ( 0.0000000000000000000, -10.60000000000000000, 0.0000000000000000000 ) ) ;
#39 = AXIS2_PLACEMENT_3D ( 'NONE', #38, #37, #36 ) ;
#40 = CIRCLE ( 'NONE', #39, 3.499999999999998700 ) ;
#41 = FACE_OUTER_BOUND ( 'NONE', #79, .T. ) ;
#42 = DIRECTION ( 'NONE',  ( 0.0000000000000000000, 0.0000000000000000000, -1.000000000000000000 ) ) ;
#43 = DIRECTION ( 'NONE',  ( 0.0000000000000000000, -1.000000000000000000, 0.0000000000000000000 ) ) ;
#44 = CARTESIAN_POINT ( 'NONE',  ( -3.499999999999998700, -10.60000000000000000, 0.0000000000000000000 ) ) ;
#45 = AXIS2_PLACEMENT_3D ( 'NONE', #44, #43, #42 ) ;
#46 = PLANE ( 'NONE',  #45 ) ;
#47 = PLANE ( 'NONE',  #16 ) ;
#48 = FACE_OUTER_BOUND ( 'NONE', #131, .T. ) ;
#49 = FACE_BOUND ( 'NONE', #120, .T. ) ;
#50 = DIRECTION ( 'NONE',  ( 0.0000000000000000000, 0.0000000000000000000, 1.000000000000000000 ) ) ;
#51 = DIRECTION ( 'NONE',  ( 0.0000000000000000000, 1.000000000000000000, 0.0000000000000000000 ) ) ;
#52 = AXIS2_PLACEMENT_3D ( 'NONE', #58, #51, #50 ) ;
#53 = CIRCLE ( 'NONE', #52, 5.499999999999999100 ) ;
#54 = DIRECTION ( 'NONE',  ( 0.0000000000000000000, 0.0000000000000000000, 1.000000000000000000 ) ) ;
#55 = DIRECTION ( 'NONE',  ( 0.0000000000000000000, 1.000000000000000000, 0.0000000000000000000 ) ) ;
#56 = CARTESIAN_POINT ( 'NONE',  ( 0.0000000000000000000, -4.000000000000000000, 0.0000000000000000000 ) ) ;
#57 = AXIS2_PLACEMENT_3D ( 'NONE', #56, #55, #54 ) ;
#58 = CARTESIAN_POINT ( 'NONE',  ( 0.0000000000000000000, -5.600000000000000500, 0.0000000000000000000 ) ) ;
#59 = TOROIDAL_SURFACE ( 'NONE', #57, 4.000000000000000000, 4.000000000000000000 ) ;
#60 = DIRECTION ( 'NONE',  ( 0.0000000000000000000, 0.0000000000000000000, 1.000000000000000000 ) ) ;
#61 = DIRECTION ( 'NONE',  ( 0.0000000000000000000, 1.000000000000000000, 0.0000000000000000000 ) ) ;
#62 = AXIS2_PLACEMENT_3D ( 'NONE', #65, #61, #60 ) ;
#63 = CYLINDRICAL_SURFACE ( 'NONE', #62, 4.000000000000000000 ) ;
#64 = FACE_OUTER_BOUND ( 'NONE', #113, .T. ) ;
#65 = CARTESIAN_POINT ( 'NONE',  ( 0.0000000000000000000, 0.0000000000000000000, 0.0000000000000000000 ) ) ;
#66 = FACE_OUTER_BOUND ( 'NONE', #109, .T. ) ;
#67 = CARTESIAN_POINT ( 'NONE',  ( 9.796850830579018100E-016, -3.999999999999999100, -8.000000000000000000 ) ) ;
#68 = CARTESIAN_POINT ( 'NONE',  ( 0.0000000000000000000, -3.999999999999999100, 8.000000000000000000 ) ) ;
#69 = DIRECTION ( 'NONE',  ( 0.0000000000000000000, 0.0000000000000000000, 1.000000000000000000 ) ) ;
#70 = DIRECTION ( 'NONE',  ( 0.0000000000000000000, 1.000000000000000000, 0.0000000000000000000 ) ) ;
#71 = CARTESIAN_POINT ( 'NONE',  ( 0.0000000000000000000, -3.999999999999999100, 0.0000000000000000000 ) ) ;
#72 = AXIS2_PLACEMENT_3D ( 'NONE', #71, #70, #69 ) ;
#73 = CIRCLE ( 'NONE', #72, 8.000000000000000000 ) ;
#74 = FACE_OUTER_BOUND ( 'NONE', #77, .T. ) ;
#75 = ORIENTED_EDGE ( 'NONE', *, *, #116, .F. ) ;
#76 = ADVANCED_FACE ( 'NONE', ( #74 ), #46, .T. ) ;
#77 = EDGE_LOOP ( 'NONE', ( #84, #85 ) ) ;
#78 = ORIENTED_EDGE ( 'NONE', *, *, #173, .T. ) ;
#79 = EDGE_LOOP ( 'NONE', ( #87, #81, #78, #75 ) ) ;
#80 = ORIENTED_EDGE ( 'NONE', *, *, #157, .F. ) ;
#81 = ORIENTED_EDGE ( 'NONE', *, *, #83, .T. ) ;
#82 = ORIENTED_EDGE ( 'NONE', *, *, #93, .F. ) ;
#83 = EDGE_CURVE ( 'NONE', #160, #166, #40, .T. ) ;
#84 = ORIENTED_EDGE ( 'NONE', *, *, #165, .F. ) ;
#85 = ORIENTED_EDGE ( 'NONE', *, *, #83, .F. ) ;
#86 = CLOSED_SHELL ( 'NONE', ( #153, #174, #100, #125, #112, #119, #108, #96, #88, #76 ) ) ;
#87 = ORIENTED_EDGE ( 'NONE', *, *, #167, .F. ) ;
#88 = ADVANCED_FACE ( 'NONE', ( #41 ), #208, .T. ) ;
#89 = ORIENTED_EDGE ( 'NONE', *, *, #99, .F. ) ;
#90 = ORIENTED_EDGE ( 'NONE', *, *, #91, .T. ) ;
#91 = EDGE_CURVE ( 'NONE', #105, #104, #203, .T. ) ;
#92 = ORIENTED_EDGE ( 'NONE', *, *, #123, .T. ) ;
#93 = EDGE_CURVE ( 'NONE', #158, #176, #198, .T. ) ;
#94 = ORIENTED_EDGE ( 'NONE', *, *, #99, .T. ) ;
#95 = ORIENTED_EDGE ( 'NONE', *, *, #130, .F. ) ;
#96 = ADVANCED_FACE ( 'NONE', ( #194, #193 ), #192, .T. ) ;
#97 = EDGE_LOOP ( 'NONE', ( #98, #115 ) ) ;
#98 = ORIENTED_EDGE ( 'NONE', *, *, #154, .T. ) ;
#99 = EDGE_CURVE ( 'NONE', #176, #162, #187, .T. ) ;
#100 = ADVANCED_FACE ( 'NONE', ( #183 ), #182, .T. ) ;
#101 = EDGE_LOOP ( 'NONE', ( #102, #127, #133, #122 ) ) ;
#102 = ORIENTED_EDGE ( 'NONE', *, *, #103, .T. ) ;
#103 = EDGE_CURVE ( 'NONE', #104, #105, #73, .T. ) ;
#104 = VERTEX_POINT ( 'NONE', #68 ) ;
#105 = VERTEX_POINT ( 'NONE', #67 ) ;
#106 = ORIENTED_EDGE ( 'NONE', *, *, #103, .F. ) ;
#107 = ORIENTED_EDGE ( 'NONE', *, *, #91, .F. ) ;
#108 = ADVANCED_FACE ( 'NONE', ( #66 ), #63, .T. ) ;
#109 = EDGE_LOOP ( 'NONE', ( #110, #111, #94, #95 ) ) ;
#110 = ORIENTED_EDGE ( 'NONE', *, *, #169, .F. ) ;
#111 = ORIENTED_EDGE ( 'NONE', *, *, #93, .T. ) ;
#112 = ADVANCED_FACE ( 'NONE', ( #64 ), #59, .T. ) ;
#113 = EDGE_LOOP ( 'NONE', ( #114, #90, #92, #118 ) ) ;
#114 = ORIENTED_EDGE ( 'NONE', *, *, #121, .F. ) ;
#115 = ORIENTED_EDGE ( 'NONE', *, *, #116, .T. ) ;
#116 = EDGE_CURVE ( 'NONE', #163, #155, #53, .T. ) ;
#117 = EDGE_LOOP ( 'NONE', ( #80, #82 ) ) ;
#118 = ORIENTED_EDGE ( 'NONE', *, *, #161, .F. ) ;
#119 = ADVANCED_FACE ( 'NONE', ( #49, #48 ), #47, .T. ) ;
#120 = EDGE_LOOP ( 'NONE', ( #128, #129 ) ) ;
#121 = EDGE_CURVE ( 'NONE', #105, #132, #12, .T. ) ;
#122 = ORIENTED_EDGE ( 'NONE', *, *, #123, .F. ) ;
#123 = EDGE_CURVE ( 'NONE', #104, #135, #8, .T. ) ;
#124 = EDGE_CURVE ( 'NONE', #162, #159, #3, .T. ) ;
#125 = ADVANCED_FACE ( 'NONE', ( #30 ), #29, .T. ) ;
#126 = EDGE_LOOP ( 'NONE', ( #136, #137 ) ) ;
#127 = ORIENTED_EDGE ( 'NONE', *, *, #121, .T. ) ;
#128 = ORIENTED_EDGE ( 'NONE', *, *, #124, .T. ) ;
#129 = ORIENTED_EDGE ( 'NONE', *, *, #130, .T. ) ;
#130 = EDGE_CURVE ( 'NONE', #159, #162, #24, .T. ) ;
#131 = EDGE_LOOP ( 'NONE', ( #106, #107 ) ) ;
#132 = VERTEX_POINT ( 'NONE', #19 ) ;
#133 = ORIENTED_EDGE ( 'NONE', *, *, #134, .F. ) ;
#134 = EDGE_CURVE ( 'NONE', #135, #132, #18, .T. ) ;
#135 = VERTEX_POINT ( 'NONE', #148 ) ;
#136 = ORIENTED_EDGE ( 'NONE', *, *, #134, .T. ) ;
#137 = ORIENTED_EDGE ( 'NONE', *, *, #161, .T. ) ;
#138 = DIRECTION ( 'NONE',  ( 0.0000000000000000000, 1.000000000000000000, 0.0000000000000000000 ) ) ;
#139 = CARTESIAN_POINT ( 'NONE',  ( 0.0000000000000000000, -5.600000000000000500, 0.0000000000000000000 ) ) ;
#140 = AXIS2_PLACEMENT_3D ( 'NONE', #139, #138, #1 ) ;
#141 = DIRECTION ( 'NONE',  ( 0.0000000000000000000, 0.0000000000000000000, 1.000000000000000000 ) ) ;
#142 = DIRECTION ( 'NONE',  ( 0.0000000000000000000, 1.000000000000000000, 0.0000000000000000000 ) ) ;
#143 = AXIS2_PLACEMENT_3D ( 'NONE', #146, #142, #141 ) ;
#144 = CONICAL_SURFACE ( 'NONE', #143, 5.499999999999999100, 0.3805063771123649600 ) ;
#145 = CIRCLE ( 'NONE', #140, 5.499999999999999100 ) ;
#146 = CARTESIAN_POINT ( 'NONE',  ( 0.0000000000000000000, -5.600000000000000500, 0.0000000000000000000 ) ) ;
#147 = FACE_OUTER_BOUND ( 'NONE', #34, .T. ) ;
#148 = CARTESIAN_POINT ( 'NONE',  ( 0.0000000000000000000, -8.673617379884035500E-016, 4.000000000000001800 ) ) ;
#149 = DIRECTION ( 'NONE',  ( 0.0000000000000000000, 0.0000000000000000000, 1.000000000000000000 ) ) ;
#150 = DIRECTION ( 'NONE',  ( 0.0000000000000000000, 1.000000000000000000, 0.0000000000000000000 ) ) ;
#151 = CARTESIAN_POINT ( 'NONE',  ( 0.0000000000000000000, -8.673617379884035500E-016, 0.0000000000000000000 ) ) ;
#152 = AXIS2_PLACEMENT_3D ( 'NONE', #151, #150, #149 ) ;
#153 = ADVANCED_FACE ( 'NONE', ( #147 ), #144, .T. ) ;
#154 = EDGE_CURVE ( 'NONE', #155, #163, #145, .T. ) ;
#155 = VERTEX_POINT ( 'NONE', #281 ) ;
#156 = ORIENTED_EDGE ( 'NONE', *, *, #167, .T. ) ;
#157 = EDGE_CURVE ( 'NONE', #176, #158, #334, .T. ) ;
#158 = VERTEX_POINT ( 'NONE', #277 ) ;
#159 = VERTEX_POINT ( 'NONE', #247 ) ;
#160 = VERTEX_POINT ( 'NONE', #249 ) ;
#161 = EDGE_CURVE ( 'NONE', #132, #135, #218, .T. ) ;
#162 = VERTEX_POINT ( 'NONE', #287 ) ;
#163 = VERTEX_POINT ( 'NONE', #278 ) ;
#164 = ORIENTED_EDGE ( 'NONE', *, *, #165, .T. ) ;
#165 = EDGE_CURVE ( 'NONE', #166, #160, #252, .T. ) ;
#166 = VERTEX_POINT ( 'NONE', #213 ) ;
#167 = EDGE_CURVE ( 'NONE', #160, #163, #336, .T. ) ;
#168 = ORIENTED_EDGE ( 'NONE', *, *, #169, .T. ) ;
#169 = EDGE_CURVE ( 'NONE', #158, #159, #329, .T. ) ;
#170 = ORIENTED_EDGE ( 'NONE', *, *, #154, .F. ) ;
#171 = ORIENTED_EDGE ( 'NONE', *, *, #124, .F. ) ;
#172 = ORIENTED_EDGE ( 'NONE', *, *, #173, .F. ) ;
#173 = EDGE_CURVE ( 'NONE', #166, #155, #284, .T. ) ;
#174 = ADVANCED_FACE ( 'NONE', ( #255 ), #327, .T. ) ;
#175 = EDGE_LOOP ( 'NONE', ( #35, #168, #171, #89 ) ) ;
#176 = VERTEX_POINT ( 'NONE', #324 ) ;
#177 = MANIFOLD_SOLID_BREP ( 'NONE', #86 ) ;
#178 = DIRECTION ( 'NONE',  ( 0.0000000000000000000, 0.0000000000000000000, 1.000000000000000000 ) ) ;
#179 = DIRECTION ( 'NONE',  ( 0.0000000000000000000, 1.000000000000000000, 0.0000000000000000000 ) ) ;
#180 = CARTESIAN_POINT ( 'NONE',  ( 0.0000000000000000000, -4.000000000000000000, 0.0000000000000000000 ) ) ;
#181 = AXIS2_PLACEMENT_3D ( 'NONE', #180, #179, #178 ) ;
#182 = TOROIDAL_SURFACE ( 'NONE', #181, 4.000000000000000000, 4.000000000000000000 ) ;
#183 = FACE_OUTER_BOUND ( 'NONE', #101, .T. ) ;
#184 = DIRECTION ( 'NONE',  ( 0.0000000000000000000, 1.000000000000000000, 0.0000000000000000000 ) ) ;
#185 = VECTOR ( 'NONE', #184, 1000.000000000000000 ) ;
#186 = CARTESIAN_POINT ( 'NONE',  ( 0.0000000000000000000, 0.0000000000000000000, 4.000000000000000000 ) ) ;
#187 = LINE ( 'NONE', #186, #185 ) ;
#188 = DIRECTION ( 'NONE',  ( 0.0000000000000000000, 0.0000000000000000000, 1.000000000000000000 ) ) ;
#189 = DIRECTION ( 'NONE',  ( 0.0000000000000000000, 1.000000000000000000, 0.0000000000000000000 ) ) ;
#190 = CARTESIAN_POINT ( 'NONE',  ( -4.000000000000000000, -5.600000000000000500, 0.0000000000000000000 ) ) ;
#191 = AXIS2_PLACEMENT_3D ( 'NONE', #190, #189, #188 ) ;
#192 = PLANE ( 'NONE',  #191 ) ;
#193 = FACE_BOUND ( 'NONE', #117, .T. ) ;
#194 = FACE_OUTER_BOUND ( 'NONE', #97, .T. ) ;
#195 = DIRECTION ( 'NONE',  ( 0.0000000000000000000, 0.0000000000000000000, 1.000000000000000000 ) ) ;
#196 = DIRECTION ( 'NONE',  ( 0.0000000000000000000, 1.000000000000000000, 0.0000000000000000000 ) ) ;
#197 = AXIS2_PLACEMENT_3D ( 'NONE', #204, #196, #195 ) ;
#198 = CIRCLE ( 'NONE', #197, 4.000000000000000000 ) ;
#199 = DIRECTION ( 'NONE',  ( 0.0000000000000000000, 0.0000000000000000000, 1.000000000000000000 ) ) ;
#200 = DIRECTION ( 'NONE',  ( 0.0000000000000000000, 1.000000000000000000, 0.0000000000000000000 ) ) ;
#201 = CARTESIAN_POINT ( 'NONE',  ( 0.0000000000000000000, -3.999999999999999100, 0.0000000000000000000 ) ) ;
#202 = AXIS2_PLACEMENT_3D ( 'NONE', #201, #200, #199 ) ;
#203 = CIRCLE ( 'NONE', #202, 8.000000000000000000 ) ;
#204 = CARTESIAN_POINT ( 'NONE',  ( 0.0000000000000000000, -5.600000000000000500, 0.0000000000000000000 ) ) ;
#205 = DIRECTION ( 'NONE',  ( 0.0000000000000000000, 0.0000000000000000000, 1.000000000000000000 ) ) ;
#206 = DIRECTION ( 'NONE',  ( 0.0000000000000000000, 1.000000000000000000, 0.0000000000000000000 ) ) ;
#207 = AXIS2_PLACEMENT_3D ( 'NONE', #209, #206, #205 ) ;
#208 = CONICAL_SURFACE ( 'NONE', #207, 5.499999999999999100, 0.3805063771123649600 ) ;
#209 = CARTESIAN_POINT ( 'NONE',  ( 0.0000000000000000000, -5.600000000000000500, 0.0000000000000000000 ) ) ;
#210 = DIRECTION ( 'NONE',  ( 4.548073820136255300E-017, 0.9284766908852593000, -0.3713906763541037200 ) ) ;
#211 = VECTOR ( 'NONE', #212, 1000.000000000000000 ) ;
#212 = DIRECTION ( 'NONE',  ( 0.0000000000000000000, 1.000000000000000000, 0.0000000000000000000 ) ) ;
#213 = CARTESIAN_POINT ( 'NONE',  ( 0.0000000000000000000, -10.60000000000000000, 3.499999999999998700 ) ) ;
#214 = DIRECTION ( 'NONE',  ( 0.0000000000000000000, 1.000000000000000000, 0.0000000000000000000 ) ) ;
#215 = AXIS2_PLACEMENT_3D ( 'NONE', #245, #319, #318 ) ;
#216 = SHAPE_DEFINITION_REPRESENTATION ( #289, #217 ) ;
#217 = ADVANCED_BREP_SHAPE_REPRESENTATION ( 'C-30-CS-10', ( #177, #215 ), #317 ) ;
#218 = CIRCLE ( 'NONE', #246, 4.000000000000001800 ) ;
#219 = MECHANICAL_CONTEXT ( 'NONE', #221, 'mechanical' ) ;
#220 = APPLICATION_PROTOCOL_DEFINITION ( 'international standard', 'config_control_design', 1994, #221 ) ;
#221 = APPLICATION_CONTEXT ( 'configuration controlled 3d designs of mechanical parts and assemblies' ) ;
#222 = PERSON_AND_ORGANIZATION ( #253, #322 ) ;
#223 = CC_DESIGN_PERSON_AND_ORGANIZATION_ASSIGNMENT ( #225, #224, ( #237 ) ) ;
#224 = PERSON_AND_ORGANIZATION_ROLE ( 'creator' ) ;
#225 = PERSON_AND_ORGANIZATION ( #253, #322 ) ;
#226 = CC_DESIGN_APPROVAL ( #234, ( #237 ) ) ;
#227 = APPROVAL_DATE_TIME ( #228, #234 ) ;
#228 = DATE_AND_TIME ( #229, #230 ) ;
#229 = CALENDAR_DATE ( 2009, 16, 9 ) ;
#230 = LOCAL_TIME ( 10, 1, 1.000000000000000000, #231 ) ;
#231 = COORDINATED_UNIVERSAL_TIME_OFFSET ( 9, 0, .AHEAD. ) ;
#232 = APPROVAL_PERSON_ORGANIZATION ( #236, #234, #233 ) ;
#233 = APPROVAL_ROLE ( '' ) ;
#234 = APPROVAL ( #235, 'UNSPECIFIED' ) ;
#235 = APPROVAL_STATUS ( 'not_yet_approved' ) ;
#236 = PERSON_AND_ORGANIZATION ( #253, #322 ) ;
#237 = PRODUCT_DEFINITION_FORMATION_WITH_SPECIFIED_SOURCE ( 'ANY', '', #254, .NOT_KNOWN. ) ;
#238 = CC_DESIGN_DATE_AND_TIME_ASSIGNMENT ( #257, #239, ( #272 ) ) ;
#239 = DATE_TIME_ROLE ( 'creation_date' ) ;
#240 = CALENDAR_DATE ( 2009, 16, 9 ) ;
#241 = LOCAL_TIME ( 10, 1, 1.000000000000000000, #242 ) ;
#242 = COORDINATED_UNIVERSAL_TIME_OFFSET ( 9, 0, .AHEAD. ) ;
#243 = UNCERTAINTY_MEASURE_WITH_UNIT (LENGTH_MEASURE( 1.000000000000000100E-005 ), #286, 'distance_accuracy_value', 'NONE');
#244 =( NAMED_UNIT ( * ) SI_UNIT ( $, .STERADIAN. ) SOLID_ANGLE_UNIT ( ) );
#245 = CARTESIAN_POINT ( 'NONE',  ( 0.0000000000000000000, 0.0000000000000000000, 0.0000000000000000000 ) ) ;
#246 = AXIS2_PLACEMENT_3D ( 'NONE', #251, #335, #333 ) ;
#247 = CARTESIAN_POINT ( 'NONE',  ( 4.898425415289508000E-016, -4.000000000000000900, -3.999999999999999100 ) ) ;
#248 = CARTESIAN_POINT ( 'NONE',  ( 4.898425415289509000E-016, 0.0000000000000000000, -4.000000000000000000 ) ) ;
#249 = CARTESIAN_POINT ( 'NONE',  ( 5.510728592200696700E-016, -10.60000000000000000, -3.499999999999998700 ) ) ;
#250 = AXIS2_PLACEMENT_3D ( 'NONE', #316, #337, #332 ) ;
#251 = CARTESIAN_POINT ( 'NONE',  ( 0.0000000000000000000, -8.673617379884035500E-016, 0.0000000000000000000 ) ) ;
#252 = CIRCLE ( 'NONE', #250, 3.499999999999998700 ) ;
#253 = PERSON ( 'UNSPECIFIED', 'UNSPECIFIED', 'UNSPECIFIED', ('UNSPECIFIED'), ('UNSPECIFIED'), ('UNSPECIFIED') ) ;
#254 = PRODUCT ( 'C-30-CS-10', 'C-30-CS-10', '', ( #219 ) ) ;
#255 = FACE_OUTER_BOUND ( 'NONE', #175, .T. ) ;
#256 = VECTOR ( 'NONE', #282, 1000.000000000000100 ) ;
#257 = DATE_AND_TIME ( #240, #241 ) ;
#258 = CC_DESIGN_PERSON_AND_ORGANIZATION_ASSIGNMENT ( #260, #259, ( #272 ) ) ;
#259 = PERSON_AND_ORGANIZATION_ROLE ( 'creator' ) ;
#260 = PERSON_AND_ORGANIZATION ( #253, #322 ) ;
#261 = CC_DESIGN_APPROVAL ( #269, ( #272 ) ) ;
#262 = APPROVAL_DATE_TIME ( #263, #269 ) ;
#263 = DATE_AND_TIME ( #264, #265 ) ;
#264 = CALENDAR_DATE ( 2009, 16, 9 ) ;
#265 = LOCAL_TIME ( 10, 1, 1.000000000000000000, #266 ) ;
#266 = COORDINATED_UNIVERSAL_TIME_OFFSET ( 9, 0, .AHEAD. ) ;
#267 = APPROVAL_PERSON_ORGANIZATION ( #271, #269, #268 ) ;
#268 = APPROVAL_ROLE ( '' ) ;
#269 = APPROVAL ( #270, 'UNSPECIFIED' ) ;
#270 = APPROVAL_STATUS ( 'not_yet_approved' ) ;
#271 = PERSON_AND_ORGANIZATION ( #253, #322 ) ;
#272 = PRODUCT_DEFINITION ( 'UNKNOWN', '', #237, #273 ) ;
#273 = DESIGN_CONTEXT ( 'detailed design', #275, 'design' ) ;
#274 = APPLICATION_PROTOCOL_DEFINITION ( 'international standard', 'config_control_design', 1994, #275 ) ;
#275 = APPLICATION_CONTEXT ( 'configuration controlled 3d designs of mechanical parts and assemblies' ) ;
#276 = CC_DESIGN_PERSON_AND_ORGANIZATION_ASSIGNMENT ( #321, #320, ( #254 ) ) ;
#277 = CARTESIAN_POINT ( 'NONE',  ( 4.898425415289509000E-016, -5.600000000000000500, -4.000000000000000000 ) ) ;
#278 = CARTESIAN_POINT ( 'NONE',  ( 6.735334946023072900E-016, -5.600000000000000500, -5.499999999999999100 ) ) ;
#279 = VECTOR ( 'NONE', #210, 1000.000000000000100 ) ;
#280 = DIRECTION ( 'NONE',  ( 0.0000000000000000000, 0.0000000000000000000, 1.000000000000000000 ) ) ;
#281 = CARTESIAN_POINT ( 'NONE',  ( 0.0000000000000000000, -5.600000000000000500, 5.499999999999999100 ) ) ;
#282 = DIRECTION ( 'NONE',  ( 0.0000000000000000000, 0.9284766908852593000, 0.3713906763541037200 ) ) ;
#283 = CARTESIAN_POINT ( 'NONE',  ( 0.0000000000000000000, -5.600000000000000500, 5.499999999999999100 ) ) ;
#284 = LINE ( 'NONE', #283, #256 ) ;
#285 =( NAMED_UNIT ( * ) PLANE_ANGLE_UNIT ( ) SI_UNIT ( $, .RADIAN. ) );
#286 =( LENGTH_UNIT ( ) NAMED_UNIT ( * ) SI_UNIT ( .MILLI., .METRE. ) );
#287 = CARTESIAN_POINT ( 'NONE',  ( 0.0000000000000000000, -4.000000000000000900, 3.999999999999999100 ) ) ;
#288 = CARTESIAN_POINT ( 'NONE',  ( 0.0000000000000000000, -5.600000000000000500, 0.0000000000000000000 ) ) ;
#289 = PRODUCT_DEFINITION_SHAPE ( 'NONE', 'NONE',  #272 ) ;
#290 = PRODUCT_RELATED_PRODUCT_CATEGORY ( 'detail', '', ( #254 ) ) ;
#291 = CC_DESIGN_SECURITY_CLASSIFICATION ( #312, ( #237 ) ) ;
#292 = CC_DESIGN_APPROVAL ( #300, ( #312 ) ) ;
#293 = APPROVAL_DATE_TIME ( #294, #300 ) ;
#294 = DATE_AND_TIME ( #295, #296 ) ;
#295 = CALENDAR_DATE ( 2009, 16, 9 ) ;
#296 = LOCAL_TIME ( 10, 1, 1.000000000000000000, #297 ) ;
#297 = COORDINATED_UNIVERSAL_TIME_OFFSET ( 9, 0, .AHEAD. ) ;
#298 = APPROVAL_PERSON_ORGANIZATION ( #302, #300, #299 ) ;
#299 = APPROVAL_ROLE ( '' ) ;
#300 = APPROVAL ( #301, 'UNSPECIFIED' ) ;
#301 = APPROVAL_STATUS ( 'not_yet_approved' ) ;
#302 = PERSON_AND_ORGANIZATION ( #253, #322 ) ;
#303 = CC_DESIGN_DATE_AND_TIME_ASSIGNMENT ( #305, #304, ( #312 ) ) ;
#304 = DATE_TIME_ROLE ( 'classification_date' ) ;
#305 = DATE_AND_TIME ( #306, #307 ) ;
#306 = CALENDAR_DATE ( 2009, 16, 9 ) ;
#307 = LOCAL_TIME ( 10, 1, 1.000000000000000000, #308 ) ;
#308 = COORDINATED_UNIVERSAL_TIME_OFFSET ( 9, 0, .AHEAD. ) ;
#309 = CC_DESIGN_PERSON_AND_ORGANIZATION_ASSIGNMENT ( #311, #310, ( #312 ) ) ;
#310 = PERSON_AND_ORGANIZATION_ROLE ( 'classification_officer' ) ;
#311 = PERSON_AND_ORGANIZATION ( #253, #322 ) ;
#312 = SECURITY_CLASSIFICATION ( '', '', #313 ) ;
#313 = SECURITY_CLASSIFICATION_LEVEL ( 'unclassified' ) ;
#314 = CC_DESIGN_PERSON_AND_ORGANIZATION_ASSIGNMENT ( #222, #315, ( #237 ) ) ;
#315 = PERSON_AND_ORGANIZATION_ROLE ( 'design_supplier' ) ;
#316 = CARTESIAN_POINT ( 'NONE',  ( 0.0000000000000000000, -10.60000000000000000, 0.0000000000000000000 ) ) ;
#317 =( GEOMETRIC_REPRESENTATION_CONTEXT ( 3 ) GLOBAL_UNCERTAINTY_ASSIGNED_CONTEXT ( ( #243 ) ) GLOBAL_UNIT_ASSIGNED_CONTEXT ( ( #286, #285, #244 ) ) REPRESENTATION_CONTEXT ( 'NONE', 'WORKASPACE' ) );
#318 = DIRECTION ( 'NONE',  ( 1.000000000000000000, 0.0000000000000000000, 0.0000000000000000000 ) ) ;
#319 = DIRECTION ( 'NONE',  ( 0.0000000000000000000, 0.0000000000000000000, 1.000000000000000000 ) ) ;
#320 = PERSON_AND_ORGANIZATION_ROLE ( 'design_owner' ) ;
#321 = PERSON_AND_ORGANIZATION ( #253, #322 ) ;
#322 = ORGANIZATION ( 'UNSPECIFIED', 'UNSPECIFIED', '' ) ;
#323 = CARTESIAN_POINT ( 'NONE',  ( 0.0000000000000000000, 0.0000000000000000000, 0.0000000000000000000 ) ) ;
#324 = CARTESIAN_POINT ( 'NONE',  ( 0.0000000000000000000, -5.600000000000000500, 4.000000000000000000 ) ) ;
#325 = DIRECTION ( 'NONE',  ( 0.0000000000000000000, 0.0000000000000000000, 1.000000000000000000 ) ) ;
#326 = AXIS2_PLACEMENT_3D ( 'NONE', #323, #214, #325 ) ;
#327 = CYLINDRICAL_SURFACE ( 'NONE', #326, 4.000000000000000000 ) ;
#328 = DIRECTION ( 'NONE',  ( 0.0000000000000000000, 1.000000000000000000, 0.0000000000000000000 ) ) ;
#329 = LINE ( 'NONE', #248, #211 ) ;
#330 = AXIS2_PLACEMENT_3D ( 'NONE', #288, #328, #280 ) ;
#331 = CARTESIAN_POINT ( 'NONE',  ( 6.735334946023072900E-016, -5.600000000000000500, -5.499999999999999100 ) ) ;
#332 = DIRECTION ( 'NONE',  ( 0.0000000000000000000, 0.0000000000000000000, 1.000000000000000000 ) ) ;
#333 = DIRECTION ( 'NONE',  ( 0.0000000000000000000, 0.0000000000000000000, 1.000000000000000000 ) ) ;
#334 = CIRCLE ( 'NONE', #330, 4.000000000000000000 ) ;
#335 = DIRECTION ( 'NONE',  ( 0.0000000000000000000, 1.000000000000000000, 0.0000000000000000000 ) ) ;
#336 = LINE ( 'NONE', #331, #279 ) ;
#337 = DIRECTION ( 'NONE',  ( 0.0000000000000000000, 1.000000000000000000, 0.0000000000000000000 ) ) ;
ENDSEC;
END-ISO-10303-21;
