ISO-10303-21;
HEADER;
FILE_DESCRIPTION (( 'STEP AP203' ),
    '1' );
FILE_NAME ('C-30-CS-1.STEP',
    '2009-09-16T00:56:55',
    ( ' ' ),
    ( ' ' ),
    'SwSTEP 2.0',
    'SolidWorks 2007',
    '' );
FILE_SCHEMA (( 'CONFIG_CONTROL_DESIGN' ));
ENDSEC;

DATA;
#1 = VECTOR ( 'NONE', #2, 1000.000000000000000 ) ;
#2 = DIRECTION ( 'NONE',  ( 0.0000000000000000000, 1.000000000000000000, 0.0000000000000000000 ) ) ;
#3 = EDGE_CURVE ( 'NONE', #99, #129, #147, .T. ) ;
#4 = ADVANCED_FACE ( 'NONE', ( #143 ), #142, .T. ) ;
#5 = ADVANCED_FACE ( 'NONE', ( #136 ), #135, .T. ) ;
#6 = EDGE_LOOP ( 'NONE', ( #118, #114, #92, #94 ) ) ;
#7 = MANIFOLD_SOLID_BREP ( 'NONE', #150 ) ;
#8 = ORIENTED_EDGE ( 'NONE', *, *, #108, .T. ) ;
#9 = ORIENTED_EDGE ( 'NONE', *, *, #10, .T. ) ;
#10 = EDGE_CURVE ( 'NONE', #106, #89, #63, .T. ) ;
#11 = ADVANCED_FACE ( 'NONE', ( #59, #58 ), #57, .T. ) ;
#12 = EDGE_LOOP ( 'NONE', ( #174, #170 ) ) ;
#13 = EDGE_LOOP ( 'NONE', ( #14, #18, #102, #228 ) ) ;
#14 = ORIENTED_EDGE ( 'NONE', *, *, #15, .T. ) ;
#15 = EDGE_CURVE ( 'NONE', #16, #17, #52, .T. ) ;
#16 = VERTEX_POINT ( 'NONE', #218 ) ;
#17 = VERTEX_POINT ( 'NONE', #217 ) ;
#18 = ORIENTED_EDGE ( 'NONE', *, *, #100, .T. ) ;
#19 = ORIENTED_EDGE ( 'NONE', *, *, #171, .T. ) ;
#20 = ORIENTED_EDGE ( 'NONE', *, *, #115, .F. ) ;
#21 = EDGE_LOOP ( 'NONE', ( #20, #19, #222, #221 ) ) ;
#22 = ADVANCED_FACE ( 'NONE', ( #216 ), #213, .T. ) ;
#23 = ADVANCED_FACE ( 'NONE', ( #214, #209 ), #208, .T. ) ;
#24 = ORIENTED_EDGE ( 'NONE', *, *, #93, .T. ) ;
#25 = EDGE_LOOP ( 'NONE', ( #30, #26 ) ) ;
#26 = ORIENTED_EDGE ( 'NONE', *, *, #29, .F. ) ;
#27 = ORIENTED_EDGE ( 'NONE', *, *, #28, .T. ) ;
#28 = EDGE_CURVE ( 'NONE', #116, #117, #85, .T. ) ;
#29 = EDGE_CURVE ( 'NONE', #123, #99, #80, .T. ) ;
#30 = ORIENTED_EDGE ( 'NONE', *, *, #122, .F. ) ;
#31 = ORIENTED_EDGE ( 'NONE', *, *, #3, .T. ) ;
#32 = ORIENTED_EDGE ( 'NONE', *, *, #64, .F. ) ;
#33 = EDGE_LOOP ( 'NONE', ( #24, #27 ) ) ;
#34 = ORIENTED_EDGE ( 'NONE', *, *, #29, .T. ) ;
#35 = ORIENTED_EDGE ( 'NONE', *, *, #15, .F. ) ;
#36 = ADVANCED_FACE ( 'NONE', ( #48 ), #47, .T. ) ;
#37 = ORIENTED_EDGE ( 'NONE', *, *, #73, .F. ) ;
#38 = ORIENTED_EDGE ( 'NONE', *, *, #125, .F. ) ;
#39 = DIRECTION ( 'NONE',  ( 0.0000000000000000000, 1.000000000000000000, 0.0000000000000000000 ) ) ;
#40 = AXIS2_PLACEMENT_3D ( 'NONE', #46, #39, #166 ) ;
#41 = CIRCLE ( 'NONE', #40, 7.500000000000000000 ) ;
#42 = DIRECTION ( 'NONE',  ( 0.0000000000000000000, 0.0000000000000000000, 1.000000000000000000 ) ) ;
#43 = DIRECTION ( 'NONE',  ( 0.0000000000000000000, 1.000000000000000000, 0.0000000000000000000 ) ) ;
#44 = CARTESIAN_POINT ( 'NONE',  ( 0.0000000000000000000, 0.0000000000000000000, 0.0000000000000000000 ) ) ;
#45 = AXIS2_PLACEMENT_3D ( 'NONE', #44, #43, #42 ) ;
#46 = CARTESIAN_POINT ( 'NONE',  ( 0.0000000000000000000, -8.500000000000001800, 0.0000000000000000000 ) ) ;
#47 = CYLINDRICAL_SURFACE ( 'NONE', #45, 7.500000000000000000 ) ;
#48 = FACE_OUTER_BOUND ( 'NONE', #65, .T. ) ;
#49 = DIRECTION ( 'NONE',  ( 0.0000000000000000000, 0.0000000000000000000, 1.000000000000000000 ) ) ;
#50 = CARTESIAN_POINT ( 'NONE',  ( 0.0000000000000000000, -8.500000000000001800, 0.0000000000000000000 ) ) ;
#51 = AXIS2_PLACEMENT_3D ( 'NONE', #50, #220, #219 ) ;
#52 = CIRCLE ( 'NONE', #51, 12.49999999999999800 ) ;
#53 = DIRECTION ( 'NONE',  ( 0.0000000000000000000, 0.0000000000000000000, 1.000000000000000000 ) ) ;
#54 = DIRECTION ( 'NONE',  ( 0.0000000000000000000, 1.000000000000000000, 0.0000000000000000000 ) ) ;
#55 = CARTESIAN_POINT ( 'NONE',  ( -4.999999999999999100, -4.592273826833915700E-016, 0.0000000000000000000 ) ) ;
#56 = AXIS2_PLACEMENT_3D ( 'NONE', #55, #54, #53 ) ;
#57 = PLANE ( 'NONE',  #56 ) ;
#58 = FACE_BOUND ( 'NONE', #169, .T. ) ;
#59 = FACE_OUTER_BOUND ( 'NONE', #12, .T. ) ;
#60 = DIRECTION ( 'NONE',  ( 0.0000000000000000000, 0.0000000000000000000, 1.000000000000000000 ) ) ;
#61 = DIRECTION ( 'NONE',  ( 0.0000000000000000000, 1.000000000000000000, 0.0000000000000000000 ) ) ;
#62 = AXIS2_PLACEMENT_3D ( 'NONE', #134, #61, #60 ) ;
#63 = CIRCLE ( 'NONE', #62, 4.999999999999999100 ) ;
#64 = EDGE_CURVE ( 'NONE', #126, #129, #41, .T. ) ;
#65 = EDGE_LOOP ( 'NONE', ( #38, #34, #31, #32 ) ) ;
#66 = EDGE_LOOP ( 'NONE', ( #35, #37 ) ) ;
#67 = ADVANCED_FACE ( 'NONE', ( #165, #164 ), #163, .T. ) ;
#68 = ORIENTED_EDGE ( 'NONE', *, *, #128, .T. ) ;
#69 = ORIENTED_EDGE ( 'NONE', *, *, #64, .T. ) ;
#70 = EDGE_LOOP ( 'NONE', ( #68, #69 ) ) ;
#71 = ORIENTED_EDGE ( 'NONE', *, *, #73, .T. ) ;
#72 = EDGE_LOOP ( 'NONE', ( #74, #71, #75, #172 ) ) ;
#73 = EDGE_CURVE ( 'NONE', #17, #16, #158, .T. ) ;
#74 = ORIENTED_EDGE ( 'NONE', *, *, #100, .F. ) ;
#75 = ORIENTED_EDGE ( 'NONE', *, *, #229, .T. ) ;
#76 = ADVANCED_FACE ( 'NONE', ( #153 ), #151, .T. ) ;
#77 = DIRECTION ( 'NONE',  ( 0.0000000000000000000, 1.000000000000000000, 0.0000000000000000000 ) ) ;
#78 = CARTESIAN_POINT ( 'NONE',  ( 0.0000000000000000000, -11.00000000000000400, 0.0000000000000000000 ) ) ;
#79 = AXIS2_PLACEMENT_3D ( 'NONE', #78, #77, #49 ) ;
#80 = CIRCLE ( 'NONE', #79, 7.500000000000000000 ) ;
#81 = DIRECTION ( 'NONE',  ( 0.0000000000000000000, 0.0000000000000000000, 1.000000000000000000 ) ) ;
#82 = DIRECTION ( 'NONE',  ( 0.0000000000000000000, 1.000000000000000000, 0.0000000000000000000 ) ) ;
#83 = CARTESIAN_POINT ( 'NONE',  ( 0.0000000000000000000, -11.00000000000000400, 0.0000000000000000000 ) ) ;
#84 = AXIS2_PLACEMENT_3D ( 'NONE', #83, #82, #81 ) ;
#85 = CIRCLE ( 'NONE', #84, 10.00000000000000000 ) ;
#86 = DIRECTION ( 'NONE',  ( 0.0000000000000000000, 0.0000000000000000000, 1.000000000000000000 ) ) ;
#87 = DIRECTION ( 'NONE',  ( 0.0000000000000000000, 1.000000000000000000, 0.0000000000000000000 ) ) ;
#88 = EDGE_CURVE ( 'NONE', #233, #89, #205, .T. ) ;
#89 = VERTEX_POINT ( 'NONE', #198 ) ;
#90 = ORIENTED_EDGE ( 'NONE', *, *, #91, .T. ) ;
#91 = EDGE_CURVE ( 'NONE', #89, #106, #197, .T. ) ;
#92 = ORIENTED_EDGE ( 'NONE', *, *, #93, .F. ) ;
#93 = EDGE_CURVE ( 'NONE', #117, #116, #192, .T. ) ;
#94 = ORIENTED_EDGE ( 'NONE', *, *, #95, .F. ) ;
#95 = EDGE_CURVE ( 'NONE', #120, #117, #187, .T. ) ;
#96 = ADVANCED_FACE ( 'NONE', ( #183 ), #182, .T. ) ;
#97 = EDGE_LOOP ( 'NONE', ( #98, #124, #127, #130 ) ) ;
#98 = ORIENTED_EDGE ( 'NONE', *, *, #122, .T. ) ;
#99 = VERTEX_POINT ( 'NONE', #177 ) ;
#100 = EDGE_CURVE ( 'NONE', #17, #101, #176, .T. ) ;
#101 = VERTEX_POINT ( 'NONE', #394 ) ;
#102 = ORIENTED_EDGE ( 'NONE', *, *, #103, .F. ) ;
#103 = EDGE_CURVE ( 'NONE', #104, #101, #393, .T. ) ;
#104 = VERTEX_POINT ( 'NONE', #287 ) ;
#105 = EDGE_LOOP ( 'NONE', ( #231, #235, #90, #107 ) ) ;
#106 = VERTEX_POINT ( 'NONE', #392 ) ;
#107 = ORIENTED_EDGE ( 'NONE', *, *, #108, .F. ) ;
#108 = EDGE_CURVE ( 'NONE', #234, #106, #383, .T. ) ;
#109 = ADVANCED_FACE ( 'NONE', ( #270 ), #318, .F. ) ;
#110 = EDGE_LOOP ( 'NONE', ( #111, #112, #8, #9 ) ) ;
#111 = ORIENTED_EDGE ( 'NONE', *, *, #88, .F. ) ;
#112 = ORIENTED_EDGE ( 'NONE', *, *, #113, .F. ) ;
#113 = EDGE_CURVE ( 'NONE', #234, #233, #317, .T. ) ;
#114 = ORIENTED_EDGE ( 'NONE', *, *, #115, .T. ) ;
#115 = EDGE_CURVE ( 'NONE', #121, #116, #268, .T. ) ;
#116 = VERTEX_POINT ( 'NONE', #386 ) ;
#117 = VERTEX_POINT ( 'NONE', #275 ) ;
#118 = ORIENTED_EDGE ( 'NONE', *, *, #119, .T. ) ;
#119 = EDGE_CURVE ( 'NONE', #120, #121, #274, .T. ) ;
#120 = VERTEX_POINT ( 'NONE', #322 ) ;
#121 = VERTEX_POINT ( 'NONE', #321 ) ;
#122 = EDGE_CURVE ( 'NONE', #99, #123, #320, .T. ) ;
#123 = VERTEX_POINT ( 'NONE', #330 ) ;
#124 = ORIENTED_EDGE ( 'NONE', *, *, #125, .T. ) ;
#125 = EDGE_CURVE ( 'NONE', #123, #126, #408, .T. ) ;
#126 = VERTEX_POINT ( 'NONE', #404 ) ;
#127 = ORIENTED_EDGE ( 'NONE', *, *, #128, .F. ) ;
#128 = EDGE_CURVE ( 'NONE', #129, #126, #281, .T. ) ;
#129 = VERTEX_POINT ( 'NONE', #276 ) ;
#130 = ORIENTED_EDGE ( 'NONE', *, *, #3, .F. ) ;
#131 = DIRECTION ( 'NONE',  ( 0.0000000000000000000, 0.0000000000000000000, 1.000000000000000000 ) ) ;
#132 = DIRECTION ( 'NONE',  ( 0.0000000000000000000, 1.000000000000000000, 0.0000000000000000000 ) ) ;
#133 = AXIS2_PLACEMENT_3D ( 'NONE', #141, #132, #131 ) ;
#134 = CARTESIAN_POINT ( 'NONE',  ( 0.0000000000000000000, 0.0000000000000000000, 0.0000000000000000000 ) ) ;
#135 = CYLINDRICAL_SURFACE ( 'NONE', #133, 10.00000000000000000 ) ;
#136 = FACE_OUTER_BOUND ( 'NONE', #6, .T. ) ;
#137 = DIRECTION ( 'NONE',  ( 0.0000000000000000000, 0.0000000000000000000, 1.000000000000000000 ) ) ;
#138 = DIRECTION ( 'NONE',  ( 0.0000000000000000000, 1.000000000000000000, 0.0000000000000000000 ) ) ;
#139 = CARTESIAN_POINT ( 'NONE',  ( 0.0000000000000000000, 0.0000000000000000000, 0.0000000000000000000 ) ) ;
#140 = AXIS2_PLACEMENT_3D ( 'NONE', #139, #138, #137 ) ;
#141 = CARTESIAN_POINT ( 'NONE',  ( 0.0000000000000000000, 0.0000000000000000000, 0.0000000000000000000 ) ) ;
#142 = CYLINDRICAL_SURFACE ( 'NONE', #140, 12.50000000000000000 ) ;
#143 = FACE_OUTER_BOUND ( 'NONE', #13, .T. ) ;
#144 = DIRECTION ( 'NONE',  ( 0.0000000000000000000, 1.000000000000000000, 0.0000000000000000000 ) ) ;
#145 = VECTOR ( 'NONE', #144, 1000.000000000000000 ) ;
#146 = CARTESIAN_POINT ( 'NONE',  ( 0.0000000000000000000, 0.0000000000000000000, 7.500000000000000000 ) ) ;
#147 = LINE ( 'NONE', #146, #145 ) ;
#148 = ORIENTED_EDGE ( 'NONE', *, *, #119, .F. ) ;
#149 = ORIENTED_EDGE ( 'NONE', *, *, #171, .F. ) ;
#150 = CLOSED_SHELL ( 'NONE', ( #5, #96, #4, #230, #109, #11, #76, #67, #36, #23, #22, #223 ) ) ;
#151 = CYLINDRICAL_SURFACE ( 'NONE', #152, 12.50000000000000000 ) ;
#152 = AXIS2_PLACEMENT_3D ( 'NONE', #204, #203, #202 ) ;
#153 = FACE_OUTER_BOUND ( 'NONE', #72, .T. ) ;
#154 = DIRECTION ( 'NONE',  ( 0.0000000000000000000, 0.0000000000000000000, 1.000000000000000000 ) ) ;
#155 = DIRECTION ( 'NONE',  ( 0.0000000000000000000, 1.000000000000000000, 0.0000000000000000000 ) ) ;
#156 = CARTESIAN_POINT ( 'NONE',  ( 0.0000000000000000000, -8.500000000000001800, 0.0000000000000000000 ) ) ;
#157 = AXIS2_PLACEMENT_3D ( 'NONE', #156, #155, #154 ) ;
#158 = CIRCLE ( 'NONE', #157, 12.49999999999999800 ) ;
#159 = DIRECTION ( 'NONE',  ( 0.0000000000000000000, 0.0000000000000000000, -1.000000000000000000 ) ) ;
#160 = DIRECTION ( 'NONE',  ( 0.0000000000000000000, -1.000000000000000000, 0.0000000000000000000 ) ) ;
#161 = CARTESIAN_POINT ( 'NONE',  ( -12.49999999999999800, -8.500000000000001800, 0.0000000000000000000 ) ) ;
#162 = AXIS2_PLACEMENT_3D ( 'NONE', #161, #160, #159 ) ;
#163 = PLANE ( 'NONE',  #162 ) ;
#164 = FACE_OUTER_BOUND ( 'NONE', #66, .T. ) ;
#165 = FACE_BOUND ( 'NONE', #70, .T. ) ;
#166 = DIRECTION ( 'NONE',  ( 0.0000000000000000000, 0.0000000000000000000, 1.000000000000000000 ) ) ;
#167 = ORIENTED_EDGE ( 'NONE', *, *, #10, .F. ) ;
#168 = EDGE_CURVE ( 'NONE', #101, #104, #301, .T. ) ;
#169 = EDGE_LOOP ( 'NONE', ( #167, #173 ) ) ;
#170 = ORIENTED_EDGE ( 'NONE', *, *, #168, .T. ) ;
#171 = EDGE_CURVE ( 'NONE', #121, #120, #296, .T. ) ;
#172 = ORIENTED_EDGE ( 'NONE', *, *, #168, .F. ) ;
#173 = ORIENTED_EDGE ( 'NONE', *, *, #91, .F. ) ;
#174 = ORIENTED_EDGE ( 'NONE', *, *, #103, .T. ) ;
#175 = CARTESIAN_POINT ( 'NONE',  ( 1.530757942277971600E-015, 0.0000000000000000000, -12.50000000000000000 ) ) ;
#176 = LINE ( 'NONE', #175, #1 ) ;
#177 = CARTESIAN_POINT ( 'NONE',  ( 0.0000000000000000000, -11.00000000000000400, 7.500000000000000000 ) ) ;
#178 = DIRECTION ( 'NONE',  ( 0.0000000000000000000, 0.0000000000000000000, 1.000000000000000000 ) ) ;
#179 = DIRECTION ( 'NONE',  ( 0.0000000000000000000, 1.000000000000000000, 0.0000000000000000000 ) ) ;
#180 = CARTESIAN_POINT ( 'NONE',  ( 0.0000000000000000000, 0.0000000000000000000, 0.0000000000000000000 ) ) ;
#181 = AXIS2_PLACEMENT_3D ( 'NONE', #180, #179, #178 ) ;
#182 = CYLINDRICAL_SURFACE ( 'NONE', #181, 7.500000000000000000 ) ;
#183 = FACE_OUTER_BOUND ( 'NONE', #97, .T. ) ;
#184 = DIRECTION ( 'NONE',  ( 0.0000000000000000000, 1.000000000000000000, 0.0000000000000000000 ) ) ;
#185 = VECTOR ( 'NONE', #184, 1000.000000000000000 ) ;
#186 = CARTESIAN_POINT ( 'NONE',  ( 0.0000000000000000000, 0.0000000000000000000, 10.00000000000000000 ) ) ;
#187 = LINE ( 'NONE', #186, #185 ) ;
#188 = DIRECTION ( 'NONE',  ( 0.0000000000000000000, 0.0000000000000000000, 1.000000000000000000 ) ) ;
#189 = DIRECTION ( 'NONE',  ( 0.0000000000000000000, 1.000000000000000000, 0.0000000000000000000 ) ) ;
#190 = CARTESIAN_POINT ( 'NONE',  ( 0.0000000000000000000, -11.00000000000000400, 0.0000000000000000000 ) ) ;
#191 = AXIS2_PLACEMENT_3D ( 'NONE', #190, #189, #188 ) ;
#192 = CIRCLE ( 'NONE', #191, 10.00000000000000000 ) ;
#193 = DIRECTION ( 'NONE',  ( 0.0000000000000000000, 0.0000000000000000000, 1.000000000000000000 ) ) ;
#194 = DIRECTION ( 'NONE',  ( 0.0000000000000000000, 1.000000000000000000, 0.0000000000000000000 ) ) ;
#195 = CARTESIAN_POINT ( 'NONE',  ( 0.0000000000000000000, 0.0000000000000000000, 0.0000000000000000000 ) ) ;
#196 = AXIS2_PLACEMENT_3D ( 'NONE', #195, #194, #193 ) ;
#197 = CIRCLE ( 'NONE', #196, 4.999999999999999100 ) ;
#198 = CARTESIAN_POINT ( 'NONE',  ( 6.123031769111885300E-016, 0.0000000000000000000, -4.999999999999999100 ) ) ;
#199 = DIRECTION ( 'NONE',  ( 0.0000000000000000000, 1.000000000000000000, 0.0000000000000000000 ) ) ;
#200 = VECTOR ( 'NONE', #199, 1000.000000000000000 ) ;
#201 = CARTESIAN_POINT ( 'NONE',  ( 6.123031769111885300E-016, 0.0000000000000000000, -4.999999999999999100 ) ) ;
#202 = DIRECTION ( 'NONE',  ( 0.0000000000000000000, 0.0000000000000000000, 1.000000000000000000 ) ) ;
#203 = DIRECTION ( 'NONE',  ( 0.0000000000000000000, 1.000000000000000000, 0.0000000000000000000 ) ) ;
#204 = CARTESIAN_POINT ( 'NONE',  ( 0.0000000000000000000, 0.0000000000000000000, 0.0000000000000000000 ) ) ;
#205 = LINE ( 'NONE', #201, #200 ) ;
#206 = CARTESIAN_POINT ( 'NONE',  ( -7.500000000000000000, -11.00000000000000400, 0.0000000000000000000 ) ) ;
#207 = AXIS2_PLACEMENT_3D ( 'NONE', #206, #87, #86 ) ;
#208 = PLANE ( 'NONE',  #207 ) ;
#209 = FACE_BOUND ( 'NONE', #25, .T. ) ;
#210 = DIRECTION ( 'NONE',  ( 0.0000000000000000000, 0.0000000000000000000, 1.000000000000000000 ) ) ;
#211 = DIRECTION ( 'NONE',  ( 0.0000000000000000000, 1.000000000000000000, 0.0000000000000000000 ) ) ;
#212 = AXIS2_PLACEMENT_3D ( 'NONE', #215, #211, #210 ) ;
#213 = CYLINDRICAL_SURFACE ( 'NONE', #212, 10.00000000000000000 ) ;
#214 = FACE_OUTER_BOUND ( 'NONE', #33, .T. ) ;
#215 = CARTESIAN_POINT ( 'NONE',  ( 0.0000000000000000000, 0.0000000000000000000, 0.0000000000000000000 ) ) ;
#216 = FACE_OUTER_BOUND ( 'NONE', #21, .T. ) ;
#217 = CARTESIAN_POINT ( 'NONE',  ( 1.530757942277971400E-015, -8.500000000000001800, -12.49999999999999800 ) ) ;
#218 = CARTESIAN_POINT ( 'NONE',  ( 0.0000000000000000000, -8.500000000000001800, 12.49999999999999800 ) ) ;
#219 = DIRECTION ( 'NONE',  ( 0.0000000000000000000, 0.0000000000000000000, 1.000000000000000000 ) ) ;
#220 = DIRECTION ( 'NONE',  ( 0.0000000000000000000, 1.000000000000000000, 0.0000000000000000000 ) ) ;
#221 = ORIENTED_EDGE ( 'NONE', *, *, #28, .F. ) ;
#222 = ORIENTED_EDGE ( 'NONE', *, *, #95, .T. ) ;
#223 = ADVANCED_FACE ( 'NONE', ( #399, #398 ), #397, .T. ) ;
#224 = EDGE_LOOP ( 'NONE', ( #225, #226 ) ) ;
#225 = ORIENTED_EDGE ( 'NONE', *, *, #113, .T. ) ;
#226 = ORIENTED_EDGE ( 'NONE', *, *, #232, .T. ) ;
#227 = EDGE_LOOP ( 'NONE', ( #148, #149 ) ) ;
#228 = ORIENTED_EDGE ( 'NONE', *, *, #229, .F. ) ;
#229 = EDGE_CURVE ( 'NONE', #16, #104, #293, .T. ) ;
#230 = ADVANCED_FACE ( 'NONE', ( #288 ), #289, .F. ) ;
#231 = ORIENTED_EDGE ( 'NONE', *, *, #232, .F. ) ;
#232 = EDGE_CURVE ( 'NONE', #233, #234, #313, .T. ) ;
#233 = VERTEX_POINT ( 'NONE', #304 ) ;
#234 = VERTEX_POINT ( 'NONE', #303 ) ;
#235 = ORIENTED_EDGE ( 'NONE', *, *, #88, .T. ) ;
#236 = DIRECTION ( 'NONE',  ( 1.000000000000000000, 0.0000000000000000000, 0.0000000000000000000 ) ) ;
#237 = CARTESIAN_POINT ( 'NONE',  ( 0.0000000000000000000, 0.0000000000000000000, 0.0000000000000000000 ) ) ;
#238 = AXIS2_PLACEMENT_3D ( 'NONE', #237, #302, #236 ) ;
#239 = SHAPE_DEFINITION_REPRESENTATION ( #246, #240 ) ;
#240 = ADVANCED_BREP_SHAPE_REPRESENTATION ( 'C-30-CS-1', ( #7, #238 ), #241 ) ;
#241 =( GEOMETRIC_REPRESENTATION_CONTEXT ( 3 ) GLOBAL_UNCERTAINTY_ASSIGNED_CONTEXT ( ( #242 ) ) GLOBAL_UNIT_ASSIGNED_CONTEXT ( ( #245, #244, #243 ) ) REPRESENTATION_CONTEXT ( 'NONE', 'WORKASPACE' ) );
#242 = UNCERTAINTY_MEASURE_WITH_UNIT (LENGTH_MEASURE( 1.000000000000000100E-005 ), #245, 'distance_accuracy_value', 'NONE');
#243 =( NAMED_UNIT ( * ) SI_UNIT ( $, .STERADIAN. ) SOLID_ANGLE_UNIT ( ) );
#244 =( NAMED_UNIT ( * ) PLANE_ANGLE_UNIT ( ) SI_UNIT ( $, .RADIAN. ) );
#245 =( LENGTH_UNIT ( ) NAMED_UNIT ( * ) SI_UNIT ( .MILLI., .METRE. ) );
#246 = PRODUCT_DEFINITION_SHAPE ( 'NONE', 'NONE',  #378 ) ;
#247 = PRODUCT_RELATED_PRODUCT_CATEGORY ( 'detail', '', ( #283 ) ) ;
#248 = CC_DESIGN_SECURITY_CLASSIFICATION ( #338, ( #357 ) ) ;
#249 = CC_DESIGN_APPROVAL ( #257, ( #338 ) ) ;
#250 = APPROVAL_DATE_TIME ( #251, #257 ) ;
#251 = DATE_AND_TIME ( #252, #253 ) ;
#252 = CALENDAR_DATE ( 2009, 16, 9 ) ;
#253 = LOCAL_TIME ( 9, 56, 55.00000000000000000, #254 ) ;
#254 = COORDINATED_UNIVERSAL_TIME_OFFSET ( 9, 0, .AHEAD. ) ;
#255 = APPROVAL_PERSON_ORGANIZATION ( #259, #257, #256 ) ;
#256 = APPROVAL_ROLE ( '' ) ;
#257 = APPROVAL ( #258, 'UNSPECIFIED' ) ;
#258 = APPROVAL_STATUS ( 'not_yet_approved' ) ;
#259 = PERSON_AND_ORGANIZATION ( #282, #329 ) ;
#260 = CC_DESIGN_DATE_AND_TIME_ASSIGNMENT ( #262, #261, ( #338 ) ) ;
#261 = DATE_TIME_ROLE ( 'classification_date' ) ;
#262 = DATE_AND_TIME ( #263, #264 ) ;
#263 = CALENDAR_DATE ( 2009, 16, 9 ) ;
#264 = LOCAL_TIME ( 9, 56, 55.00000000000000000, #265 ) ;
#265 = COORDINATED_UNIVERSAL_TIME_OFFSET ( 9, 0, .AHEAD. ) ;
#266 = CC_DESIGN_PERSON_AND_ORGANIZATION_ASSIGNMENT ( #337, #267, ( #338 ) ) ;
#267 = PERSON_AND_ORGANIZATION_ROLE ( 'classification_officer' ) ;
#268 = LINE ( 'NONE', #389, #388 ) ;
#269 = DIRECTION ( 'NONE',  ( 0.0000000000000000000, 0.0000000000000000000, 1.000000000000000000 ) ) ;
#270 = FACE_OUTER_BOUND ( 'NONE', #110, .T. ) ;
#271 = DIRECTION ( 'NONE',  ( 0.0000000000000000000, 1.000000000000000000, 0.0000000000000000000 ) ) ;
#272 = VECTOR ( 'NONE', #271, 1000.000000000000000 ) ;
#273 = AXIS2_PLACEMENT_3D ( 'NONE', #325, #324, #323 ) ;
#274 = CIRCLE ( 'NONE', #273, 10.00000000000000000 ) ;
#275 = CARTESIAN_POINT ( 'NONE',  ( 0.0000000000000000000, -11.00000000000000400, 10.00000000000000000 ) ) ;
#276 = CARTESIAN_POINT ( 'NONE',  ( 0.0000000000000000000, -8.500000000000001800, 7.500000000000000000 ) ) ;
#277 = DIRECTION ( 'NONE',  ( 0.0000000000000000000, 0.0000000000000000000, 1.000000000000000000 ) ) ;
#278 = DIRECTION ( 'NONE',  ( 0.0000000000000000000, 1.000000000000000000, 0.0000000000000000000 ) ) ;
#279 = CARTESIAN_POINT ( 'NONE',  ( 0.0000000000000000000, -8.500000000000001800, 0.0000000000000000000 ) ) ;
#280 = AXIS2_PLACEMENT_3D ( 'NONE', #279, #278, #277 ) ;
#281 = CIRCLE ( 'NONE', #280, 7.500000000000000000 ) ;
#282 = PERSON ( 'UNSPECIFIED', 'UNSPECIFIED', 'UNSPECIFIED', ('UNSPECIFIED'), ('UNSPECIFIED'), ('UNSPECIFIED') ) ;
#283 = PRODUCT ( 'C-30-CS-1', 'C-30-CS-1', '', ( #284 ) ) ;
#284 = MECHANICAL_CONTEXT ( 'NONE', #286, 'mechanical' ) ;
#285 = APPLICATION_PROTOCOL_DEFINITION ( 'international standard', 'config_control_design', 1994, #286 ) ;
#286 = APPLICATION_CONTEXT ( 'configuration controlled 3d designs of mechanical parts and assemblies' ) ;
#287 = CARTESIAN_POINT ( 'NONE',  ( 0.0000000000000000000, -9.184547653667831400E-016, 12.50000000000000000 ) ) ;
#288 = FACE_OUTER_BOUND ( 'NONE', #105, .T. ) ;
#289 = CYLINDRICAL_SURFACE ( 'NONE', #312, 4.999999999999999100 ) ;
#290 = DIRECTION ( 'NONE',  ( 0.0000000000000000000, 1.000000000000000000, 0.0000000000000000000 ) ) ;
#291 = VECTOR ( 'NONE', #290, 1000.000000000000000 ) ;
#292 = CARTESIAN_POINT ( 'NONE',  ( 0.0000000000000000000, 0.0000000000000000000, 12.50000000000000000 ) ) ;
#293 = LINE ( 'NONE', #292, #291 ) ;
#294 = DIRECTION ( 'NONE',  ( 0.0000000000000000000, 0.0000000000000000000, -1.000000000000000000 ) ) ;
#295 = DIRECTION ( 'NONE',  ( 0.0000000000000000000, -1.000000000000000000, 0.0000000000000000000 ) ) ;
#296 = CIRCLE ( 'NONE', #403, 10.00000000000000000 ) ;
#297 = DIRECTION ( 'NONE',  ( 0.0000000000000000000, 0.0000000000000000000, 1.000000000000000000 ) ) ;
#298 = DIRECTION ( 'NONE',  ( 0.0000000000000000000, 1.000000000000000000, 0.0000000000000000000 ) ) ;
#299 = CARTESIAN_POINT ( 'NONE',  ( 0.0000000000000000000, -9.184547653667831400E-016, 0.0000000000000000000 ) ) ;
#300 = AXIS2_PLACEMENT_3D ( 'NONE', #299, #298, #297 ) ;
#301 = CIRCLE ( 'NONE', #300, 12.50000000000000000 ) ;
#302 = DIRECTION ( 'NONE',  ( 0.0000000000000000000, 0.0000000000000000000, 1.000000000000000000 ) ) ;
#303 = CARTESIAN_POINT ( 'NONE',  ( 0.0000000000000000000, -14.00000000000000200, 4.999999999999998200 ) ) ;
#304 = CARTESIAN_POINT ( 'NONE',  ( 6.123031769111884300E-016, -14.00000000000000200, -4.999999999999998200 ) ) ;
#305 = DIRECTION ( 'NONE',  ( 0.0000000000000000000, 0.0000000000000000000, 1.000000000000000000 ) ) ;
#306 = DIRECTION ( 'NONE',  ( 0.0000000000000000000, 1.000000000000000000, 0.0000000000000000000 ) ) ;
#307 = CARTESIAN_POINT ( 'NONE',  ( 0.0000000000000000000, -14.00000000000000200, 0.0000000000000000000 ) ) ;
#308 = AXIS2_PLACEMENT_3D ( 'NONE', #307, #306, #305 ) ;
#309 = DIRECTION ( 'NONE',  ( 0.0000000000000000000, 0.0000000000000000000, 1.000000000000000000 ) ) ;
#310 = DIRECTION ( 'NONE',  ( 0.0000000000000000000, 1.000000000000000000, 0.0000000000000000000 ) ) ;
#311 = CARTESIAN_POINT ( 'NONE',  ( 0.0000000000000000000, 0.0000000000000000000, 0.0000000000000000000 ) ) ;
#312 = AXIS2_PLACEMENT_3D ( 'NONE', #311, #310, #309 ) ;
#313 = CIRCLE ( 'NONE', #308, 4.999999999999998200 ) ;
#314 = DIRECTION ( 'NONE',  ( 0.0000000000000000000, 0.0000000000000000000, 1.000000000000000000 ) ) ;
#315 = DIRECTION ( 'NONE',  ( 0.0000000000000000000, 1.000000000000000000, 0.0000000000000000000 ) ) ;
#316 = AXIS2_PLACEMENT_3D ( 'NONE', #336, #315, #314 ) ;
#317 = CIRCLE ( 'NONE', #316, 4.999999999999998200 ) ;
#318 = CYLINDRICAL_SURFACE ( 'NONE', #319, 4.999999999999999100 ) ;
#319 = AXIS2_PLACEMENT_3D ( 'NONE', #335, #384, #269 ) ;
#320 = CIRCLE ( 'NONE', #334, 7.500000000000000000 ) ;
#321 = CARTESIAN_POINT ( 'NONE',  ( 1.224606353822377300E-015, -14.00000000000000200, -10.00000000000000000 ) ) ;
#322 = CARTESIAN_POINT ( 'NONE',  ( 0.0000000000000000000, -14.00000000000000200, 10.00000000000000000 ) ) ;
#323 = DIRECTION ( 'NONE',  ( 0.0000000000000000000, 0.0000000000000000000, 1.000000000000000000 ) ) ;
#324 = DIRECTION ( 'NONE',  ( 0.0000000000000000000, 1.000000000000000000, 0.0000000000000000000 ) ) ;
#325 = CARTESIAN_POINT ( 'NONE',  ( 0.0000000000000000000, -14.00000000000000200, 0.0000000000000000000 ) ) ;
#326 = CC_DESIGN_PERSON_AND_ORGANIZATION_ASSIGNMENT ( #328, #327, ( #283 ) ) ;
#327 = PERSON_AND_ORGANIZATION_ROLE ( 'design_owner' ) ;
#328 = PERSON_AND_ORGANIZATION ( #282, #329 ) ;
#329 = ORGANIZATION ( 'UNSPECIFIED', 'UNSPECIFIED', '' ) ;
#330 = CARTESIAN_POINT ( 'NONE',  ( 9.184547653667829400E-016, -11.00000000000000400, -7.500000000000000000 ) ) ;
#331 = DIRECTION ( 'NONE',  ( 0.0000000000000000000, 0.0000000000000000000, 1.000000000000000000 ) ) ;
#332 = DIRECTION ( 'NONE',  ( 0.0000000000000000000, 1.000000000000000000, 0.0000000000000000000 ) ) ;
#333 = CARTESIAN_POINT ( 'NONE',  ( 0.0000000000000000000, -11.00000000000000400, 0.0000000000000000000 ) ) ;
#334 = AXIS2_PLACEMENT_3D ( 'NONE', #333, #332, #331 ) ;
#335 = CARTESIAN_POINT ( 'NONE',  ( 0.0000000000000000000, 0.0000000000000000000, 0.0000000000000000000 ) ) ;
#336 = CARTESIAN_POINT ( 'NONE',  ( 0.0000000000000000000, -14.00000000000000200, 0.0000000000000000000 ) ) ;
#337 = PERSON_AND_ORGANIZATION ( #282, #329 ) ;
#338 = SECURITY_CLASSIFICATION ( '', '', #339 ) ;
#339 = SECURITY_CLASSIFICATION_LEVEL ( 'unclassified' ) ;
#340 = CC_DESIGN_PERSON_AND_ORGANIZATION_ASSIGNMENT ( #342, #341, ( #357 ) ) ;
#341 = PERSON_AND_ORGANIZATION_ROLE ( 'design_supplier' ) ;
#342 = PERSON_AND_ORGANIZATION ( #282, #329 ) ;
#343 = CC_DESIGN_PERSON_AND_ORGANIZATION_ASSIGNMENT ( #345, #344, ( #357 ) ) ;
#344 = PERSON_AND_ORGANIZATION_ROLE ( 'creator' ) ;
#345 = PERSON_AND_ORGANIZATION ( #282, #329 ) ;
#346 = CC_DESIGN_APPROVAL ( #354, ( #357 ) ) ;
#347 = APPROVAL_DATE_TIME ( #348, #354 ) ;
#348 = DATE_AND_TIME ( #349, #350 ) ;
#349 = CALENDAR_DATE ( 2009, 16, 9 ) ;
#350 = LOCAL_TIME ( 9, 56, 55.00000000000000000, #351 ) ;
#351 = COORDINATED_UNIVERSAL_TIME_OFFSET ( 9, 0, .AHEAD. ) ;
#352 = APPROVAL_PERSON_ORGANIZATION ( #356, #354, #353 ) ;
#353 = APPROVAL_ROLE ( '' ) ;
#354 = APPROVAL ( #355, 'UNSPECIFIED' ) ;
#355 = APPROVAL_STATUS ( 'not_yet_approved' ) ;
#356 = PERSON_AND_ORGANIZATION ( #282, #329 ) ;
#357 = PRODUCT_DEFINITION_FORMATION_WITH_SPECIFIED_SOURCE ( 'ANY', '', #283, .NOT_KNOWN. ) ;
#358 = CC_DESIGN_DATE_AND_TIME_ASSIGNMENT ( #360, #359, ( #378 ) ) ;
#359 = DATE_TIME_ROLE ( 'creation_date' ) ;
#360 = DATE_AND_TIME ( #361, #362 ) ;
#361 = CALENDAR_DATE ( 2009, 16, 9 ) ;
#362 = LOCAL_TIME ( 9, 56, 55.00000000000000000, #363 ) ;
#363 = COORDINATED_UNIVERSAL_TIME_OFFSET ( 9, 0, .AHEAD. ) ;
#364 = CC_DESIGN_PERSON_AND_ORGANIZATION_ASSIGNMENT ( #366, #365, ( #378 ) ) ;
#365 = PERSON_AND_ORGANIZATION_ROLE ( 'creator' ) ;
#366 = PERSON_AND_ORGANIZATION ( #282, #329 ) ;
#367 = CC_DESIGN_APPROVAL ( #375, ( #378 ) ) ;
#368 = APPROVAL_DATE_TIME ( #369, #375 ) ;
#369 = DATE_AND_TIME ( #370, #371 ) ;
#370 = CALENDAR_DATE ( 2009, 16, 9 ) ;
#371 = LOCAL_TIME ( 9, 56, 55.00000000000000000, #372 ) ;
#372 = COORDINATED_UNIVERSAL_TIME_OFFSET ( 9, 0, .AHEAD. ) ;
#373 = APPROVAL_PERSON_ORGANIZATION ( #377, #375, #374 ) ;
#374 = APPROVAL_ROLE ( '' ) ;
#375 = APPROVAL ( #376, 'UNSPECIFIED' ) ;
#376 = APPROVAL_STATUS ( 'not_yet_approved' ) ;
#377 = PERSON_AND_ORGANIZATION ( #282, #329 ) ;
#378 = PRODUCT_DEFINITION ( 'UNKNOWN', '', #357, #379 ) ;
#379 = DESIGN_CONTEXT ( 'detailed design', #381, 'design' ) ;
#380 = APPLICATION_PROTOCOL_DEFINITION ( 'international standard', 'config_control_design', 1994, #381 ) ;
#381 = APPLICATION_CONTEXT ( 'configuration controlled 3d designs of mechanical parts and assemblies' ) ;
#382 = CARTESIAN_POINT ( 'NONE',  ( 0.0000000000000000000, 0.0000000000000000000, 4.999999999999999100 ) ) ;
#383 = LINE ( 'NONE', #382, #272 ) ;
#384 = DIRECTION ( 'NONE',  ( 0.0000000000000000000, 1.000000000000000000, 0.0000000000000000000 ) ) ;
#385 = CARTESIAN_POINT ( 'NONE',  ( 0.0000000000000000000, -9.184547653667831400E-016, 0.0000000000000000000 ) ) ;
#386 = CARTESIAN_POINT ( 'NONE',  ( 1.224606353822377300E-015, -11.00000000000000400, -10.00000000000000000 ) ) ;
#387 = DIRECTION ( 'NONE',  ( 0.0000000000000000000, 1.000000000000000000, 0.0000000000000000000 ) ) ;
#388 = VECTOR ( 'NONE', #387, 1000.000000000000000 ) ;
#389 = CARTESIAN_POINT ( 'NONE',  ( 1.224606353822377300E-015, 0.0000000000000000000, -10.00000000000000000 ) ) ;
#390 = DIRECTION ( 'NONE',  ( 0.0000000000000000000, 1.000000000000000000, 0.0000000000000000000 ) ) ;
#391 = DIRECTION ( 'NONE',  ( 0.0000000000000000000, 0.0000000000000000000, 1.000000000000000000 ) ) ;
#392 = CARTESIAN_POINT ( 'NONE',  ( 0.0000000000000000000, 0.0000000000000000000, 4.999999999999999100 ) ) ;
#393 = CIRCLE ( 'NONE', #409, 12.50000000000000000 ) ;
#394 = CARTESIAN_POINT ( 'NONE',  ( 1.530757942277971600E-015, -9.184547653667831400E-016, -12.50000000000000000 ) ) ;
#395 = CARTESIAN_POINT ( 'NONE',  ( -10.00000000000000000, -14.00000000000000200, 0.0000000000000000000 ) ) ;
#396 = AXIS2_PLACEMENT_3D ( 'NONE', #395, #295, #294 ) ;
#397 = PLANE ( 'NONE',  #396 ) ;
#398 = FACE_OUTER_BOUND ( 'NONE', #227, .T. ) ;
#399 = FACE_BOUND ( 'NONE', #224, .T. ) ;
#400 = DIRECTION ( 'NONE',  ( 0.0000000000000000000, 0.0000000000000000000, 1.000000000000000000 ) ) ;
#401 = DIRECTION ( 'NONE',  ( 0.0000000000000000000, 1.000000000000000000, 0.0000000000000000000 ) ) ;
#402 = CARTESIAN_POINT ( 'NONE',  ( 0.0000000000000000000, -14.00000000000000200, 0.0000000000000000000 ) ) ;
#403 = AXIS2_PLACEMENT_3D ( 'NONE', #402, #401, #400 ) ;
#404 = CARTESIAN_POINT ( 'NONE',  ( 9.184547653667829400E-016, -8.500000000000001800, -7.500000000000000000 ) ) ;
#405 = DIRECTION ( 'NONE',  ( 0.0000000000000000000, 1.000000000000000000, 0.0000000000000000000 ) ) ;
#406 = VECTOR ( 'NONE', #405, 1000.000000000000000 ) ;
#407 = CARTESIAN_POINT ( 'NONE',  ( 9.184547653667829400E-016, 0.0000000000000000000, -7.500000000000000000 ) ) ;
#408 = LINE ( 'NONE', #407, #406 ) ;
#409 = AXIS2_PLACEMENT_3D ( 'NONE', #385, #390, #391 ) ;
ENDSEC;
END-ISO-10303-21;
