ISO-10303-21;
HEADER;
FILE_DESCRIPTION (( 'STEP AP203' ),
    '1' );
FILE_NAME ('C-29-M8.STEP',
    '2017-08-18T02:02:23',
    ( '' ),
    ( '' ),
    'SwSTEP 2.0',
    'SolidWorks 2014',
    '' );
FILE_SCHEMA (( 'CONFIG_CONTROL_DESIGN' ));
ENDSEC;

DATA;
#1 = DIRECTION ( 'NONE',  ( 0.0000000000000000000, 0.0000000000000000000, -1.000000000000000000 ) ) ;
#2 = ORIENTED_EDGE ( 'NONE', *, *, #9, .T. ) ;
#3 = EDGE_CURVE ( 'NONE', #258, #5, #305, .T. ) ;
#4 = EDGE_CURVE ( 'NONE', #217, #122, #216, .T. ) ;
#5 = VERTEX_POINT ( 'NONE', #212 ) ;
#6 = CARTESIAN_POINT ( 'NONE',  ( 0.0000000000000000000, 4.500000000000000900, 0.0000000000000000000 ) ) ;
#7 = AXIS2_PLACEMENT_3D ( 'NONE', #270, #284, #292 ) ;
#8 = DIRECTION ( 'NONE',  ( 0.0000000000000000000, 0.0000000000000000000, -1.000000000000000000 ) ) ;
#9 = EDGE_CURVE ( 'NONE', #135, #92, #174, .T. ) ;
#10 = CIRCLE ( 'NONE', #71, 4.250000000000000000 ) ;
#11 = DIRECTION ( 'NONE',  ( -0.0000000000000000000, -1.000000000000000000, -0.0000000000000000000 ) ) ;
#12 = ORIENTED_EDGE ( 'NONE', *, *, #81, .F. ) ;
#13 = EDGE_LOOP ( 'NONE', ( #120, #2, #94, #43 ) ) ;
#14 = PERSON_AND_ORGANIZATION ( #18, #86 ) ;
#15 = DATE_AND_TIME ( #291, #102 ) ;
#16 = PLANE ( 'NONE',  #136 ) ;
#17 = CARTESIAN_POINT ( 'NONE',  ( 7.654042494670957600E-016, 0.4999999999999553700, -4.250000000000000000 ) ) ;
#18 = PERSON ( 'UNSPECIFIED', 'UNSPECIFIED', 'UNSPECIFIED', ('UNSPECIFIED'), ('UNSPECIFIED'), ('UNSPECIFIED') ) ;
#19 = DATE_AND_TIME ( #307, #133 ) ;
#20 = AXIS2_PLACEMENT_3D ( 'NONE', #299, #231, #296 ) ;
#21 = AXIS2_PLACEMENT_3D ( 'NONE', #6, #33, #151 ) ;
#22 = ORIENTED_EDGE ( 'NONE', *, *, #4, .F. ) ;
#23 = APPROVAL_DATE_TIME ( #19, #106 ) ;
#24 = PRODUCT_DEFINITION_FORMATION_WITH_SPECIFIED_SOURCE ( 'ANY', '', #264, .NOT_KNOWN. ) ;
#25 = DIRECTION ( 'NONE',  ( 0.0000000000000000000, 0.0000000000000000000, -1.000000000000000000 ) ) ;
#26 = DIRECTION ( 'NONE',  ( -0.0000000000000000000, -1.000000000000000000, -0.0000000000000000000 ) ) ;
#27 = PRODUCT_DEFINITION_SHAPE ( 'NONE', 'NONE',  #107 ) ;
#28 = EDGE_LOOP ( 'NONE', ( #201, #169 ) ) ;
#29 = DIRECTION ( 'NONE',  ( -0.0000000000000000000, -1.000000000000000000, -0.0000000000000000000 ) ) ;
#30 = AXIS2_PLACEMENT_3D ( 'NONE', #137, #209, #139 ) ;
#31 = CARTESIAN_POINT ( 'NONE',  ( 0.0000000000000000000, -5.107049207994151600, 0.0000000000000000000 ) ) ;
#32 = DIRECTION ( 'NONE',  ( -0.0000000000000000000, -1.000000000000000000, -0.0000000000000000000 ) ) ;
#33 = DIRECTION ( 'NONE',  ( -0.0000000000000000000, -1.000000000000000000, -0.0000000000000000000 ) ) ;
#34 = VERTEX_POINT ( 'NONE', #78 ) ;
#35 = DIRECTION ( 'NONE',  ( 0.0000000000000000000, 1.000000000000000000, 0.0000000000000000000 ) ) ;
#36 = CIRCLE ( 'NONE', #98, 5.000000000000000000 ) ;
#37 = EDGE_CURVE ( 'NONE', #246, #69, #67, .T. ) ;
#38 = CIRCLE ( 'NONE', #180, 4.250000000000000000 ) ;
#39 = AXIS2_PLACEMENT_3D ( 'NONE', #176, #42, #183 ) ;
#40 = EDGE_CURVE ( 'NONE', #5, #258, #208, .T. ) ;
#41 = DIRECTION ( 'NONE',  ( -0.0000000000000000000, -1.000000000000000000, -0.0000000000000000000 ) ) ;
#42 = DIRECTION ( 'NONE',  ( -0.0000000000000000000, -1.000000000000000000, -0.0000000000000000000 ) ) ;
#43 = ORIENTED_EDGE ( 'NONE', *, *, #55, .F. ) ;
#44 = CARTESIAN_POINT ( 'NONE',  ( 5.204748896376250700E-016, -5.107049207994151600, 4.250000000000000000 ) ) ;
#45 = DIRECTION ( 'NONE',  ( -0.0000000000000000000, -1.000000000000000000, -0.0000000000000000000 ) ) ;
#46 = DIRECTION ( 'NONE',  ( 0.0000000000000000000, 0.0000000000000000000, -1.000000000000000000 ) ) ;
#47 = EDGE_LOOP ( 'NONE', ( #147, #283 ) ) ;
#48 = CYLINDRICAL_SURFACE ( 'NONE', #124, 4.250000000000000000 ) ;
#49 = DIRECTION ( 'NONE',  ( 0.0000000000000000000, 0.0000000000000000000, -1.000000000000000000 ) ) ;
#50 = CARTESIAN_POINT ( 'NONE',  ( 0.0000000000000000000, -5.107049207994151600, -4.250000000000000000 ) ) ;
#51 = FACE_OUTER_BOUND ( 'NONE', #13, .T. ) ;
#52 = ADVANCED_FACE ( 'NONE', ( #271 ), #207, .F. ) ;
#53 = DIRECTION ( 'NONE',  ( 0.0000000000000000000, 0.0000000000000000000, -1.000000000000000000 ) ) ;
#54 = DIRECTION ( 'NONE',  ( -0.0000000000000000000, -1.000000000000000000, -0.0000000000000000000 ) ) ;
#55 = EDGE_CURVE ( 'NONE', #246, #184, #163, .T. ) ;
#56 = EDGE_CURVE ( 'NONE', #5, #217, #295, .T. ) ;
#57 = CARTESIAN_POINT ( 'NONE',  ( 1.347111479062088400E-015, -5.107049207994151600, 11.00000000000000000 ) ) ;
#58 = ADVANCED_FACE ( 'NONE', ( #172 ), #48, .F. ) ;
#59 = EDGE_CURVE ( 'NONE', #246, #135, #303, .T. ) ;
#60 = CYLINDRICAL_SURFACE ( 'NONE', #253, 11.00000000000000000 ) ;
#61 = EDGE_CURVE ( 'NONE', #69, #5, #36, .T. ) ;
#62 = APPROVAL_STATUS ( 'not_yet_approved' ) ;
#63 = CARTESIAN_POINT ( 'NONE',  ( 0.0000000000000000000, 4.500000000000000900, 8.250000000000000000 ) ) ;
#64 = FACE_OUTER_BOUND ( 'NONE', #131, .T. ) ;
#65 = APPROVAL_DATE_TIME ( #165, #181 ) ;
#66 = ORIENTED_EDGE ( 'NONE', *, *, #55, .T. ) ;
#67 = LINE ( 'NONE', #205, #248 ) ;
#68 = DIRECTION ( 'NONE',  ( 0.0000000000000000000, 0.0000000000000000000, 1.000000000000000000 ) ) ;
#69 = VERTEX_POINT ( 'NONE', #73 ) ;
#70 = PERSON_AND_ORGANIZATION ( #18, #86 ) ;
#71 = AXIS2_PLACEMENT_3D ( 'NONE', #219, #192, #1 ) ;
#72 = FACE_OUTER_BOUND ( 'NONE', #182, .T. ) ;
#73 = CARTESIAN_POINT ( 'NONE',  ( 0.0000000000000000000, 4.500000000000000900, -8.250000000000000000 ) ) ;
#74 = EDGE_LOOP ( 'NONE', ( #198, #251, #159, #193 ) ) ;
#75 = PERSON_AND_ORGANIZATION_ROLE ( 'design_supplier' ) ;
#76 = COORDINATED_UNIVERSAL_TIME_OFFSET ( 9, 0, .AHEAD. ) ;
#77 = CARTESIAN_POINT ( 'NONE',  ( 0.0000000000000000000, 4.500000000000000900, 0.0000000000000000000 ) ) ;
#78 = CARTESIAN_POINT ( 'NONE',  ( 1.178722544179327600E-015, 4.500000000000000900, 8.250000000000000000 ) ) ;
#79 = DIRECTION ( 'NONE',  ( 0.0000000000000000000, 0.0000000000000000000, -1.000000000000000000 ) ) ;
#80 = CYLINDRICAL_SURFACE ( 'NONE', #166, 11.00000000000000000 ) ;
#81 = EDGE_CURVE ( 'NONE', #258, #122, #241, .T. ) ;
#82 =( LENGTH_UNIT ( ) NAMED_UNIT ( * ) SI_UNIT ( .MILLI., .METRE. ) );
#83 = CIRCLE ( 'NONE', #308, 8.250000000000000000 ) ;
#84 = EDGE_CURVE ( 'NONE', #69, #34, #285, .T. ) ;
#85 = ADVANCED_FACE ( 'NONE', ( #148 ), #289, .F. ) ;
#86 = ORGANIZATION ( 'UNSPECIFIED', 'UNSPECIFIED', '' ) ;
#87 = VECTOR ( 'NONE', #145, 1000.000000000000000 ) ;
#88 = SECURITY_CLASSIFICATION_LEVEL ( 'unclassified' ) ;
#89 = ORIENTED_EDGE ( 'NONE', *, *, #244, .T. ) ;
#90 = COORDINATED_UNIVERSAL_TIME_OFFSET ( 9, 0, .AHEAD. ) ;
#91 = MECHANICAL_CONTEXT ( 'NONE', #319, 'mechanical' ) ;
#92 = VERTEX_POINT ( 'NONE', #170 ) ;
#93 = ORIENTED_EDGE ( 'NONE', *, *, #242, .F. ) ;
#94 = ORIENTED_EDGE ( 'NONE', *, *, #304, .T. ) ;
#95 = ORIENTED_EDGE ( 'NONE', *, *, #84, .F. ) ;
#96 = DIRECTION ( 'NONE',  ( 0.0000000000000000000, 0.0000000000000000000, -1.000000000000000000 ) ) ;
#97 = APPROVAL_PERSON_ORGANIZATION ( #157, #181, #144 ) ;
#98 = AXIS2_PLACEMENT_3D ( 'NONE', #117, #263, #68 ) ;
#99 = CARTESIAN_POINT ( 'NONE',  ( 0.0000000000000000000, 4.500000000000000900, 0.0000000000000000000 ) ) ;
#100 = TOROIDAL_SURFACE ( 'NONE', #250, 5.999999999999999100, 5.000000000000000000 ) ;
#101 = ORIENTED_EDGE ( 'NONE', *, *, #234, .T. ) ;
#102 = LOCAL_TIME ( 11, 2, 23.00000000000000000, #76 ) ;
#103 = APPROVAL ( #298, 'UNSPECIFIED' ) ;
#104 = ORIENTED_EDGE ( 'NONE', *, *, #61, .F. ) ;
#105 = DATE_AND_TIME ( #316, #129 ) ;
#106 = APPROVAL ( #223, 'UNSPECIFIED' ) ;
#107 = PRODUCT_DEFINITION ( 'UNKNOWN', '', #24, #260 ) ;
#108 = TOROIDAL_SURFACE ( 'NONE', #30, 5.999999999999999100, 5.000000000000000000 ) ;
#109 = DIRECTION ( 'NONE',  ( -0.0000000000000000000, -1.000000000000000000, -0.0000000000000000000 ) ) ;
#110 = CARTESIAN_POINT ( 'NONE',  ( 0.0000000000000000000, 0.0000000000000000000, 0.0000000000000000000 ) ) ;
#111 = DIRECTION ( 'NONE',  ( 8.659560562354884800E-017, 0.7071067811865515700, -0.7071067811865435800 ) ) ;
#112 =( NAMED_UNIT ( * ) SI_UNIT ( $, .STERADIAN. ) SOLID_ANGLE_UNIT ( ) );
#113 = ORIENTED_EDGE ( 'NONE', *, *, #37, .F. ) ;
#114 = ORIENTED_EDGE ( 'NONE', *, *, #3, .T. ) ;
#115 = SHAPE_DEFINITION_REPRESENTATION ( #27, #268 ) ;
#116 = APPROVAL_PERSON_ORGANIZATION ( #311, #103, #254 ) ;
#117 = CARTESIAN_POINT ( 'NONE',  ( 0.0000000000000000000, 0.03485722512706207500, -5.999999999999999100 ) ) ;
#118 = DIRECTION ( 'NONE',  ( 0.0000000000000000000, 0.0000000000000000000, -1.000000000000000000 ) ) ;
#119 = PERSON_AND_ORGANIZATION ( #18, #86 ) ;
#120 = ORIENTED_EDGE ( 'NONE', *, *, #238, .F. ) ;
#121 = ORIENTED_EDGE ( 'NONE', *, *, #40, .F. ) ;
#122 = VERTEX_POINT ( 'NONE', #199 ) ;
#123 = FACE_OUTER_BOUND ( 'NONE', #47, .T. ) ;
#124 = AXIS2_PLACEMENT_3D ( 'NONE', #202, #196, #79 ) ;
#125 = CC_DESIGN_PERSON_AND_ORGANIZATION_ASSIGNMENT ( #14, #152, ( #264 ) ) ;
#126 = ORIENTED_EDGE ( 'NONE', *, *, #243, .F. ) ;
#127 = CC_DESIGN_DATE_AND_TIME_ASSIGNMENT ( #105, #211, ( #107 ) ) ;
#128 = ORIENTED_EDGE ( 'NONE', *, *, #261, .T. ) ;
#129 = LOCAL_TIME ( 11, 2, 23.00000000000000000, #90 ) ;
#130 = PERSON_AND_ORGANIZATION_ROLE ( 'creator' ) ;
#131 = EDGE_LOOP ( 'NONE', ( #302, #290, #22, #178 ) ) ;
#132 = DIRECTION ( 'NONE',  ( 0.0000000000000000000, 0.0000000000000000000, -1.000000000000000000 ) ) ;
#133 = LOCAL_TIME ( 11, 2, 23.00000000000000000, #293 ) ;
#134 = CC_DESIGN_PERSON_AND_ORGANIZATION_ASSIGNMENT ( #155, #282, ( #107 ) ) ;
#135 = VERTEX_POINT ( 'NONE', #185 ) ;
#136 = AXIS2_PLACEMENT_3D ( 'NONE', #232, #149, #53 ) ;
#137 = CARTESIAN_POINT ( 'NONE',  ( 0.0000000000000000000, 0.03485722512706207500, 0.0000000000000000000 ) ) ;
#138 = EDGE_LOOP ( 'NONE', ( #113, #318, #128, #95 ) ) ;
#139 = DIRECTION ( 'NONE',  ( 0.0000000000000000000, 0.0000000000000000000, -1.000000000000000000 ) ) ;
#140 = CARTESIAN_POINT ( 'NONE',  ( 0.0000000000000000000, 4.500000000000000900, 0.0000000000000000000 ) ) ;
#141 = DIRECTION ( 'NONE',  ( 0.0000000000000000000, 0.0000000000000000000, 1.000000000000000000 ) ) ;
#142 = VECTOR ( 'NONE', #54, 1000.000000000000000 ) ;
#143 = FACE_OUTER_BOUND ( 'NONE', #272, .T. ) ;
#144 = APPROVAL_ROLE ( '' ) ;
#145 = DIRECTION ( 'NONE',  ( -0.0000000000000000000, -1.000000000000000000, -0.0000000000000000000 ) ) ;
#146 = AXIS2_PLACEMENT_3D ( 'NONE', #110, #274, #321 ) ;
#147 = ORIENTED_EDGE ( 'NONE', *, *, #4, .T. ) ;
#148 = FACE_OUTER_BOUND ( 'NONE', #156, .T. ) ;
#149 = DIRECTION ( 'NONE',  ( 0.0000000000000000000, -1.000000000000000000, -0.0000000000000000000 ) ) ;
#150 = EDGE_LOOP ( 'NONE', ( #194, #256, #66, #89 ) ) ;
#151 = DIRECTION ( 'NONE',  ( 0.0000000000000000000, 0.0000000000000000000, -1.000000000000000000 ) ) ;
#152 = PERSON_AND_ORGANIZATION_ROLE ( 'design_owner' ) ;
#153 = CARTESIAN_POINT ( 'NONE',  ( 0.0000000000000000000, 0.03485722512706207500, 0.0000000000000000000 ) ) ;
#154 = AXIS2_PLACEMENT_3D ( 'NONE', #220, #29, #49 ) ;
#155 = PERSON_AND_ORGANIZATION ( #18, #86 ) ;
#156 = EDGE_LOOP ( 'NONE', ( #225, #313, #126, #168 ) ) ;
#157 = PERSON_AND_ORGANIZATION ( #18, #86 ) ;
#158 = MANIFOLD_SOLID_BREP ( '‰ñ“]1', #315 ) ;
#159 = ORIENTED_EDGE ( 'NONE', *, *, #61, .T. ) ;
#160 = CARTESIAN_POINT ( 'NONE',  ( 0.0000000000000000000, 0.4999999999999553700, 0.0000000000000000000 ) ) ;
#161 = LOCAL_TIME ( 11, 2, 23.00000000000000000, #204 ) ;
#162 = CC_DESIGN_DATE_AND_TIME_ASSIGNMENT ( #273, #278, ( #279 ) ) ;
#163 = LINE ( 'NONE', #50, #87 ) ;
#164 = CIRCLE ( 'NONE', #20, 11.00000000000000000 ) ;
#165 = DATE_AND_TIME ( #230, #179 ) ;
#166 = AXIS2_PLACEMENT_3D ( 'NONE', #228, #41, #25 ) ;
#167 = UNCERTAINTY_MEASURE_WITH_UNIT (LENGTH_MEASURE( 1.000000000000000100E-005 ), #82, 'distance_accuracy_value', 'NONE');
#168 = ORIENTED_EDGE ( 'NONE', *, *, #261, .F. ) ;
#169 = ORIENTED_EDGE ( 'NONE', *, *, #304, .F. ) ;
#170 = CARTESIAN_POINT ( 'NONE',  ( 5.204748896376250700E-016, 0.0000000000000000000, 4.250000000000000000 ) ) ;
#171 = DIRECTION ( 'NONE',  ( 0.0000000000000000000, 1.000000000000000000, 0.0000000000000000000 ) ) ;
#172 = FACE_OUTER_BOUND ( 'NONE', #150, .T. ) ;
#173 = APPROVAL_ROLE ( '' ) ;
#174 = LINE ( 'NONE', #44, #222 ) ;
#175 = APPLICATION_CONTEXT ( 'configuration controlled 3d designs of mechanical parts and assemblies' ) ;
#176 = CARTESIAN_POINT ( 'NONE',  ( 0.0000000000000000000, 0.0000000000000000000, 0.0000000000000000000 ) ) ;
#177 = COORDINATED_UNIVERSAL_TIME_OFFSET ( 9, 0, .AHEAD. ) ;
#178 = ORIENTED_EDGE ( 'NONE', *, *, #56, .F. ) ;
#179 = LOCAL_TIME ( 11, 2, 23.00000000000000000, #177 ) ;
#180 = AXIS2_PLACEMENT_3D ( 'NONE', #252, #310, #118 ) ;
#181 = APPROVAL ( #62, 'UNSPECIFIED' ) ;
#182 = EDGE_LOOP ( 'NONE', ( #269, #101, #121, #104 ) ) ;
#183 = DIRECTION ( 'NONE',  ( 0.0000000000000000000, 0.0000000000000000000, -1.000000000000000000 ) ) ;
#184 = VERTEX_POINT ( 'NONE', #203 ) ;
#185 = CARTESIAN_POINT ( 'NONE',  ( 0.0000000000000000000, 0.4999999999999553700, 4.250000000000000000 ) ) ;
#186 = PRODUCT_RELATED_PRODUCT_CATEGORY ( 'detail', '', ( #264 ) ) ;
#187 = CC_DESIGN_PERSON_AND_ORGANIZATION_ASSIGNMENT ( #119, #75, ( #24 ) ) ;
#188 = PERSON_AND_ORGANIZATION ( #18, #86 ) ;
#189 = CC_DESIGN_PERSON_AND_ORGANIZATION_ASSIGNMENT ( #218, #130, ( #24 ) ) ;
#190 = CC_DESIGN_APPROVAL ( #181, ( #279 ) ) ;
#191 = APPLICATION_PROTOCOL_DEFINITION ( 'international standard', 'config_control_design', 1994, #175 ) ;
#192 = DIRECTION ( 'NONE',  ( -0.0000000000000000000, -1.000000000000000000, -0.0000000000000000000 ) ) ;
#193 = ORIENTED_EDGE ( 'NONE', *, *, #3, .F. ) ;
#194 = ORIENTED_EDGE ( 'NONE', *, *, #9, .F. ) ;
#195 = DIRECTION ( 'NONE',  ( 0.0000000000000000000, 0.0000000000000000000, 1.000000000000000000 ) ) ;
#196 = DIRECTION ( 'NONE',  ( -0.0000000000000000000, -1.000000000000000000, -0.0000000000000000000 ) ) ;
#197 = VECTOR ( 'NONE', #294, 999.9999999999998900 ) ;
#198 = ORIENTED_EDGE ( 'NONE', *, *, #234, .F. ) ;
#199 = CARTESIAN_POINT ( 'NONE',  ( 1.347111479062088400E-015, 0.0000000000000000000, 11.00000000000000000 ) ) ;
#200 = FACE_OUTER_BOUND ( 'NONE', #74, .T. ) ;
#201 = ORIENTED_EDGE ( 'NONE', *, *, #244, .F. ) ;
#202 = CARTESIAN_POINT ( 'NONE',  ( 0.0000000000000000000, -5.107049207994151600, 0.0000000000000000000 ) ) ;
#203 = CARTESIAN_POINT ( 'NONE',  ( 0.0000000000000000000, 0.0000000000000000000, -4.250000000000000000 ) ) ;
#204 = COORDINATED_UNIVERSAL_TIME_OFFSET ( 9, 0, .AHEAD. ) ;
#205 = CARTESIAN_POINT ( 'NONE',  ( 1.010333609296566500E-015, 4.500000000000000900, -8.250000000000000000 ) ) ;
#206 = AXIS2_PLACEMENT_3D ( 'NONE', #262, #267, #132 ) ;
#207 = CONICAL_SURFACE ( 'NONE', #265, 8.250000000000000000, 0.7853981633974426200 ) ;
#208 = CIRCLE ( 'NONE', #288, 11.00000000000000000 ) ;
#209 = DIRECTION ( 'NONE',  ( -0.0000000000000000000, -1.000000000000000000, -0.0000000000000000000 ) ) ;
#210 = CC_DESIGN_SECURITY_CLASSIFICATION ( #279, ( #24 ) ) ;
#211 = DATE_TIME_ROLE ( 'creation_date' ) ;
#212 = CARTESIAN_POINT ( 'NONE',  ( 0.0000000000000000000, 0.03485722512706207500, -11.00000000000000000 ) ) ;
#213 = VECTOR ( 'NONE', #109, 1000.000000000000000 ) ;
#214 = CC_DESIGN_PERSON_AND_ORGANIZATION_ASSIGNMENT ( #70, #320, ( #279 ) ) ;
#215 = CIRCLE ( 'NONE', #235, 5.000000000000000000 ) ;
#216 = CIRCLE ( 'NONE', #39, 11.00000000000000000 ) ;
#217 = VERTEX_POINT ( 'NONE', #221 ) ;
#218 = PERSON_AND_ORGANIZATION ( #18, #86 ) ;
#219 = CARTESIAN_POINT ( 'NONE',  ( 0.0000000000000000000, 0.0000000000000000000, 0.0000000000000000000 ) ) ;
#220 = CARTESIAN_POINT ( 'NONE',  ( 0.0000000000000000000, 0.03485722512706207500, 0.0000000000000000000 ) ) ;
#221 = CARTESIAN_POINT ( 'NONE',  ( 0.0000000000000000000, 0.0000000000000000000, -11.00000000000000000 ) ) ;
#222 = VECTOR ( 'NONE', #11, 1000.000000000000000 ) ;
#223 = APPROVAL_STATUS ( 'not_yet_approved' ) ;
#224 = CARTESIAN_POINT ( 'NONE',  ( 7.347880794884118800E-016, 0.03485722512706207500, 5.999999999999999100 ) ) ;
#225 = ORIENTED_EDGE ( 'NONE', *, *, #238, .T. ) ;
#226 = APPLICATION_PROTOCOL_DEFINITION ( 'international standard', 'config_control_design', 1994, #319 ) ;
#227 = CC_DESIGN_APPROVAL ( #106, ( #107 ) ) ;
#228 = CARTESIAN_POINT ( 'NONE',  ( 0.0000000000000000000, -5.107049207994151600, 0.0000000000000000000 ) ) ;
#229 = DIRECTION ( 'NONE',  ( 1.000000000000000000, 0.0000000000000000000, -1.224646799147353200E-016 ) ) ;
#230 = CALENDAR_DATE ( 2017, 18, 8 ) ;
#231 = DIRECTION ( 'NONE',  ( -0.0000000000000000000, -1.000000000000000000, -0.0000000000000000000 ) ) ;
#232 = CARTESIAN_POINT ( 'NONE',  ( 4.250000000000000000, 0.0000000000000000000, 0.0000000000000000000 ) ) ;
#233 = DIRECTION ( 'NONE',  ( -1.224646799147353200E-016, 0.0000000000000000000, -1.000000000000000000 ) ) ;
#234 = EDGE_CURVE ( 'NONE', #34, #258, #215, .T. ) ;
#235 = AXIS2_PLACEMENT_3D ( 'NONE', #224, #229, #233 ) ;
#236 = ADVANCED_FACE ( 'NONE', ( #72 ), #100, .T. ) ;
#237 = APPROVAL_DATE_TIME ( #15, #103 ) ;
#238 = EDGE_CURVE ( 'NONE', #135, #246, #281, .T. ) ;
#239 = CARTESIAN_POINT ( 'NONE',  ( 0.0000000000000000000, 0.03485722512706207500, 0.0000000000000000000 ) ) ;
#240 = ADVANCED_FACE ( 'NONE', ( #51 ), #300, .F. ) ;
#241 = LINE ( 'NONE', #57, #142 ) ;
#242 = EDGE_CURVE ( 'NONE', #122, #217, #164, .T. ) ;
#243 = EDGE_CURVE ( 'NONE', #34, #69, #83, .T. ) ;
#244 = EDGE_CURVE ( 'NONE', #184, #92, #38, .T. ) ;
#245 = ADVANCED_FACE ( 'NONE', ( #200 ), #108, .T. ) ;
#246 = VERTEX_POINT ( 'NONE', #17 ) ;
#247 = DIRECTION ( 'NONE',  ( -0.0000000000000000000, -1.000000000000000000, -0.0000000000000000000 ) ) ;
#248 = VECTOR ( 'NONE', #111, 999.9999999999998900 ) ;
#249 = DIRECTION ( 'NONE',  ( 0.0000000000000000000, 0.0000000000000000000, -1.000000000000000000 ) ) ;
#250 = AXIS2_PLACEMENT_3D ( 'NONE', #239, #247, #249 ) ;
#251 = ORIENTED_EDGE ( 'NONE', *, *, #243, .T. ) ;
#252 = CARTESIAN_POINT ( 'NONE',  ( 0.0000000000000000000, 0.0000000000000000000, 0.0000000000000000000 ) ) ;
#253 = AXIS2_PLACEMENT_3D ( 'NONE', #31, #257, #46 ) ;
#254 = APPROVAL_ROLE ( '' ) ;
#255 = AXIS2_PLACEMENT_3D ( 'NONE', #77, #35, #195 ) ;
#256 = ORIENTED_EDGE ( 'NONE', *, *, #59, .F. ) ;
#257 = DIRECTION ( 'NONE',  ( -0.0000000000000000000, -1.000000000000000000, -0.0000000000000000000 ) ) ;
#258 = VERTEX_POINT ( 'NONE', #280 ) ;
#259 = ADVANCED_FACE ( 'NONE', ( #143 ), #60, .T. ) ;
#260 = DESIGN_CONTEXT ( 'detailed design', #175, 'design' ) ;
#261 = EDGE_CURVE ( 'NONE', #135, #34, #266, .T. ) ;
#262 = CARTESIAN_POINT ( 'NONE',  ( 0.0000000000000000000, 0.4999999999999553700, 0.0000000000000000000 ) ) ;
#263 = DIRECTION ( 'NONE',  ( -1.000000000000000000, 0.0000000000000000000, 0.0000000000000000000 ) ) ;
#264 = PRODUCT ( 'C-29-M8', 'C-29-M8', '', ( #91 ) ) ;
#265 = AXIS2_PLACEMENT_3D ( 'NONE', #140, #171, #141 ) ;
#266 = LINE ( 'NONE', #63, #197 ) ;
#267 = DIRECTION ( 'NONE',  ( -0.0000000000000000000, -1.000000000000000000, -0.0000000000000000000 ) ) ;
#268 = ADVANCED_BREP_SHAPE_REPRESENTATION ( 'C-29-M8', ( #158, #146 ), #312 ) ;
#269 = ORIENTED_EDGE ( 'NONE', *, *, #84, .T. ) ;
#270 = CARTESIAN_POINT ( 'NONE',  ( 0.0000000000000000000, -5.107049207994151600, 0.0000000000000000000 ) ) ;
#271 = FACE_OUTER_BOUND ( 'NONE', #138, .T. ) ;
#272 = EDGE_LOOP ( 'NONE', ( #12, #114, #297, #93 ) ) ;
#273 = DATE_AND_TIME ( #275, #161 ) ;
#274 = DIRECTION ( 'NONE',  ( 0.0000000000000000000, 0.0000000000000000000, 1.000000000000000000 ) ) ;
#275 = CALENDAR_DATE ( 2017, 18, 8 ) ;
#276 = CARTESIAN_POINT ( 'NONE',  ( 0.0000000000000000000, -5.107049207994151600, -11.00000000000000000 ) ) ;
#277 = CC_DESIGN_APPROVAL ( #103, ( #24 ) ) ;
#278 = DATE_TIME_ROLE ( 'classification_date' ) ;
#279 = SECURITY_CLASSIFICATION ( '', '', #88 ) ;
#280 = CARTESIAN_POINT ( 'NONE',  ( 1.347111479062088400E-015, 0.03485722512706207500, 11.00000000000000000 ) ) ;
#281 = CIRCLE ( 'NONE', #206, 4.250000000000000000 ) ;
#282 = PERSON_AND_ORGANIZATION_ROLE ( 'creator' ) ;
#283 = ORIENTED_EDGE ( 'NONE', *, *, #242, .T. ) ;
#284 = DIRECTION ( 'NONE',  ( -0.0000000000000000000, -1.000000000000000000, -0.0000000000000000000 ) ) ;
#285 = CIRCLE ( 'NONE', #21, 8.250000000000000000 ) ;
#286 = ADVANCED_FACE ( 'NONE', ( #64 ), #80, .T. ) ;
#287 = FACE_BOUND ( 'NONE', #28, .T. ) ;
#288 = AXIS2_PLACEMENT_3D ( 'NONE', #153, #32, #8 ) ;
#289 = CONICAL_SURFACE ( 'NONE', #255, 8.250000000000000000, 0.7853981633974426200 ) ;
#290 = ORIENTED_EDGE ( 'NONE', *, *, #81, .T. ) ;
#291 = CALENDAR_DATE ( 2017, 18, 8 ) ;
#292 = DIRECTION ( 'NONE',  ( 0.0000000000000000000, 0.0000000000000000000, -1.000000000000000000 ) ) ;
#293 = COORDINATED_UNIVERSAL_TIME_OFFSET ( 9, 0, .AHEAD. ) ;
#294 = DIRECTION ( 'NONE',  ( 0.0000000000000000000, 0.7071067811865515700, 0.7071067811865435800 ) ) ;
#295 = LINE ( 'NONE', #276, #213 ) ;
#296 = DIRECTION ( 'NONE',  ( 0.0000000000000000000, 0.0000000000000000000, -1.000000000000000000 ) ) ;
#297 = ORIENTED_EDGE ( 'NONE', *, *, #56, .T. ) ;
#298 = APPROVAL_STATUS ( 'not_yet_approved' ) ;
#299 = CARTESIAN_POINT ( 'NONE',  ( 0.0000000000000000000, 0.0000000000000000000, 0.0000000000000000000 ) ) ;
#300 = CYLINDRICAL_SURFACE ( 'NONE', #7, 4.250000000000000000 ) ;
#301 = APPROVAL_PERSON_ORGANIZATION ( #188, #106, #173 ) ;
#302 = ORIENTED_EDGE ( 'NONE', *, *, #40, .T. ) ;
#303 = CIRCLE ( 'NONE', #314, 4.250000000000000000 ) ;
#304 = EDGE_CURVE ( 'NONE', #92, #184, #10, .T. ) ;
#305 = CIRCLE ( 'NONE', #154, 11.00000000000000000 ) ;
#306 = ADVANCED_FACE ( 'NONE', ( #123, #287 ), #16, .T. ) ;
#307 = CALENDAR_DATE ( 2017, 18, 8 ) ;
#308 = AXIS2_PLACEMENT_3D ( 'NONE', #99, #26, #317 ) ;
#309 =( NAMED_UNIT ( * ) PLANE_ANGLE_UNIT ( ) SI_UNIT ( $, .RADIAN. ) );
#310 = DIRECTION ( 'NONE',  ( -0.0000000000000000000, -1.000000000000000000, -0.0000000000000000000 ) ) ;
#311 = PERSON_AND_ORGANIZATION ( #18, #86 ) ;
#312 =( GEOMETRIC_REPRESENTATION_CONTEXT ( 3 ) GLOBAL_UNCERTAINTY_ASSIGNED_CONTEXT ( ( #167 ) ) GLOBAL_UNIT_ASSIGNED_CONTEXT ( ( #82, #309, #112 ) ) REPRESENTATION_CONTEXT ( 'NONE', 'WORKASPACE' ) );
#313 = ORIENTED_EDGE ( 'NONE', *, *, #37, .T. ) ;
#314 = AXIS2_PLACEMENT_3D ( 'NONE', #160, #45, #96 ) ;
#315 = CLOSED_SHELL ( 'NONE', ( #286, #240, #85, #236, #245, #52, #58, #306, #259 ) ) ;
#316 = CALENDAR_DATE ( 2017, 18, 8 ) ;
#317 = DIRECTION ( 'NONE',  ( 0.0000000000000000000, 0.0000000000000000000, -1.000000000000000000 ) ) ;
#318 = ORIENTED_EDGE ( 'NONE', *, *, #59, .T. ) ;
#319 = APPLICATION_CONTEXT ( 'configuration controlled 3d designs of mechanical parts and assemblies' ) ;
#320 = PERSON_AND_ORGANIZATION_ROLE ( 'classification_officer' ) ;
#321 = DIRECTION ( 'NONE',  ( 1.000000000000000000, 0.0000000000000000000, 0.0000000000000000000 ) ) ;
ENDSEC;
END-ISO-10303-21;
