ISO-10303-21;
HEADER;
FILE_DESCRIPTION (( 'STEP AP203' ),
    '1' );
FILE_NAME ('C-29-M6.STEP',
    '2017-08-18T01:58:56',
    ( '' ),
    ( '' ),
    'SwSTEP 2.0',
    'SolidWorks 2014',
    '' );
FILE_SCHEMA (( 'CONFIG_CONTROL_DESIGN' ));
ENDSEC;

DATA;
#1 = DIRECTION ( 'NONE',  ( -0.0000000000000000000, -1.000000000000000000, -0.0000000000000000000 ) ) ;
#2 = PRODUCT_RELATED_PRODUCT_CATEGORY ( 'detail', '', ( #41 ) ) ;
#3 = ORGANIZATION ( 'UNSPECIFIED', 'UNSPECIFIED', '' ) ;
#4 = DIRECTION ( 'NONE',  ( -0.0000000000000000000, -1.000000000000000000, -0.0000000000000000000 ) ) ;
#5 = PERSON ( 'UNSPECIFIED', 'UNSPECIFIED', 'UNSPECIFIED', ('UNSPECIFIED'), ('UNSPECIFIED'), ('UNSPECIFIED') ) ;
#6 = CIRCLE ( 'NONE', #113, 3.499999999999999600 ) ;
#7 = CYLINDRICAL_SURFACE ( 'NONE', #187, 8.000000000000000000 ) ;
#8 = EDGE_CURVE ( 'NONE', #236, #111, #315, .T. ) ;
#9 = CARTESIAN_POINT ( 'NONE',  ( 0.0000000000000000000, 0.4689110867544654100, 0.0000000000000000000 ) ) ;
#10 = AXIS2_PLACEMENT_3D ( 'NONE', #124, #126, #135 ) ;
#11 = CC_DESIGN_PERSON_AND_ORGANIZATION_ASSIGNMENT ( #69, #189, ( #41 ) ) ;
#12 = ADVANCED_FACE ( 'NONE', ( #163 ), #73, .T. ) ;
#13 = EDGE_LOOP ( 'NONE', ( #56, #218, #54, #222 ) ) ;
#14 = AXIS2_PLACEMENT_3D ( 'NONE', #79, #75, #112 ) ;
#15 = DIRECTION ( 'NONE',  ( 0.0000000000000000000, 0.0000000000000000000, -1.000000000000000000 ) ) ;
#16 = CARTESIAN_POINT ( 'NONE',  ( 3.980102097228939200E-016, 0.0000000000000000000, 3.250000000000033300 ) ) ;
#17 = ADVANCED_FACE ( 'NONE', ( #51 ), #205, .F. ) ;
#18 = DIRECTION ( 'NONE',  ( 0.0000000000000000000, 0.0000000000000000000, -1.000000000000000000 ) ) ;
#19 = EDGE_CURVE ( 'NONE', #234, #94, #106, .T. ) ;
#20 = AXIS2_PLACEMENT_3D ( 'NONE', #9, #4, #15 ) ;
#21 = DIRECTION ( 'NONE',  ( 0.0000000000000000000, 0.0000000000000000000, -1.000000000000000000 ) ) ;
#22 = DIRECTION ( 'NONE',  ( 0.0000000000000000000, 0.0000000000000000000, -1.000000000000000000 ) ) ;
#23 =( NAMED_UNIT ( * ) PLANE_ANGLE_UNIT ( ) SI_UNIT ( $, .RADIAN. ) );
#24 = DIRECTION ( 'NONE',  ( -0.0000000000000000000, -1.000000000000000000, -0.0000000000000000000 ) ) ;
#25 = CARTESIAN_POINT ( 'NONE',  ( 0.0000000000000000000, 3.499999999999999600, 0.0000000000000000000 ) ) ;
#26 =( LENGTH_UNIT ( ) NAMED_UNIT ( * ) SI_UNIT ( .MILLI., .METRE. ) );
#27 = DIRECTION ( 'NONE',  ( -0.0000000000000000000, -1.000000000000000000, -0.0000000000000000000 ) ) ;
#28 = CARTESIAN_POINT ( 'NONE',  ( 0.0000000000000000000, -5.068571273697974900, 0.0000000000000000000 ) ) ;
#29 = DIRECTION ( 'NONE',  ( 0.0000000000000000000, 1.000000000000000000, 0.0000000000000000000 ) ) ;
#30 = DIRECTION ( 'NONE',  ( 0.0000000000000000000, 0.0000000000000000000, -1.000000000000000000 ) ) ;
#31 = DIRECTION ( 'NONE',  ( -1.000000000000000000, 0.0000000000000000000, 0.0000000000000000000 ) ) ;
#32 = ORIENTED_EDGE ( 'NONE', *, *, #108, .T. ) ;
#33 = PRODUCT_DEFINITION ( 'UNKNOWN', '', #271, #157 ) ;
#34 = DIRECTION ( 'NONE',  ( 0.0000000000000000000, 0.0000000000000000000, -1.000000000000000000 ) ) ;
#35 = DIRECTION ( 'NONE',  ( -0.0000000000000000000, -1.000000000000000000, -0.0000000000000000000 ) ) ;
#36 = CIRCLE ( 'NONE', #294, 3.250000000000033300 ) ;
#37 = CIRCLE ( 'NONE', #235, 3.499999999999999600 ) ;
#38 = CC_DESIGN_PERSON_AND_ORGANIZATION_ASSIGNMENT ( #171, #160, ( #169 ) ) ;
#39 = CARTESIAN_POINT ( 'NONE',  ( 0.0000000000000000000, 0.4689110867544649700, 0.0000000000000000000 ) ) ;
#40 = CC_DESIGN_PERSON_AND_ORGANIZATION_ASSIGNMENT ( #245, #293, ( #271 ) ) ;
#41 = PRODUCT ( 'C-29-M6', 'C-29-M6', '', ( #55 ) ) ;
#42 = ADVANCED_FACE ( 'NONE', ( #290 ), #90, .F. ) ;
#43 = EDGE_LOOP ( 'NONE', ( #233, #239, #238, #240 ) ) ;
#44 = AXIS2_PLACEMENT_3D ( 'NONE', #132, #141, #136 ) ;
#45 = ORIENTED_EDGE ( 'NONE', *, *, #254, .T. ) ;
#46 = CYLINDRICAL_SURFACE ( 'NONE', #180, 8.000000000000000000 ) ;
#47 = LINE ( 'NONE', #139, #299 ) ;
#48 = EDGE_CURVE ( 'NONE', #94, #234, #258, .T. ) ;
#49 = VECTOR ( 'NONE', #201, 1000.000000000000000 ) ;
#50 = EDGE_CURVE ( 'NONE', #212, #284, #6, .T. ) ;
#51 = FACE_OUTER_BOUND ( 'NONE', #13, .T. ) ;
#52 = EDGE_LOOP ( 'NONE', ( #267, #242, #316, #262 ) ) ;
#53 = ORIENTED_EDGE ( 'NONE', *, *, #303, .F. ) ;
#54 = ORIENTED_EDGE ( 'NONE', *, *, #8, .T. ) ;
#55 = MECHANICAL_CONTEXT ( 'NONE', #219, 'mechanical' ) ;
#56 = ORIENTED_EDGE ( 'NONE', *, *, #48, .F. ) ;
#57 = CARTESIAN_POINT ( 'NONE',  ( 0.0000000000000000000, 3.499999999999999600, 0.0000000000000000000 ) ) ;
#58 = TOROIDAL_SURFACE ( 'NONE', #196, 4.500000000000000900, 3.499999999999999600 ) ;
#59 = CARTESIAN_POINT ( 'NONE',  ( 0.0000000000000000000, 3.499999999999999600, 0.0000000000000000000 ) ) ;
#60 = DIRECTION ( 'NONE',  ( 0.0000000000000000000, 0.0000000000000000000, 1.000000000000000000 ) ) ;
#61 = CIRCLE ( 'NONE', #228, 6.250000000000000000 ) ;
#62 = ORIENTED_EDGE ( 'NONE', *, *, #254, .F. ) ;
#63 = CIRCLE ( 'NONE', #44, 8.000000000000000000 ) ;
#64 = DIRECTION ( 'NONE',  ( 0.0000000000000000000, 0.0000000000000000000, -1.000000000000000000 ) ) ;
#65 = CIRCLE ( 'NONE', #20, 8.000000000000000000 ) ;
#66 = CARTESIAN_POINT ( 'NONE',  ( 0.0000000000000000000, 0.0000000000000000000, 0.0000000000000000000 ) ) ;
#67 = CIRCLE ( 'NONE', #10, 8.000000000000000000 ) ;
#68 = PERSON_AND_ORGANIZATION_ROLE ( 'creator' ) ;
#69 = PERSON_AND_ORGANIZATION ( #5, #3 ) ;
#70 = EDGE_CURVE ( 'NONE', #265, #212, #97, .T. ) ;
#71 = CONICAL_SURFACE ( 'NONE', #215, 6.250000000000000000, 0.7853981633974425100 ) ;
#72 = CARTESIAN_POINT ( 'NONE',  ( 0.0000000000000000000, 0.0000000000000000000, -3.250000000000033300 ) ) ;
#73 = TOROIDAL_SURFACE ( 'NONE', #170, 4.500000000000000900, 3.499999999999999600 ) ;
#74 = AXIS2_PLACEMENT_3D ( 'NONE', #276, #129, #183 ) ;
#75 = DIRECTION ( 'NONE',  ( -0.0000000000000000000, -1.000000000000000000, -0.0000000000000000000 ) ) ;
#76 = EDGE_LOOP ( 'NONE', ( #246, #250, #263, #244 ) ) ;
#77 = DIRECTION ( 'NONE',  ( 0.0000000000000000000, -1.000000000000000000, -0.0000000000000000000 ) ) ;
#78 = CALENDAR_DATE ( 2017, 18, 8 ) ;
#79 = CARTESIAN_POINT ( 'NONE',  ( 0.0000000000000000000, 0.0000000000000000000, 0.0000000000000000000 ) ) ;
#80 = CARTESIAN_POINT ( 'NONE',  ( 0.0000000000000000000, 0.4999999999999987200, 3.250000000000034600 ) ) ;
#81 = FACE_OUTER_BOUND ( 'NONE', #167, .T. ) ;
#82 = DIRECTION ( 'NONE',  ( 0.0000000000000000000, 1.000000000000000000, 0.0000000000000000000 ) ) ;
#83 = DIRECTION ( 'NONE',  ( -0.0000000000000000000, -1.000000000000000000, -0.0000000000000000000 ) ) ;
#84 =( NAMED_UNIT ( * ) SI_UNIT ( $, .STERADIAN. ) SOLID_ANGLE_UNIT ( ) );
#85 = FACE_OUTER_BOUND ( 'NONE', #43, .T. ) ;
#86 = APPROVAL_PERSON_ORGANIZATION ( #264, #273, #275 ) ;
#87 = CC_DESIGN_APPROVAL ( #93, ( #271 ) ) ;
#88 = DIRECTION ( 'NONE',  ( 0.0000000000000000000, 0.0000000000000000000, -1.000000000000000000 ) ) ;
#89 = ORIENTED_EDGE ( 'NONE', *, *, #19, .T. ) ;
#90 = CONICAL_SURFACE ( 'NONE', #173, 6.250000000000000000, 0.7853981633974425100 ) ;
#91 = FACE_OUTER_BOUND ( 'NONE', #52, .T. ) ;
#92 = CC_DESIGN_DATE_AND_TIME_ASSIGNMENT ( #204, #172, ( #33 ) ) ;
#93 = APPROVAL ( #266, 'UNSPECIFIED' ) ;
#94 = VERTEX_POINT ( 'NONE', #80 ) ;
#95 = CIRCLE ( 'NONE', #14, 8.000000000000000000 ) ;
#96 = DIRECTION ( 'NONE',  ( 0.0000000000000000000, 0.7071067811865516800, 0.7071067811865434600 ) ) ;
#97 = CIRCLE ( 'NONE', #190, 6.250000000000000000 ) ;
#98 = APPLICATION_CONTEXT ( 'configuration controlled 3d designs of mechanical parts and assemblies' ) ;
#99 = CC_DESIGN_PERSON_AND_ORGANIZATION_ASSIGNMENT ( #321, #298, ( #271 ) ) ;
#100 = DIRECTION ( 'NONE',  ( -0.0000000000000000000, -1.000000000000000000, -0.0000000000000000000 ) ) ;
#101 = LOCAL_TIME ( 10, 58, 56.00000000000000000, #152 ) ;
#102 = AXIS2_PLACEMENT_3D ( 'NONE', #241, #281, #164 ) ;
#103 = ADVANCED_FACE ( 'NONE', ( #81, #142 ), #280, .T. ) ;
#104 = CC_DESIGN_PERSON_AND_ORGANIZATION_ASSIGNMENT ( #133, #68, ( #33 ) ) ;
#105 = LOCAL_TIME ( 10, 58, 56.00000000000000000, #295 ) ;
#106 = CIRCLE ( 'NONE', #198, 3.250000000000034600 ) ;
#107 = CALENDAR_DATE ( 2017, 18, 8 ) ;
#108 = EDGE_CURVE ( 'NONE', #306, #208, #95, .T. ) ;
#109 = CARTESIAN_POINT ( 'NONE',  ( 0.0000000000000000000, 3.499999999999999600, -6.250000000000000000 ) ) ;
#110 = CALENDAR_DATE ( 2017, 18, 8 ) ;
#111 = VERTEX_POINT ( 'NONE', #72 ) ;
#112 = DIRECTION ( 'NONE',  ( 0.0000000000000000000, 0.0000000000000000000, -1.000000000000000000 ) ) ;
#113 = AXIS2_PLACEMENT_3D ( 'NONE', #178, #318, #197 ) ;
#114 = CARTESIAN_POINT ( 'NONE',  ( 5.817072295949949100E-016, 0.4999999999999987200, -3.250000000000034600 ) ) ;
#115 = LINE ( 'NONE', #307, #153 ) ;
#116 = CALENDAR_DATE ( 2017, 18, 8 ) ;
#117 = EDGE_CURVE ( 'NONE', #94, #212, #115, .T. ) ;
#118 = CARTESIAN_POINT ( 'NONE',  ( 7.654042494670957600E-016, 3.499999999999999600, -6.250000000000000000 ) ) ;
#119 = ORIENTED_EDGE ( 'NONE', *, *, #156, .F. ) ;
#120 = FACE_OUTER_BOUND ( 'NONE', #146, .T. ) ;
#121 = DIRECTION ( 'NONE',  ( -0.0000000000000000000, -1.000000000000000000, -0.0000000000000000000 ) ) ;
#122 = DIRECTION ( 'NONE',  ( 0.0000000000000000000, 0.0000000000000000000, -1.000000000000000000 ) ) ;
#123 = COORDINATED_UNIVERSAL_TIME_OFFSET ( 9, 0, .AHEAD. ) ;
#124 = CARTESIAN_POINT ( 'NONE',  ( 0.0000000000000000000, 0.4689110867544654100, 0.0000000000000000000 ) ) ;
#125 = APPROVAL ( #143, 'UNSPECIFIED' ) ;
#126 = DIRECTION ( 'NONE',  ( -0.0000000000000000000, -1.000000000000000000, -0.0000000000000000000 ) ) ;
#127 = LOCAL_TIME ( 10, 58, 56.00000000000000000, #260 ) ;
#128 = EDGE_LOOP ( 'NONE', ( #209, #229, #225, #232 ) ) ;
#129 = DIRECTION ( 'NONE',  ( 0.0000000000000000000, 0.0000000000000000000, 1.000000000000000000 ) ) ;
#130 = ORIENTED_EDGE ( 'NONE', *, *, #8, .F. ) ;
#131 = ADVANCED_BREP_SHAPE_REPRESENTATION ( 'C-29-M6', ( #182, #74 ), #151 ) ;
#132 = CARTESIAN_POINT ( 'NONE',  ( 0.0000000000000000000, 0.0000000000000000000, 0.0000000000000000000 ) ) ;
#133 = PERSON_AND_ORGANIZATION ( #5, #3 ) ;
#134 = CARTESIAN_POINT ( 'NONE',  ( 0.0000000000000000000, 3.499999999999999600, 0.0000000000000000000 ) ) ;
#135 = DIRECTION ( 'NONE',  ( 0.0000000000000000000, 0.0000000000000000000, -1.000000000000000000 ) ) ;
#136 = DIRECTION ( 'NONE',  ( 0.0000000000000000000, 0.0000000000000000000, -1.000000000000000000 ) ) ;
#137 = CALENDAR_DATE ( 2017, 18, 8 ) ;
#138 = CARTESIAN_POINT ( 'NONE',  ( 0.0000000000000000000, -5.068571273697974900, 0.0000000000000000000 ) ) ;
#139 = CARTESIAN_POINT ( 'NONE',  ( 0.0000000000000000000, -5.068571273697974900, -3.250000000000034200 ) ) ;
#140 = AXIS2_PLACEMENT_3D ( 'NONE', #256, #77, #64 ) ;
#141 = DIRECTION ( 'NONE',  ( -0.0000000000000000000, -1.000000000000000000, -0.0000000000000000000 ) ) ;
#142 = FACE_BOUND ( 'NONE', #317, .T. ) ;
#143 = APPROVAL_STATUS ( 'not_yet_approved' ) ;
#144 = CARTESIAN_POINT ( 'NONE',  ( 0.0000000000000000000, 0.4689110867544649700, 0.0000000000000000000 ) ) ;
#145 = EDGE_CURVE ( 'NONE', #212, #265, #61, .T. ) ;
#146 = EDGE_LOOP ( 'NONE', ( #119, #89, #268, #320 ) ) ;
#147 = DIRECTION ( 'NONE',  ( -0.0000000000000000000, -1.000000000000000000, -0.0000000000000000000 ) ) ;
#148 = VECTOR ( 'NONE', #188, 1000.000000000000000 ) ;
#149 = CARTESIAN_POINT ( 'NONE',  ( 0.0000000000000000000, 0.4999999999999987200, 0.0000000000000000000 ) ) ;
#150 = DIRECTION ( 'NONE',  ( 0.0000000000000000000, 0.0000000000000000000, -1.000000000000000000 ) ) ;
#151 =( GEOMETRIC_REPRESENTATION_CONTEXT ( 3 ) GLOBAL_UNCERTAINTY_ASSIGNED_CONTEXT ( ( #296 ) ) GLOBAL_UNIT_ASSIGNED_CONTEXT ( ( #26, #23, #84 ) ) REPRESENTATION_CONTEXT ( 'NONE', 'WORKASPACE' ) );
#152 = COORDINATED_UNIVERSAL_TIME_OFFSET ( 9, 0, .AHEAD. ) ;
#153 = VECTOR ( 'NONE', #96, 1000.000000000000000 ) ;
#154 = DIRECTION ( 'NONE',  ( 0.0000000000000000000, 0.0000000000000000000, -1.000000000000000000 ) ) ;
#155 = SHAPE_DEFINITION_REPRESENTATION ( #313, #131 ) ;
#156 = EDGE_CURVE ( 'NONE', #234, #265, #191, .T. ) ;
#157 = DESIGN_CONTEXT ( 'detailed design', #98, 'design' ) ;
#158 = CC_DESIGN_APPROVAL ( #273, ( #169 ) ) ;
#159 = CARTESIAN_POINT ( 'NONE',  ( 0.0000000000000000000, -5.068571273697974900, -8.000000000000000000 ) ) ;
#160 = PERSON_AND_ORGANIZATION_ROLE ( 'classification_officer' ) ;
#161 = CC_DESIGN_SECURITY_CLASSIFICATION ( #169, ( #271 ) ) ;
#162 = AXIS2_PLACEMENT_3D ( 'NONE', #66, #24, #34 ) ;
#163 = FACE_OUTER_BOUND ( 'NONE', #76, .T. ) ;
#164 = DIRECTION ( 'NONE',  ( 0.0000000000000000000, 0.0000000000000000000, -1.000000000000000000 ) ) ;
#165 = VECTOR ( 'NONE', #168, 1000.000000000000000 ) ;
#166 = DIRECTION ( 'NONE',  ( -0.0000000000000000000, -1.000000000000000000, -0.0000000000000000000 ) ) ;
#167 = EDGE_LOOP ( 'NONE', ( #45, #32 ) ) ;
#168 = DIRECTION ( 'NONE',  ( -0.0000000000000000000, -1.000000000000000000, -0.0000000000000000000 ) ) ;
#169 = SECURITY_CLASSIFICATION ( '', '', #195 ) ;
#170 = AXIS2_PLACEMENT_3D ( 'NONE', #39, #100, #122 ) ;
#171 = PERSON_AND_ORGANIZATION ( #5, #3 ) ;
#172 = DATE_TIME_ROLE ( 'creation_date' ) ;
#173 = AXIS2_PLACEMENT_3D ( 'NONE', #25, #29, #304 ) ;
#174 = APPROVAL_DATE_TIME ( #286, #125 ) ;
#175 = DIRECTION ( 'NONE',  ( 0.0000000000000000000, 0.0000000000000000000, -1.000000000000000000 ) ) ;
#176 = EDGE_CURVE ( 'NONE', #234, #111, #47, .T. ) ;
#177 = COORDINATED_UNIVERSAL_TIME_OFFSET ( 9, 0, .AHEAD. ) ;
#178 = CARTESIAN_POINT ( 'NONE',  ( 5.510910596163089600E-016, 0.4689110867544649700, 4.500000000000000900 ) ) ;
#179 = CLOSED_SHELL ( 'NONE', ( #253, #17, #42, #217, #12, #282, #288, #103, #300 ) ) ;
#180 = AXIS2_PLACEMENT_3D ( 'NONE', #28, #312, #22 ) ;
#181 = CARTESIAN_POINT ( 'NONE',  ( 9.797174393178825700E-016, 0.4689110867544654100, 8.000000000000000000 ) ) ;
#182 = MANIFOLD_SOLID_BREP ( '‰ñ“]1', #179 ) ;
#183 = DIRECTION ( 'NONE',  ( 1.000000000000000000, 0.0000000000000000000, 0.0000000000000000000 ) ) ;
#184 = CARTESIAN_POINT ( 'NONE',  ( 0.0000000000000000000, 0.0000000000000000000, 0.0000000000000000000 ) ) ;
#185 = APPROVAL_DATE_TIME ( #200, #93 ) ;
#186 = AXIS2_PLACEMENT_3D ( 'NONE', #138, #121, #283 ) ;
#187 = AXIS2_PLACEMENT_3D ( 'NONE', #192, #249, #175 ) ;
#188 = DIRECTION ( 'NONE',  ( 8.659560562354883600E-017, 0.7071067811865516800, -0.7071067811865434600 ) ) ;
#189 = PERSON_AND_ORGANIZATION_ROLE ( 'design_owner' ) ;
#190 = AXIS2_PLACEMENT_3D ( 'NONE', #134, #1, #154 ) ;
#191 = LINE ( 'NONE', #118, #148 ) ;
#192 = CARTESIAN_POINT ( 'NONE',  ( 0.0000000000000000000, -5.068571273697974900, 0.0000000000000000000 ) ) ;
#193 = APPLICATION_PROTOCOL_DEFINITION ( 'international standard', 'config_control_design', 1994, #98 ) ;
#194 = CARTESIAN_POINT ( 'NONE',  ( 0.0000000000000000000, 0.4689110867544654100, -8.000000000000000000 ) ) ;
#195 = SECURITY_CLASSIFICATION_LEVEL ( 'unclassified' ) ;
#196 = AXIS2_PLACEMENT_3D ( 'NONE', #144, #166, #21 ) ;
#197 = DIRECTION ( 'NONE',  ( -1.224646799147353200E-016, 0.0000000000000000000, -1.000000000000000000 ) ) ;
#198 = AXIS2_PLACEMENT_3D ( 'NONE', #149, #255, #18 ) ;
#199 = CARTESIAN_POINT ( 'NONE',  ( 3.980102097228939600E-016, -5.068571273697974900, 3.250000000000034200 ) ) ;
#200 = DATE_AND_TIME ( #137, #101 ) ;
#201 = DIRECTION ( 'NONE',  ( -0.0000000000000000000, -1.000000000000000000, -0.0000000000000000000 ) ) ;
#202 = PERSON_AND_ORGANIZATION ( #5, #3 ) ;
#203 = LINE ( 'NONE', #251, #308 ) ;
#204 = DATE_AND_TIME ( #107, #105 ) ;
#205 = CYLINDRICAL_SURFACE ( 'NONE', #186, 3.250000000000034200 ) ;
#206 = CYLINDRICAL_SURFACE ( 'NONE', #102, 3.250000000000034200 ) ;
#207 = LINE ( 'NONE', #159, #49 ) ;
#208 = VERTEX_POINT ( 'NONE', #227 ) ;
#209 = ORIENTED_EDGE ( 'NONE', *, *, #48, .T. ) ;
#210 = ORIENTED_EDGE ( 'NONE', *, *, #303, .T. ) ;
#211 = CARTESIAN_POINT ( 'NONE',  ( 9.797174393178825700E-016, 0.0000000000000000000, 8.000000000000000000 ) ) ;
#212 = VERTEX_POINT ( 'NONE', #297 ) ;
#213 = CARTESIAN_POINT ( 'NONE',  ( 0.0000000000000000000, 0.4689110867544649700, -4.500000000000000900 ) ) ;
#214 = CARTESIAN_POINT ( 'NONE',  ( 0.0000000000000000000, 0.4999999999999987200, 0.0000000000000000000 ) ) ;
#215 = AXIS2_PLACEMENT_3D ( 'NONE', #59, #82, #221 ) ;
#216 = APPROVAL_PERSON_ORGANIZATION ( #248, #93, #220 ) ;
#217 = ADVANCED_FACE ( 'NONE', ( #85 ), #58, .T. ) ;
#218 = ORIENTED_EDGE ( 'NONE', *, *, #311, .T. ) ;
#219 = APPLICATION_CONTEXT ( 'configuration controlled 3d designs of mechanical parts and assemblies' ) ;
#220 = APPROVAL_ROLE ( '' ) ;
#221 = DIRECTION ( 'NONE',  ( 0.0000000000000000000, 0.0000000000000000000, 1.000000000000000000 ) ) ;
#222 = ORIENTED_EDGE ( 'NONE', *, *, #176, .F. ) ;
#223 = ORIENTED_EDGE ( 'NONE', *, *, #291, .F. ) ;
#224 = LINE ( 'NONE', #199, #165 ) ;
#225 = ORIENTED_EDGE ( 'NONE', *, *, #145, .F. ) ;
#226 = EDGE_CURVE ( 'NONE', #284, #287, #65, .T. ) ;
#227 = CARTESIAN_POINT ( 'NONE',  ( 0.0000000000000000000, 0.0000000000000000000, -8.000000000000000000 ) ) ;
#228 = AXIS2_PLACEMENT_3D ( 'NONE', #57, #83, #88 ) ;
#229 = ORIENTED_EDGE ( 'NONE', *, *, #156, .T. ) ;
#230 = ORIENTED_EDGE ( 'NONE', *, *, #226, .T. ) ;
#231 = DIRECTION ( 'NONE',  ( -0.0000000000000000000, -1.000000000000000000, -0.0000000000000000000 ) ) ;
#232 = ORIENTED_EDGE ( 'NONE', *, *, #117, .F. ) ;
#233 = ORIENTED_EDGE ( 'NONE', *, *, #70, .T. ) ;
#234 = VERTEX_POINT ( 'NONE', #114 ) ;
#235 = AXIS2_PLACEMENT_3D ( 'NONE', #213, #31, #60 ) ;
#236 = VERTEX_POINT ( 'NONE', #16 ) ;
#237 = ORIENTED_EDGE ( 'NONE', *, *, #261, .T. ) ;
#238 = ORIENTED_EDGE ( 'NONE', *, *, #261, .F. ) ;
#239 = ORIENTED_EDGE ( 'NONE', *, *, #50, .T. ) ;
#240 = ORIENTED_EDGE ( 'NONE', *, *, #319, .F. ) ;
#241 = CARTESIAN_POINT ( 'NONE',  ( 0.0000000000000000000, -5.068571273697974900, 0.0000000000000000000 ) ) ;
#242 = ORIENTED_EDGE ( 'NONE', *, *, #19, .F. ) ;
#243 = APPLICATION_PROTOCOL_DEFINITION ( 'international standard', 'config_control_design', 1994, #219 ) ;
#244 = ORIENTED_EDGE ( 'NONE', *, *, #226, .F. ) ;
#245 = PERSON_AND_ORGANIZATION ( #5, #3 ) ;
#246 = ORIENTED_EDGE ( 'NONE', *, *, #50, .F. ) ;
#247 = CC_DESIGN_APPROVAL ( #125, ( #33 ) ) ;
#248 = PERSON_AND_ORGANIZATION ( #5, #3 ) ;
#249 = DIRECTION ( 'NONE',  ( -0.0000000000000000000, -1.000000000000000000, -0.0000000000000000000 ) ) ;
#250 = ORIENTED_EDGE ( 'NONE', *, *, #145, .T. ) ;
#251 = CARTESIAN_POINT ( 'NONE',  ( 9.797174393178825700E-016, -5.068571273697974900, 8.000000000000000000 ) ) ;
#252 = DATE_TIME_ROLE ( 'classification_date' ) ;
#253 = ADVANCED_FACE ( 'NONE', ( #302 ), #46, .T. ) ;
#254 = EDGE_CURVE ( 'NONE', #208, #306, #63, .T. ) ;
#255 = DIRECTION ( 'NONE',  ( -0.0000000000000000000, -1.000000000000000000, -0.0000000000000000000 ) ) ;
#256 = CARTESIAN_POINT ( 'NONE',  ( 3.250000000000033300, -5.211715385657872700E-018, 0.0000000000000000000 ) ) ;
#257 = DATE_AND_TIME ( #110, #274 ) ;
#258 = CIRCLE ( 'NONE', #270, 3.250000000000034600 ) ;
#259 = ORIENTED_EDGE ( 'NONE', *, *, #108, .F. ) ;
#260 = COORDINATED_UNIVERSAL_TIME_OFFSET ( 9, 0, .AHEAD. ) ;
#261 = EDGE_CURVE ( 'NONE', #287, #284, #67, .T. ) ;
#262 = ORIENTED_EDGE ( 'NONE', *, *, #291, .T. ) ;
#263 = ORIENTED_EDGE ( 'NONE', *, *, #319, .T. ) ;
#264 = PERSON_AND_ORGANIZATION ( #5, #3 ) ;
#265 = VERTEX_POINT ( 'NONE', #109 ) ;
#266 = APPROVAL_STATUS ( 'not_yet_approved' ) ;
#267 = ORIENTED_EDGE ( 'NONE', *, *, #311, .F. ) ;
#268 = ORIENTED_EDGE ( 'NONE', *, *, #117, .T. ) ;
#269 = APPROVAL_STATUS ( 'not_yet_approved' ) ;
#270 = AXIS2_PLACEMENT_3D ( 'NONE', #214, #231, #30 ) ;
#271 = PRODUCT_DEFINITION_FORMATION_WITH_SPECIFIED_SOURCE ( 'ANY', '', #41, .NOT_KNOWN. ) ;
#272 = ORIENTED_EDGE ( 'NONE', *, *, #314, .F. ) ;
#273 = APPROVAL ( #269, 'UNSPECIFIED' ) ;
#274 = LOCAL_TIME ( 10, 58, 56.00000000000000000, #177 ) ;
#275 = APPROVAL_ROLE ( '' ) ;
#276 = CARTESIAN_POINT ( 'NONE',  ( 0.0000000000000000000, 0.0000000000000000000, 0.0000000000000000000 ) ) ;
#277 = CC_DESIGN_DATE_AND_TIME_ASSIGNMENT ( #279, #252, ( #169 ) ) ;
#278 = LOCAL_TIME ( 10, 58, 56.00000000000000000, #123 ) ;
#279 = DATE_AND_TIME ( #116, #278 ) ;
#280 = PLANE ( 'NONE',  #140 ) ;
#281 = DIRECTION ( 'NONE',  ( -0.0000000000000000000, -1.000000000000000000, -0.0000000000000000000 ) ) ;
#282 = ADVANCED_FACE ( 'NONE', ( #120 ), #71, .F. ) ;
#283 = DIRECTION ( 'NONE',  ( 0.0000000000000000000, 0.0000000000000000000, -1.000000000000000000 ) ) ;
#284 = VERTEX_POINT ( 'NONE', #181 ) ;
#285 = FACE_OUTER_BOUND ( 'NONE', #289, .T. ) ;
#286 = DATE_AND_TIME ( #78, #127 ) ;
#287 = VERTEX_POINT ( 'NONE', #194 ) ;
#288 = ADVANCED_FACE ( 'NONE', ( #91 ), #206, .F. ) ;
#289 = EDGE_LOOP ( 'NONE', ( #272, #230, #210, #259 ) ) ;
#290 = FACE_OUTER_BOUND ( 'NONE', #128, .T. ) ;
#291 = EDGE_CURVE ( 'NONE', #111, #236, #36, .T. ) ;
#292 = ORIENTED_EDGE ( 'NONE', *, *, #314, .T. ) ;
#293 = PERSON_AND_ORGANIZATION_ROLE ( 'design_supplier' ) ;
#294 = AXIS2_PLACEMENT_3D ( 'NONE', #184, #147, #150 ) ;
#295 = COORDINATED_UNIVERSAL_TIME_OFFSET ( 9, 0, .AHEAD. ) ;
#296 = UNCERTAINTY_MEASURE_WITH_UNIT (LENGTH_MEASURE( 1.000000000000000100E-005 ), #26, 'distance_accuracy_value', 'NONE');
#297 = CARTESIAN_POINT ( 'NONE',  ( 8.725608443924891100E-016, 3.499999999999999600, 6.250000000000000000 ) ) ;
#298 = PERSON_AND_ORGANIZATION_ROLE ( 'creator' ) ;
#299 = VECTOR ( 'NONE', #27, 1000.000000000000000 ) ;
#300 = ADVANCED_FACE ( 'NONE', ( #285 ), #7, .T. ) ;
#301 = APPROVAL_DATE_TIME ( #257, #273 ) ;
#302 = FACE_OUTER_BOUND ( 'NONE', #309, .T. ) ;
#303 = EDGE_CURVE ( 'NONE', #287, #208, #207, .T. ) ;
#304 = DIRECTION ( 'NONE',  ( 0.0000000000000000000, 0.0000000000000000000, 1.000000000000000000 ) ) ;
#305 = APPROVAL_PERSON_ORGANIZATION ( #202, #125, #310 ) ;
#306 = VERTEX_POINT ( 'NONE', #211 ) ;
#307 = CARTESIAN_POINT ( 'NONE',  ( 0.0000000000000000000, 3.499999999999999600, 6.250000000000000000 ) ) ;
#308 = VECTOR ( 'NONE', #35, 1000.000000000000000 ) ;
#309 = EDGE_LOOP ( 'NONE', ( #237, #292, #62, #53 ) ) ;
#310 = APPROVAL_ROLE ( '' ) ;
#311 = EDGE_CURVE ( 'NONE', #94, #236, #224, .T. ) ;
#312 = DIRECTION ( 'NONE',  ( -0.0000000000000000000, -1.000000000000000000, -0.0000000000000000000 ) ) ;
#313 = PRODUCT_DEFINITION_SHAPE ( 'NONE', 'NONE',  #33 ) ;
#314 = EDGE_CURVE ( 'NONE', #284, #306, #203, .T. ) ;
#315 = CIRCLE ( 'NONE', #162, 3.250000000000033300 ) ;
#316 = ORIENTED_EDGE ( 'NONE', *, *, #176, .T. ) ;
#317 = EDGE_LOOP ( 'NONE', ( #223, #130 ) ) ;
#318 = DIRECTION ( 'NONE',  ( 1.000000000000000000, 0.0000000000000000000, -1.224646799147353200E-016 ) ) ;
#319 = EDGE_CURVE ( 'NONE', #265, #287, #37, .T. ) ;
#320 = ORIENTED_EDGE ( 'NONE', *, *, #70, .F. ) ;
#321 = PERSON_AND_ORGANIZATION ( #5, #3 ) ;
ENDSEC;
END-ISO-10303-21;
