ISO-10303-21;
HEADER;
FILE_DESCRIPTION (( 'STEP AP203' ),
    '1' );
FILE_NAME ('C-29-M5.STEP',
    '2017-08-18T01:52:50',
    ( '' ),
    ( '' ),
    'SwSTEP 2.0',
    'SolidWorks 2014',
    '' );
FILE_SCHEMA (( 'CONFIG_CONTROL_DESIGN' ));
ENDSEC;

DATA;
#1 = DIRECTION ( 'NONE',  ( -0.0000000000000000000, -1.000000000000000000, -0.0000000000000000000 ) ) ;
#2 = PERSON_AND_ORGANIZATION ( #61, #39 ) ;
#3 = CC_DESIGN_PERSON_AND_ORGANIZATION_ASSIGNMENT ( #262, #230, ( #256 ) ) ;
#4 = LOCAL_TIME ( 10, 52, 50.00000000000000000, #59 ) ;
#5 = CIRCLE ( 'NONE', #222, 6.999999999999999100 ) ;
#6 = PRODUCT_DEFINITION_FORMATION_WITH_SPECIFIED_SOURCE ( 'ANY', '', #256, .NOT_KNOWN. ) ;
#7 = ADVANCED_FACE ( 'NONE', ( #163 ), #224, .F. ) ;
#8 = DIRECTION ( 'NONE',  ( 0.0000000000000000000, 0.0000000000000000000, -1.000000000000000000 ) ) ;
#9 = FACE_OUTER_BOUND ( 'NONE', #37, .T. ) ;
#10 = CC_DESIGN_PERSON_AND_ORGANIZATION_ASSIGNMENT ( #2, #187, ( #6 ) ) ;
#11 = DIRECTION ( 'NONE',  ( -0.0000000000000000000, -1.000000000000000000, -0.0000000000000000000 ) ) ;
#12 = ORIENTED_EDGE ( 'NONE', *, *, #306, .F. ) ;
#13 = DATE_AND_TIME ( #266, #175 ) ;
#14 = ADVANCED_FACE ( 'NONE', ( #242, #307 ), #156, .T. ) ;
#15 = EDGE_CURVE ( 'NONE', #270, #206, #137, .T. ) ;
#16 = ORIENTED_EDGE ( 'NONE', *, *, #15, .F. ) ;
#17 = DIRECTION ( 'NONE',  ( 1.000000000000000000, 0.0000000000000000000, -1.224646799147353200E-016 ) ) ;
#18 = EDGE_LOOP ( 'NONE', ( #142, #172, #118, #135 ) ) ;
#19 = PERSON_AND_ORGANIZATION_ROLE ( 'creator' ) ;
#20 = ORIENTED_EDGE ( 'NONE', *, *, #155, .F. ) ;
#21 = APPROVAL_DATE_TIME ( #319, #300 ) ;
#22 = AXIS2_PLACEMENT_3D ( 'NONE', #288, #251, #217 ) ;
#23 = CARTESIAN_POINT ( 'NONE',  ( 0.0000000000000000000, 3.000000000000000000, 0.0000000000000000000 ) ) ;
#24 = LINE ( 'NONE', #315, #295 ) ;
#25 = APPROVAL_STATUS ( 'not_yet_approved' ) ;
#26 = CIRCLE ( 'NONE', #89, 6.999999999999999100 ) ;
#27 = ORIENTED_EDGE ( 'NONE', *, *, #176, .T. ) ;
#28 = PERSON_AND_ORGANIZATION ( #61, #39 ) ;
#29 = CIRCLE ( 'NONE', #120, 2.750000000000000000 ) ;
#30 = CARTESIAN_POINT ( 'NONE',  ( 0.0000000000000000000, -2.426425630146278300, 0.0000000000000000000 ) ) ;
#31 =( GEOMETRIC_REPRESENTATION_CONTEXT ( 3 ) GLOBAL_UNCERTAINTY_ASSIGNED_CONTEXT ( ( #259 ) ) GLOBAL_UNIT_ASSIGNED_CONTEXT ( ( #317, #211, #110 ) ) REPRESENTATION_CONTEXT ( 'NONE', 'WORKASPACE' ) );
#32 = EDGE_CURVE ( 'NONE', #289, #90, #44, .T. ) ;
#33 = CARTESIAN_POINT ( 'NONE',  ( 0.0000000000000000000, 0.2728219713410704500, 0.0000000000000000000 ) ) ;
#34 = AXIS2_PLACEMENT_3D ( 'NONE', #95, #207, #69 ) ;
#35 = CARTESIAN_POINT ( 'NONE',  ( 0.0000000000000000000, 0.0000000000000000000, 0.0000000000000000000 ) ) ;
#36 = EDGE_LOOP ( 'NONE', ( #311, #84 ) ) ;
#37 = EDGE_LOOP ( 'NONE', ( #229, #193, #246, #159 ) ) ;
#38 = FACE_OUTER_BOUND ( 'NONE', #75, .T. ) ;
#39 = ORGANIZATION ( 'UNSPECIFIED', 'UNSPECIFIED', '' ) ;
#40 = CARTESIAN_POINT ( 'NONE',  ( 2.750000000000000000, 0.0000000000000000000, 0.0000000000000000000 ) ) ;
#41 = CARTESIAN_POINT ( 'NONE',  ( 4.898587196589410900E-016, 0.2728219713410704500, 3.999999999999998200 ) ) ;
#42 = ORIENTED_EDGE ( 'NONE', *, *, #255, .T. ) ;
#43 = PERSON_AND_ORGANIZATION ( #61, #39 ) ;
#44 = CIRCLE ( 'NONE', #190, 5.250000000000000000 ) ;
#45 = EDGE_LOOP ( 'NONE', ( #122, #27, #12, #318 ) ) ;
#46 = DATE_TIME_ROLE ( 'classification_date' ) ;
#47 = AXIS2_PLACEMENT_3D ( 'NONE', #223, #248, #297 ) ;
#48 = LOCAL_TIME ( 10, 52, 50.00000000000000000, #269 ) ;
#49 = APPROVAL_PERSON_ORGANIZATION ( #162, #300, #119 ) ;
#50 = CIRCLE ( 'NONE', #254, 6.999999999999999100 ) ;
#51 = DIRECTION ( 'NONE',  ( 0.0000000000000000000, 1.000000000000000000, 0.0000000000000000000 ) ) ;
#52 = AXIS2_PLACEMENT_3D ( 'NONE', #205, #170, #134 ) ;
#53 = CARTESIAN_POINT ( 'NONE',  ( 3.367778697655221000E-016, 0.0000000000000000000, 2.750000000000000000 ) ) ;
#54 = PERSON_AND_ORGANIZATION_ROLE ( 'classification_officer' ) ;
#55 = ADVANCED_FACE ( 'NONE', ( #9 ), #171, .F. ) ;
#56 = FACE_OUTER_BOUND ( 'NONE', #191, .T. ) ;
#57 = DIRECTION ( 'NONE',  ( -1.000000000000000000, 0.0000000000000000000, 0.0000000000000000000 ) ) ;
#58 = EDGE_CURVE ( 'NONE', #270, #91, #29, .T. ) ;
#59 = COORDINATED_UNIVERSAL_TIME_OFFSET ( 9, 0, .AHEAD. ) ;
#60 = EDGE_LOOP ( 'NONE', ( #16, #127, #238, #66 ) ) ;
#61 = PERSON ( 'UNSPECIFIED', 'UNSPECIFIED', 'UNSPECIFIED', ('UNSPECIFIED'), ('UNSPECIFIED'), ('UNSPECIFIED') ) ;
#62 = CALENDAR_DATE ( 2017, 18, 8 ) ;
#63 = ORIENTED_EDGE ( 'NONE', *, *, #286, .F. ) ;
#64 = DATE_AND_TIME ( #62, #48 ) ;
#65 = DIRECTION ( 'NONE',  ( 0.0000000000000000000, 0.0000000000000000000, -1.000000000000000000 ) ) ;
#66 = ORIENTED_EDGE ( 'NONE', *, *, #78, .T. ) ;
#67 = PERSON_AND_ORGANIZATION_ROLE ( 'design_supplier' ) ;
#68 = AXIS2_PLACEMENT_3D ( 'NONE', #164, #57, #77 ) ;
#69 = DIRECTION ( 'NONE',  ( 0.0000000000000000000, 0.0000000000000000000, -1.000000000000000000 ) ) ;
#70 = CC_DESIGN_APPROVAL ( #300, ( #276 ) ) ;
#71 = COORDINATED_UNIVERSAL_TIME_OFFSET ( 9, 0, .AHEAD. ) ;
#72 = DIRECTION ( 'NONE',  ( 0.0000000000000000000, 0.0000000000000000000, -1.000000000000000000 ) ) ;
#73 = ORIENTED_EDGE ( 'NONE', *, *, #306, .T. ) ;
#74 = CIRCLE ( 'NONE', #47, 6.999999999999999100 ) ;
#75 = EDGE_LOOP ( 'NONE', ( #310, #42, #83, #244 ) ) ;
#76 = AXIS2_PLACEMENT_3D ( 'NONE', #201, #234, #305 ) ;
#77 = DIRECTION ( 'NONE',  ( 0.0000000000000000000, 0.0000000000000000000, 1.000000000000000000 ) ) ;
#78 = EDGE_CURVE ( 'NONE', #101, #206, #138, .T. ) ;
#79 = DIRECTION ( 'NONE',  ( 0.0000000000000000000, -1.000000000000000000, -0.0000000000000000000 ) ) ;
#80 = EDGE_CURVE ( 'NONE', #218, #261, #26, .T. ) ;
#81 = ADVANCED_FACE ( 'NONE', ( #94 ), #194, .F. ) ;
#82 = DIRECTION ( 'NONE',  ( 0.0000000000000000000, 0.0000000000000000000, -1.000000000000000000 ) ) ;
#83 = ORIENTED_EDGE ( 'NONE', *, *, #80, .F. ) ;
#84 = ORIENTED_EDGE ( 'NONE', *, *, #160, .F. ) ;
#85 = AXIS2_PLACEMENT_3D ( 'NONE', #231, #240, #136 ) ;
#86 = DIRECTION ( 'NONE',  ( 0.0000000000000000000, 0.0000000000000000000, 1.000000000000000000 ) ) ;
#87 = CARTESIAN_POINT ( 'NONE',  ( 0.0000000000000000000, 0.2728219713410704500, -6.999999999999999100 ) ) ;
#88 = DIRECTION ( 'NONE',  ( 0.0000000000000000000, 0.0000000000000000000, -1.000000000000000000 ) ) ;
#89 = AXIS2_PLACEMENT_3D ( 'NONE', #321, #165, #267 ) ;
#90 = VERTEX_POINT ( 'NONE', #180 ) ;
#91 = VERTEX_POINT ( 'NONE', #265 ) ;
#92 = DIRECTION ( 'NONE',  ( -0.0000000000000000000, -1.000000000000000000, -0.0000000000000000000 ) ) ;
#93 = CC_DESIGN_PERSON_AND_ORGANIZATION_ASSIGNMENT ( #290, #19, ( #276 ) ) ;
#94 = FACE_OUTER_BOUND ( 'NONE', #45, .T. ) ;
#95 = CARTESIAN_POINT ( 'NONE',  ( 0.0000000000000000000, 0.2728219713410704500, 0.0000000000000000000 ) ) ;
#96 = CC_DESIGN_PERSON_AND_ORGANIZATION_ASSIGNMENT ( #281, #67, ( #6 ) ) ;
#97 = CALENDAR_DATE ( 2017, 18, 8 ) ;
#98 = CC_DESIGN_DATE_AND_TIME_ASSIGNMENT ( #294, #143, ( #276 ) ) ;
#99 = CIRCLE ( 'NONE', #188, 5.250000000000000000 ) ;
#100 = DIRECTION ( 'NONE',  ( -0.0000000000000000000, -1.000000000000000000, -0.0000000000000000000 ) ) ;
#101 = VERTEX_POINT ( 'NONE', #303 ) ;
#102 = SHAPE_DEFINITION_REPRESENTATION ( #278, #183 ) ;
#103 = CYLINDRICAL_SURFACE ( 'NONE', #85, 6.999999999999999100 ) ;
#104 = COORDINATED_UNIVERSAL_TIME_OFFSET ( 9, 0, .AHEAD. ) ;
#105 = DIRECTION ( 'NONE',  ( 0.0000000000000000000, 0.0000000000000000000, -1.000000000000000000 ) ) ;
#106 = AXIS2_PLACEMENT_3D ( 'NONE', #199, #129, #174 ) ;
#107 = DIRECTION ( 'NONE',  ( -0.0000000000000000000, -1.000000000000000000, -0.0000000000000000000 ) ) ;
#108 = ORIENTED_EDGE ( 'NONE', *, *, #292, .T. ) ;
#109 = APPROVAL_STATUS ( 'not_yet_approved' ) ;
#110 =( NAMED_UNIT ( * ) SI_UNIT ( $, .STERADIAN. ) SOLID_ANGLE_UNIT ( ) );
#111 = APPROVAL_ROLE ( '' ) ;
#112 = AXIS2_PLACEMENT_3D ( 'NONE', #215, #250, #285 ) ;
#113 = CARTESIAN_POINT ( 'NONE',  ( 0.0000000000000000000, 0.4999999999999705200, 0.0000000000000000000 ) ) ;
#114 = DIRECTION ( 'NONE',  ( 8.659560562354883600E-017, 0.7071067811865516800, -0.7071067811865434600 ) ) ;
#115 = APPROVAL_STATUS ( 'not_yet_approved' ) ;
#116 = DIRECTION ( 'NONE',  ( -0.0000000000000000000, -1.000000000000000000, -0.0000000000000000000 ) ) ;
#117 = TOROIDAL_SURFACE ( 'NONE', #34, 3.999999999999998200, 3.000000000000001300 ) ;
#118 = ORIENTED_EDGE ( 'NONE', *, *, #160, .T. ) ;
#119 = APPROVAL_ROLE ( '' ) ;
#120 = AXIS2_PLACEMENT_3D ( 'NONE', #113, #146, #182 ) ;
#121 = EDGE_CURVE ( 'NONE', #289, #218, #169, .T. ) ;
#122 = ORIENTED_EDGE ( 'NONE', *, *, #58, .T. ) ;
#123 = EDGE_CURVE ( 'NONE', #91, #270, #245, .T. ) ;
#124 = ORIENTED_EDGE ( 'NONE', *, *, #225, .F. ) ;
#125 = ADVANCED_FACE ( 'NONE', ( #56 ), #103, .T. ) ;
#126 = DIRECTION ( 'NONE',  ( -0.0000000000000000000, -1.000000000000000000, -0.0000000000000000000 ) ) ;
#127 = ORIENTED_EDGE ( 'NONE', *, *, #123, .F. ) ;
#128 = VECTOR ( 'NONE', #208, 1000.000000000000000 ) ;
#129 = DIRECTION ( 'NONE',  ( -0.0000000000000000000, -1.000000000000000000, -0.0000000000000000000 ) ) ;
#130 = AXIS2_PLACEMENT_3D ( 'NONE', #40, #79, #105 ) ;
#131 = CLOSED_SHELL ( 'NONE', ( #125, #252, #81, #153, #282, #55, #7, #14, #316 ) ) ;
#132 = CARTESIAN_POINT ( 'NONE',  ( 0.0000000000000000000, 0.0000000000000000000, -6.999999999999999100 ) ) ;
#133 = ORIENTED_EDGE ( 'NONE', *, *, #255, .F. ) ;
#134 = DIRECTION ( 'NONE',  ( 1.000000000000000000, 0.0000000000000000000, 0.0000000000000000000 ) ) ;
#135 = ORIENTED_EDGE ( 'NONE', *, *, #237, .F. ) ;
#136 = DIRECTION ( 'NONE',  ( 0.0000000000000000000, 0.0000000000000000000, -1.000000000000000000 ) ) ;
#137 = LINE ( 'NONE', #177, #128 ) ;
#138 = CIRCLE ( 'NONE', #112, 2.750000000000000000 ) ;
#139 = CARTESIAN_POINT ( 'NONE',  ( 0.0000000000000000000, -2.426425630146278300, 0.0000000000000000000 ) ) ;
#140 = EDGE_LOOP ( 'NONE', ( #283, #167, #179, #20 ) ) ;
#141 = LOCAL_TIME ( 10, 52, 50.00000000000000000, #71 ) ;
#142 = ORIENTED_EDGE ( 'NONE', *, *, #58, .F. ) ;
#143 = DATE_TIME_ROLE ( 'creation_date' ) ;
#144 = APPROVAL_PERSON_ORGANIZATION ( #28, #145, #275 ) ;
#145 = APPROVAL ( #109, 'UNSPECIFIED' ) ;
#146 = DIRECTION ( 'NONE',  ( -0.0000000000000000000, -1.000000000000000000, -0.0000000000000000000 ) ) ;
#147 = LOCAL_TIME ( 10, 52, 50.00000000000000000, #104 ) ;
#148 = AXIS2_PLACEMENT_3D ( 'NONE', #23, #51, #86 ) ;
#149 = PRODUCT_RELATED_PRODUCT_CATEGORY ( 'detail', '', ( #256 ) ) ;
#150 = CARTESIAN_POINT ( 'NONE',  ( 6.429395695523604200E-016, 3.000000000000000000, -5.250000000000000000 ) ) ;
#151 = COORDINATED_UNIVERSAL_TIME_OFFSET ( 9, 0, .AHEAD. ) ;
#152 = CARTESIAN_POINT ( 'NONE',  ( 0.0000000000000000000, -2.426425630146278300, 0.0000000000000000000 ) ) ;
#153 = ADVANCED_FACE ( 'NONE', ( #38 ), #117, .T. ) ;
#154 = AXIS2_PLACEMENT_3D ( 'NONE', #152, #116, #88 ) ;
#155 = EDGE_CURVE ( 'NONE', #258, #273, #74, .T. ) ;
#156 = PLANE ( 'NONE',  #130 ) ;
#157 = EDGE_LOOP ( 'NONE', ( #133, #73, #299, #236 ) ) ;
#158 = CARTESIAN_POINT ( 'NONE',  ( 8.572527594031472200E-016, -2.426425630146278300, 6.999999999999999100 ) ) ;
#159 = ORIENTED_EDGE ( 'NONE', *, *, #32, .F. ) ;
#160 = EDGE_CURVE ( 'NONE', #206, #101, #271, .T. ) ;
#161 = VECTOR ( 'NONE', #186, 1000.000000000000000 ) ;
#162 = PERSON_AND_ORGANIZATION ( #61, #39 ) ;
#163 = FACE_OUTER_BOUND ( 'NONE', #60, .T. ) ;
#164 = CARTESIAN_POINT ( 'NONE',  ( 0.0000000000000000000, 0.2728219713410704500, -3.999999999999998200 ) ) ;
#165 = DIRECTION ( 'NONE',  ( -0.0000000000000000000, -1.000000000000000000, -0.0000000000000000000 ) ) ;
#166 = CARTESIAN_POINT ( 'NONE',  ( 0.0000000000000000000, 0.4999999999999705200, 2.750000000000000000 ) ) ;
#167 = ORIENTED_EDGE ( 'NONE', *, *, #308, .T. ) ;
#168 = DATE_AND_TIME ( #216, #4 ) ;
#169 = CIRCLE ( 'NONE', #68, 3.000000000000001300 ) ;
#170 = DIRECTION ( 'NONE',  ( 0.0000000000000000000, 0.0000000000000000000, 1.000000000000000000 ) ) ;
#171 = CONICAL_SURFACE ( 'NONE', #148, 5.250000000000000000, 0.7853981633974425100 ) ;
#172 = ORIENTED_EDGE ( 'NONE', *, *, #15, .T. ) ;
#173 = PERSON_AND_ORGANIZATION ( #61, #39 ) ;
#174 = DIRECTION ( 'NONE',  ( 0.0000000000000000000, 0.0000000000000000000, -1.000000000000000000 ) ) ;
#175 = LOCAL_TIME ( 10, 52, 50.00000000000000000, #151 ) ;
#176 = EDGE_CURVE ( 'NONE', #91, #289, #184, .T. ) ;
#177 = CARTESIAN_POINT ( 'NONE',  ( 3.367778697655221000E-016, -2.426425630146278300, 2.750000000000000000 ) ) ;
#178 = DIRECTION ( 'NONE',  ( -0.0000000000000000000, -1.000000000000000000, -0.0000000000000000000 ) ) ;
#179 = ORIENTED_EDGE ( 'NONE', *, *, #225, .T. ) ;
#180 = CARTESIAN_POINT ( 'NONE',  ( 7.500961644777537700E-016, 3.000000000000000000, 5.250000000000000000 ) ) ;
#181 = FACE_OUTER_BOUND ( 'NONE', #140, .T. ) ;
#182 = DIRECTION ( 'NONE',  ( 0.0000000000000000000, 0.0000000000000000000, -1.000000000000000000 ) ) ;
#183 = ADVANCED_BREP_SHAPE_REPRESENTATION ( 'C-29-M5', ( #227, #52 ), #31 ) ;
#184 = LINE ( 'NONE', #150, #312 ) ;
#185 = APPROVAL_DATE_TIME ( #13, #200 ) ;
#186 = DIRECTION ( 'NONE',  ( 0.0000000000000000000, 0.7071067811865516800, 0.7071067811865434600 ) ) ;
#187 = PERSON_AND_ORGANIZATION_ROLE ( 'creator' ) ;
#188 = AXIS2_PLACEMENT_3D ( 'NONE', #260, #92, #65 ) ;
#189 = DIRECTION ( 'NONE',  ( -0.0000000000000000000, -1.000000000000000000, -0.0000000000000000000 ) ) ;
#190 = AXIS2_PLACEMENT_3D ( 'NONE', #241, #277, #314 ) ;
#191 = EDGE_LOOP ( 'NONE', ( #210, #108, #63, #124 ) ) ;
#192 = LINE ( 'NONE', #158, #196 ) ;
#193 = ORIENTED_EDGE ( 'NONE', *, *, #123, .T. ) ;
#194 = CONICAL_SURFACE ( 'NONE', #76, 5.250000000000000000, 0.7853981633974425100 ) ;
#195 = SECURITY_CLASSIFICATION_LEVEL ( 'unclassified' ) ;
#196 = VECTOR ( 'NONE', #126, 1000.000000000000000 ) ;
#197 = APPLICATION_PROTOCOL_DEFINITION ( 'international standard', 'config_control_design', 1994, #233 ) ;
#198 = CC_DESIGN_DATE_AND_TIME_ASSIGNMENT ( #64, #46, ( #264 ) ) ;
#199 = CARTESIAN_POINT ( 'NONE',  ( 0.0000000000000000000, 0.4999999999999705200, 0.0000000000000000000 ) ) ;
#200 = APPROVAL ( #115, 'UNSPECIFIED' ) ;
#201 = CARTESIAN_POINT ( 'NONE',  ( 0.0000000000000000000, 3.000000000000000000, 0.0000000000000000000 ) ) ;
#202 = TOROIDAL_SURFACE ( 'NONE', #247, 3.999999999999998200, 3.000000000000001300 ) ;
#203 = CARTESIAN_POINT ( 'NONE',  ( 8.572527594031472200E-016, 0.2728219713410704500, 6.999999999999999100 ) ) ;
#204 = ORIENTED_EDGE ( 'NONE', *, *, #286, .T. ) ;
#205 = CARTESIAN_POINT ( 'NONE',  ( 0.0000000000000000000, 0.0000000000000000000, 0.0000000000000000000 ) ) ;
#206 = VERTEX_POINT ( 'NONE', #53 ) ;
#207 = DIRECTION ( 'NONE',  ( -0.0000000000000000000, -1.000000000000000000, -0.0000000000000000000 ) ) ;
#208 = DIRECTION ( 'NONE',  ( -0.0000000000000000000, -1.000000000000000000, -0.0000000000000000000 ) ) ;
#209 = CARTESIAN_POINT ( 'NONE',  ( 0.0000000000000000000, -2.426425630146278300, -2.750000000000000000 ) ) ;
#210 = ORIENTED_EDGE ( 'NONE', *, *, #80, .T. ) ;
#211 =( NAMED_UNIT ( * ) PLANE_ANGLE_UNIT ( ) SI_UNIT ( $, .RADIAN. ) );
#212 = EDGE_LOOP ( 'NONE', ( #204, #280 ) ) ;
#213 = CYLINDRICAL_SURFACE ( 'NONE', #154, 6.999999999999999100 ) ;
#214 = CC_DESIGN_APPROVAL ( #200, ( #6 ) ) ;
#215 = CARTESIAN_POINT ( 'NONE',  ( 0.0000000000000000000, 0.0000000000000000000, 0.0000000000000000000 ) ) ;
#216 = CALENDAR_DATE ( 2017, 18, 8 ) ;
#217 = DIRECTION ( 'NONE',  ( 0.0000000000000000000, 0.0000000000000000000, -1.000000000000000000 ) ) ;
#218 = VERTEX_POINT ( 'NONE', #87 ) ;
#219 = CARTESIAN_POINT ( 'NONE',  ( 0.0000000000000000000, 3.000000000000000000, 5.250000000000000000 ) ) ;
#220 = CIRCLE ( 'NONE', #263, 3.000000000000001300 ) ;
#221 = APPROVAL_DATE_TIME ( #168, #145 ) ;
#222 = AXIS2_PLACEMENT_3D ( 'NONE', #33, #1, #293 ) ;
#223 = CARTESIAN_POINT ( 'NONE',  ( 0.0000000000000000000, 0.0000000000000000000, 0.0000000000000000000 ) ) ;
#224 = CYLINDRICAL_SURFACE ( 'NONE', #296, 2.750000000000000000 ) ;
#225 = EDGE_CURVE ( 'NONE', #218, #273, #24, .T. ) ;
#226 = CC_DESIGN_SECURITY_CLASSIFICATION ( #264, ( #6 ) ) ;
#227 = MANIFOLD_SOLID_BREP ( '‰ñ“]1', #131 ) ;
#228 = CARTESIAN_POINT ( 'NONE',  ( 0.0000000000000000000, 3.000000000000000000, -5.250000000000000000 ) ) ;
#229 = ORIENTED_EDGE ( 'NONE', *, *, #176, .F. ) ;
#230 = PERSON_AND_ORGANIZATION_ROLE ( 'design_owner' ) ;
#231 = CARTESIAN_POINT ( 'NONE',  ( 0.0000000000000000000, -2.426425630146278300, 0.0000000000000000000 ) ) ;
#232 = APPLICATION_CONTEXT ( 'configuration controlled 3d designs of mechanical parts and assemblies' ) ;
#233 = APPLICATION_CONTEXT ( 'configuration controlled 3d designs of mechanical parts and assemblies' ) ;
#234 = DIRECTION ( 'NONE',  ( 0.0000000000000000000, 1.000000000000000000, 0.0000000000000000000 ) ) ;
#235 = CARTESIAN_POINT ( 'NONE',  ( 8.572527594031472200E-016, 0.0000000000000000000, 6.999999999999999100 ) ) ;
#236 = ORIENTED_EDGE ( 'NONE', *, *, #308, .F. ) ;
#237 = EDGE_CURVE ( 'NONE', #91, #101, #243, .T. ) ;
#238 = ORIENTED_EDGE ( 'NONE', *, *, #237, .T. ) ;
#239 = FACE_OUTER_BOUND ( 'NONE', #157, .T. ) ;
#240 = DIRECTION ( 'NONE',  ( -0.0000000000000000000, -1.000000000000000000, -0.0000000000000000000 ) ) ;
#241 = CARTESIAN_POINT ( 'NONE',  ( 0.0000000000000000000, 3.000000000000000000, 0.0000000000000000000 ) ) ;
#242 = FACE_OUTER_BOUND ( 'NONE', #212, .T. ) ;
#243 = LINE ( 'NONE', #209, #274 ) ;
#244 = ORIENTED_EDGE ( 'NONE', *, *, #121, .F. ) ;
#245 = CIRCLE ( 'NONE', #106, 2.750000000000000000 ) ;
#246 = ORIENTED_EDGE ( 'NONE', *, *, #313, .T. ) ;
#247 = AXIS2_PLACEMENT_3D ( 'NONE', #268, #100, #72 ) ;
#248 = DIRECTION ( 'NONE',  ( -0.0000000000000000000, -1.000000000000000000, -0.0000000000000000000 ) ) ;
#249 = CALENDAR_DATE ( 2017, 18, 8 ) ;
#250 = DIRECTION ( 'NONE',  ( -0.0000000000000000000, -1.000000000000000000, -0.0000000000000000000 ) ) ;
#251 = DIRECTION ( 'NONE',  ( -0.0000000000000000000, -1.000000000000000000, -0.0000000000000000000 ) ) ;
#252 = ADVANCED_FACE ( 'NONE', ( #302 ), #284, .F. ) ;
#253 = LINE ( 'NONE', #219, #161 ) ;
#254 = AXIS2_PLACEMENT_3D ( 'NONE', #35, #11, #298 ) ;
#255 = EDGE_CURVE ( 'NONE', #90, #261, #220, .T. ) ;
#256 = PRODUCT ( 'C-29-M5', 'C-29-M5', '', ( #301 ) ) ;
#257 = CC_DESIGN_APPROVAL ( #145, ( #264 ) ) ;
#258 = VERTEX_POINT ( 'NONE', #235 ) ;
#259 = UNCERTAINTY_MEASURE_WITH_UNIT (LENGTH_MEASURE( 1.000000000000000100E-005 ), #317, 'distance_accuracy_value', 'NONE');
#260 = CARTESIAN_POINT ( 'NONE',  ( 0.0000000000000000000, 3.000000000000000000, 0.0000000000000000000 ) ) ;
#261 = VERTEX_POINT ( 'NONE', #203 ) ;
#262 = PERSON_AND_ORGANIZATION ( #61, #39 ) ;
#263 = AXIS2_PLACEMENT_3D ( 'NONE', #41, #17, #309 ) ;
#264 = SECURITY_CLASSIFICATION ( '', '', #195 ) ;
#265 = CARTESIAN_POINT ( 'NONE',  ( 4.898587196589412800E-016, 0.4999999999999705200, -2.750000000000000000 ) ) ;
#266 = CALENDAR_DATE ( 2017, 18, 8 ) ;
#267 = DIRECTION ( 'NONE',  ( 0.0000000000000000000, 0.0000000000000000000, -1.000000000000000000 ) ) ;
#268 = CARTESIAN_POINT ( 'NONE',  ( 0.0000000000000000000, 0.2728219713410704500, 0.0000000000000000000 ) ) ;
#269 = COORDINATED_UNIVERSAL_TIME_OFFSET ( 9, 0, .AHEAD. ) ;
#270 = VERTEX_POINT ( 'NONE', #166 ) ;
#271 = CIRCLE ( 'NONE', #22, 2.750000000000000000 ) ;
#272 = APPLICATION_PROTOCOL_DEFINITION ( 'international standard', 'config_control_design', 1994, #232 ) ;
#273 = VERTEX_POINT ( 'NONE', #132 ) ;
#274 = VECTOR ( 'NONE', #178, 1000.000000000000000 ) ;
#275 = APPROVAL_ROLE ( '' ) ;
#276 = PRODUCT_DEFINITION ( 'UNKNOWN', '', #6, #291 ) ;
#277 = DIRECTION ( 'NONE',  ( -0.0000000000000000000, -1.000000000000000000, -0.0000000000000000000 ) ) ;
#278 = PRODUCT_DEFINITION_SHAPE ( 'NONE', 'NONE',  #276 ) ;
#279 = DIRECTION ( 'NONE',  ( -0.0000000000000000000, -1.000000000000000000, -0.0000000000000000000 ) ) ;
#280 = ORIENTED_EDGE ( 'NONE', *, *, #155, .T. ) ;
#281 = PERSON_AND_ORGANIZATION ( #61, #39 ) ;
#282 = ADVANCED_FACE ( 'NONE', ( #239 ), #202, .T. ) ;
#283 = ORIENTED_EDGE ( 'NONE', *, *, #292, .F. ) ;
#284 = CYLINDRICAL_SURFACE ( 'NONE', #320, 2.750000000000000000 ) ;
#285 = DIRECTION ( 'NONE',  ( 0.0000000000000000000, 0.0000000000000000000, -1.000000000000000000 ) ) ;
#286 = EDGE_CURVE ( 'NONE', #273, #258, #50, .T. ) ;
#287 = APPROVAL_PERSON_ORGANIZATION ( #173, #200, #111 ) ;
#288 = CARTESIAN_POINT ( 'NONE',  ( 0.0000000000000000000, 0.0000000000000000000, 0.0000000000000000000 ) ) ;
#289 = VERTEX_POINT ( 'NONE', #228 ) ;
#290 = PERSON_AND_ORGANIZATION ( #61, #39 ) ;
#291 = DESIGN_CONTEXT ( 'detailed design', #233, 'design' ) ;
#292 = EDGE_CURVE ( 'NONE', #261, #258, #192, .T. ) ;
#293 = DIRECTION ( 'NONE',  ( 0.0000000000000000000, 0.0000000000000000000, -1.000000000000000000 ) ) ;
#294 = DATE_AND_TIME ( #97, #147 ) ;
#295 = VECTOR ( 'NONE', #279, 1000.000000000000000 ) ;
#296 = AXIS2_PLACEMENT_3D ( 'NONE', #30, #189, #8 ) ;
#297 = DIRECTION ( 'NONE',  ( 0.0000000000000000000, 0.0000000000000000000, -1.000000000000000000 ) ) ;
#298 = DIRECTION ( 'NONE',  ( 0.0000000000000000000, 0.0000000000000000000, -1.000000000000000000 ) ) ;
#299 = ORIENTED_EDGE ( 'NONE', *, *, #121, .T. ) ;
#300 = APPROVAL ( #25, 'UNSPECIFIED' ) ;
#301 = MECHANICAL_CONTEXT ( 'NONE', #232, 'mechanical' ) ;
#302 = FACE_OUTER_BOUND ( 'NONE', #18, .T. ) ;
#303 = CARTESIAN_POINT ( 'NONE',  ( 0.0000000000000000000, 0.0000000000000000000, -2.750000000000000000 ) ) ;
#304 = CC_DESIGN_PERSON_AND_ORGANIZATION_ASSIGNMENT ( #43, #54, ( #264 ) ) ;
#305 = DIRECTION ( 'NONE',  ( 0.0000000000000000000, 0.0000000000000000000, 1.000000000000000000 ) ) ;
#306 = EDGE_CURVE ( 'NONE', #90, #289, #99, .T. ) ;
#307 = FACE_BOUND ( 'NONE', #36, .T. ) ;
#308 = EDGE_CURVE ( 'NONE', #261, #218, #5, .T. ) ;
#309 = DIRECTION ( 'NONE',  ( -1.224646799147353200E-016, 0.0000000000000000000, -1.000000000000000000 ) ) ;
#310 = ORIENTED_EDGE ( 'NONE', *, *, #32, .T. ) ;
#311 = ORIENTED_EDGE ( 'NONE', *, *, #78, .F. ) ;
#312 = VECTOR ( 'NONE', #114, 1000.000000000000000 ) ;
#313 = EDGE_CURVE ( 'NONE', #270, #90, #253, .T. ) ;
#314 = DIRECTION ( 'NONE',  ( 0.0000000000000000000, 0.0000000000000000000, -1.000000000000000000 ) ) ;
#315 = CARTESIAN_POINT ( 'NONE',  ( 0.0000000000000000000, -2.426425630146278300, -6.999999999999999100 ) ) ;
#316 = ADVANCED_FACE ( 'NONE', ( #181 ), #213, .T. ) ;
#317 =( LENGTH_UNIT ( ) NAMED_UNIT ( * ) SI_UNIT ( .MILLI., .METRE. ) );
#318 = ORIENTED_EDGE ( 'NONE', *, *, #313, .F. ) ;
#319 = DATE_AND_TIME ( #249, #141 ) ;
#320 = AXIS2_PLACEMENT_3D ( 'NONE', #139, #107, #82 ) ;
#321 = CARTESIAN_POINT ( 'NONE',  ( 0.0000000000000000000, 0.2728219713410704500, 0.0000000000000000000 ) ) ;
ENDSEC;
END-ISO-10303-21;
