ISO-10303-21;
HEADER;
FILE_DESCRIPTION (( 'STEP AP203' ),
    '1' );
FILE_NAME ('C-29-M4.STEP',
    '2017-08-18T01:35:11',
    ( '' ),
    ( '' ),
    'SwSTEP 2.0',
    'SolidWorks 2014',
    '' );
FILE_SCHEMA (( 'CONFIG_CONTROL_DESIGN' ));
ENDSEC;

DATA;
#1 = APPROVAL ( #251, 'UNSPECIFIED' ) ;
#2 = ORIENTED_EDGE ( 'NONE', *, *, #90, .T. ) ;
#3 = CARTESIAN_POINT ( 'NONE',  ( 0.0000000000000000000, 0.1143309780060137900, 0.0000000000000000000 ) ) ;
#4 = CARTESIAN_POINT ( 'NONE',  ( 0.0000000000000000000, 2.500000000000000400, -4.250000000000000000 ) ) ;
#5 = PERSON_AND_ORGANIZATION_ROLE ( 'creator' ) ;
#6 = EDGE_LOOP ( 'NONE', ( #201, #244, #266, #184 ) ) ;
#7 = EDGE_CURVE ( 'NONE', #199, #79, #71, .T. ) ;
#8 = ORIENTED_EDGE ( 'NONE', *, *, #195, .T. ) ;
#9 = VERTEX_POINT ( 'NONE', #4 ) ;
#10 = DIRECTION ( 'NONE',  ( -0.0000000000000000000, -1.000000000000000000, -0.0000000000000000000 ) ) ;
#11 = PERSON_AND_ORGANIZATION ( #64, #258 ) ;
#12 = DIRECTION ( 'NONE',  ( -0.0000000000000000000, -1.000000000000000000, -0.0000000000000000000 ) ) ;
#13 = EDGE_CURVE ( 'NONE', #140, #222, #37, .T. ) ;
#14 = DATE_AND_TIME ( #193, #239 ) ;
#15 = PRODUCT ( 'C-29-M4', 'C-29-M4', '', ( #226 ) ) ;
#16 = ADVANCED_FACE ( 'NONE', ( #60 ), #218, .F. ) ;
#17 = EDGE_LOOP ( 'NONE', ( #213, #269 ) ) ;
#18 = DIRECTION ( 'NONE',  ( 0.0000000000000000000, 0.0000000000000000000, 1.000000000000000000 ) ) ;
#19 = DIRECTION ( 'NONE',  ( 0.0000000000000000000, 0.0000000000000000000, -1.000000000000000000 ) ) ;
#20 = ADVANCED_BREP_SHAPE_REPRESENTATION ( 'C-29-M4', ( #118, #196 ), #99 ) ;
#21 = PERSON_AND_ORGANIZATION_ROLE ( 'creator' ) ;
#22 = CARTESIAN_POINT ( 'NONE',  ( 0.0000000000000000000, -2.708207260815279800, 0.0000000000000000000 ) ) ;
#23 = EDGE_LOOP ( 'NONE', ( #248, #219, #178, #161 ) ) ;
#24 = FACE_OUTER_BOUND ( 'NONE', #169, .T. ) ;
#25 = APPROVAL_ROLE ( '' ) ;
#26 = CC_DESIGN_DATE_AND_TIME_ASSIGNMENT ( #171, #128, ( #233 ) ) ;
#27 = PERSON_AND_ORGANIZATION ( #64, #258 ) ;
#28 = ORIENTED_EDGE ( 'NONE', *, *, #194, .F. ) ;
#29 = DIRECTION ( 'NONE',  ( -0.0000000000000000000, -1.000000000000000000, -0.0000000000000000000 ) ) ;
#30 = DIRECTION ( 'NONE',  ( 0.0000000000000000000, 0.0000000000000000000, 1.000000000000000000 ) ) ;
#31 = SECURITY_CLASSIFICATION_LEVEL ( 'unclassified' ) ;
#32 = ORIENTED_EDGE ( 'NONE', *, *, #249, .T. ) ;
#33 = CC_DESIGN_APPROVAL ( #1, ( #233 ) ) ;
#34 = CIRCLE ( 'NONE', #102, 2.499999999999999100 ) ;
#35 =( NAMED_UNIT ( * ) SI_UNIT ( $, .STERADIAN. ) SOLID_ANGLE_UNIT ( ) );
#36 = CONICAL_SURFACE ( 'NONE', #237, 4.250000000000000000, 0.7853981633974499400 ) ;
#37 = CIRCLE ( 'NONE', #192, 6.000000000000000000 ) ;
#38 = ORIENTED_EDGE ( 'NONE', *, *, #243, .T. ) ;
#39 = EDGE_CURVE ( 'NONE', #199, #45, #48, .T. ) ;
#40 =( NAMED_UNIT ( * ) PLANE_ANGLE_UNIT ( ) SI_UNIT ( $, .RADIAN. ) );
#41 = COORDINATED_UNIVERSAL_TIME_OFFSET ( 9, 0, .AHEAD. ) ;
#42 = PRODUCT_DEFINITION_SHAPE ( 'NONE', 'NONE',  #233 ) ;
#43 = EDGE_LOOP ( 'NONE', ( #188, #38, #190, #132 ) ) ;
#44 = VECTOR ( 'NONE', #146, 1000.000000000000000 ) ;
#45 = VERTEX_POINT ( 'NONE', #67 ) ;
#46 = AXIS2_PLACEMENT_3D ( 'NONE', #65, #73, #82 ) ;
#47 = DIRECTION ( 'NONE',  ( 0.0000000000000000000, 0.0000000000000000000, -1.000000000000000000 ) ) ;
#48 = LINE ( 'NONE', #52, #254 ) ;
#49 = VECTOR ( 'NONE', #105, 999.9999999999998900 ) ;
#50 = CARTESIAN_POINT ( 'NONE',  ( 0.0000000000000000000, 0.1143309780060137900, 0.0000000000000000000 ) ) ;
#51 = CLOSED_SHELL ( 'NONE', ( #16, #154, #221, #247, #181, #205, #250 ) ) ;
#52 = CARTESIAN_POINT ( 'NONE',  ( 2.755455298081544300E-016, -2.708207260815279800, 2.250000000000000000 ) ) ;
#53 = EDGE_CURVE ( 'NONE', #56, #45, #257, .T. ) ;
#54 = CARTESIAN_POINT ( 'NONE',  ( 7.347880794884119700E-016, 6.776263578034402700E-018, 6.000000000000000000 ) ) ;
#55 = ORIENTED_EDGE ( 'NONE', *, *, #267, .F. ) ;
#56 = VERTEX_POINT ( 'NONE', #98 ) ;
#57 = ORIENTED_EDGE ( 'NONE', *, *, #223, .F. ) ;
#58 = FACE_OUTER_BOUND ( 'NONE', #23, .T. ) ;
#59 = DIRECTION ( 'NONE',  ( 0.0000000000000000000, 0.0000000000000000000, -1.000000000000000000 ) ) ;
#60 = FACE_OUTER_BOUND ( 'NONE', #6, .T. ) ;
#61 = ORIENTED_EDGE ( 'NONE', *, *, #243, .F. ) ;
#62 = DIRECTION ( 'NONE',  ( -0.0000000000000000000, -1.000000000000000000, -0.0000000000000000000 ) ) ;
#63 = CARTESIAN_POINT ( 'NONE',  ( 0.0000000000000000000, 2.500000000000000400, 4.250000000000000000 ) ) ;
#64 = PERSON ( 'UNSPECIFIED', 'UNSPECIFIED', 'UNSPECIFIED', ('UNSPECIFIED'), ('UNSPECIFIED'), ('UNSPECIFIED') ) ;
#65 = CARTESIAN_POINT ( 'NONE',  ( 0.0000000000000000000, 0.0000000000000000000, 0.0000000000000000000 ) ) ;
#66 = FACE_BOUND ( 'NONE', #17, .T. ) ;
#67 = CARTESIAN_POINT ( 'NONE',  ( 2.755455298081544300E-016, 0.0000000000000000000, 2.250000000000000000 ) ) ;
#68 = DIRECTION ( 'NONE',  ( -0.0000000000000000000, -1.000000000000000000, -0.0000000000000000000 ) ) ;
#69 = EDGE_CURVE ( 'NONE', #9, #222, #265, .T. ) ;
#70 = AXIS2_PLACEMENT_3D ( 'NONE', #50, #139, #59 ) ;
#71 = CIRCLE ( 'NONE', #245, 2.250000000000000000 ) ;
#72 = DESIGN_CONTEXT ( 'detailed design', #101, 'design' ) ;
#73 = DIRECTION ( 'NONE',  ( -0.0000000000000000000, -1.000000000000000000, -0.0000000000000000000 ) ) ;
#74 = CARTESIAN_POINT ( 'NONE',  ( 4.289467084664842300E-016, 0.1143309780060137900, 3.502615682865734200 ) ) ;
#75 = FACE_OUTER_BOUND ( 'NONE', #159, .T. ) ;
#76 = EDGE_CURVE ( 'NONE', #79, #56, #89, .T. ) ;
#77 = CARTESIAN_POINT ( 'NONE',  ( 0.0000000000000000000, 6.776263578034402700E-018, -6.000000000000000000 ) ) ;
#78 = CARTESIAN_POINT ( 'NONE',  ( 2.250000000000000000, 8.131516293641283300E-017, 0.0000000000000000000 ) ) ;
#79 = VERTEX_POINT ( 'NONE', #114 ) ;
#80 = EDGE_LOOP ( 'NONE', ( #134, #61, #149, #260 ) ) ;
#81 = CARTESIAN_POINT ( 'NONE',  ( 6.276314845630185200E-016, 2.500000000000000400, 4.250000000000000000 ) ) ;
#82 = DIRECTION ( 'NONE',  ( 0.0000000000000000000, 0.0000000000000000000, -1.000000000000000000 ) ) ;
#83 = DIRECTION ( 'NONE',  ( 0.0000000000000000000, 0.0000000000000000000, -1.000000000000000000 ) ) ;
#84 = APPROVAL_ROLE ( '' ) ;
#85 = CIRCLE ( 'NONE', #152, 2.250000000000000000 ) ;
#86 = CIRCLE ( 'NONE', #144, 2.250000000000000000 ) ;
#87 = DATE_AND_TIME ( #135, #241 ) ;
#88 = FACE_OUTER_BOUND ( 'NONE', #43, .T. ) ;
#89 = LINE ( 'NONE', #160, #44 ) ;
#90 = EDGE_CURVE ( 'NONE', #79, #9, #131, .T. ) ;
#91 = APPLICATION_PROTOCOL_DEFINITION ( 'international standard', 'config_control_design', 1994, #236 ) ;
#92 = UNCERTAINTY_MEASURE_WITH_UNIT (LENGTH_MEASURE( 1.000000000000000100E-005 ), #145, 'distance_accuracy_value', 'NONE');
#93 = VECTOR ( 'NONE', #96, 999.9999999999998900 ) ;
#94 = DIRECTION ( 'NONE',  ( -0.0000000000000000000, -1.000000000000000000, -0.0000000000000000000 ) ) ;
#95 = CARTESIAN_POINT ( 'NONE',  ( 0.0000000000000000000, 0.1143309780060137900, -3.502615682865734200 ) ) ;
#96 = DIRECTION ( 'NONE',  ( 0.0000000000000000000, 0.7071067811865463500, 0.7071067811865487900 ) ) ;
#97 = PERSON_AND_ORGANIZATION ( #64, #258 ) ;
#98 = CARTESIAN_POINT ( 'NONE',  ( 0.0000000000000000000, 0.0000000000000000000, -2.250000000000000000 ) ) ;
#99 =( GEOMETRIC_REPRESENTATION_CONTEXT ( 3 ) GLOBAL_UNCERTAINTY_ASSIGNED_CONTEXT ( ( #92 ) ) GLOBAL_UNIT_ASSIGNED_CONTEXT ( ( #145, #40, #35 ) ) REPRESENTATION_CONTEXT ( 'NONE', 'WORKASPACE' ) );
#100 = CALENDAR_DATE ( 2017, 18, 8 ) ;
#101 = APPLICATION_CONTEXT ( 'configuration controlled 3d designs of mechanical parts and assemblies' ) ;
#102 = AXIS2_PLACEMENT_3D ( 'NONE', #74, #121, #211 ) ;
#103 = DIRECTION ( 'NONE',  ( 0.0000000000000000000, 0.0000000000000000000, -1.000000000000000000 ) ) ;
#104 = DIRECTION ( 'NONE',  ( -1.000000000000000000, 0.0000000000000000000, 0.0000000000000000000 ) ) ;
#105 = DIRECTION ( 'NONE',  ( 8.659560562354948900E-017, 0.7071067811865463500, -0.7071067811865487900 ) ) ;
#106 = APPROVAL_DATE_TIME ( #87, #253 ) ;
#107 = DIRECTION ( 'NONE',  ( 0.0000000000000000000, 0.0000000000000000000, -1.000000000000000000 ) ) ;
#108 = PRODUCT_DEFINITION_FORMATION_WITH_SPECIFIED_SOURCE ( 'ANY', '', #15, .NOT_KNOWN. ) ;
#109 = CC_DESIGN_PERSON_AND_ORGANIZATION_ASSIGNMENT ( #11, #5, ( #233 ) ) ;
#110 = AXIS2_PLACEMENT_3D ( 'NONE', #129, #270, #18 ) ;
#111 = APPROVAL ( #202, 'UNSPECIFIED' ) ;
#112 = APPLICATION_PROTOCOL_DEFINITION ( 'international standard', 'config_control_design', 1994, #101 ) ;
#113 = DIRECTION ( 'NONE',  ( 0.0000000000000000000, 0.0000000000000000000, 1.000000000000000000 ) ) ;
#114 = CARTESIAN_POINT ( 'NONE',  ( 3.980102097228897700E-016, 0.5000000000000065500, -2.250000000000000000 ) ) ;
#115 = CARTESIAN_POINT ( 'NONE',  ( 0.0000000000000000000, 0.0000000000000000000, 0.0000000000000000000 ) ) ;
#116 = CARTESIAN_POINT ( 'NONE',  ( 0.0000000000000000000, 0.0000000000000000000, 0.0000000000000000000 ) ) ;
#117 = COORDINATED_UNIVERSAL_TIME_OFFSET ( 9, 0, .AHEAD. ) ;
#118 = MANIFOLD_SOLID_BREP ( '‰ñ“]1', #51 ) ;
#119 = AXIS2_PLACEMENT_3D ( 'NONE', #182, #232, #103 ) ;
#120 = DATE_AND_TIME ( #172, #212 ) ;
#121 = DIRECTION ( 'NONE',  ( 1.000000000000000000, 0.0000000000000000000, -1.224646799147353200E-016 ) ) ;
#122 = PERSON_AND_ORGANIZATION_ROLE ( 'design_owner' ) ;
#123 = DIRECTION ( 'NONE',  ( -0.0000000000000000000, -1.000000000000000000, -0.0000000000000000000 ) ) ;
#124 = APPROVAL_PERSON_ORGANIZATION ( #97, #253, #189 ) ;
#125 = AXIS2_PLACEMENT_3D ( 'NONE', #3, #10, #148 ) ;
#126 = DIRECTION ( 'NONE',  ( 0.0000000000000000000, 0.0000000000000000000, 1.000000000000000000 ) ) ;
#127 = DIRECTION ( 'NONE',  ( 1.000000000000000000, 0.0000000000000000000, 0.0000000000000000000 ) ) ;
#128 = DATE_TIME_ROLE ( 'creation_date' ) ;
#129 = CARTESIAN_POINT ( 'NONE',  ( 0.0000000000000000000, 2.500000000000000400, 0.0000000000000000000 ) ) ;
#130 = CARTESIAN_POINT ( 'NONE',  ( 0.0000000000000000000, 2.500000000000000400, 0.0000000000000000000 ) ) ;
#131 = LINE ( 'NONE', #166, #49 ) ;
#132 = ORIENTED_EDGE ( 'NONE', *, *, #249, .F. ) ;
#133 = DIRECTION ( 'NONE',  ( 0.0000000000000000000, -1.000000000000000000, -0.0000000000000000000 ) ) ;
#134 = ORIENTED_EDGE ( 'NONE', *, *, #39, .F. ) ;
#135 = CALENDAR_DATE ( 2017, 18, 8 ) ;
#136 = DIRECTION ( 'NONE',  ( 0.0000000000000000000, 0.0000000000000000000, -1.000000000000000000 ) ) ;
#137 = FACE_OUTER_BOUND ( 'NONE', #176, .T. ) ;
#138 = DIRECTION ( 'NONE',  ( 0.0000000000000000000, 0.0000000000000000000, -1.000000000000000000 ) ) ;
#139 = DIRECTION ( 'NONE',  ( -0.0000000000000000000, -1.000000000000000000, -0.0000000000000000000 ) ) ;
#140 = VERTEX_POINT ( 'NONE', #54 ) ;
#141 = CARTESIAN_POINT ( 'NONE',  ( 0.0000000000000000000, 0.0000000000000000000, 0.0000000000000000000 ) ) ;
#142 = APPROVAL_DATE_TIME ( #14, #1 ) ;
#143 = CALENDAR_DATE ( 2017, 18, 8 ) ;
#144 = AXIS2_PLACEMENT_3D ( 'NONE', #268, #197, #209 ) ;
#145 =( LENGTH_UNIT ( ) NAMED_UNIT ( * ) SI_UNIT ( .MILLI., .METRE. ) );
#146 = DIRECTION ( 'NONE',  ( -0.0000000000000000000, -1.000000000000000000, -0.0000000000000000000 ) ) ;
#147 = CONICAL_SURFACE ( 'NONE', #110, 4.250000000000000000, 0.7853981633974499400 ) ;
#148 = DIRECTION ( 'NONE',  ( 0.0000000000000000000, 0.0000000000000000000, -1.000000000000000000 ) ) ;
#149 = ORIENTED_EDGE ( 'NONE', *, *, #76, .T. ) ;
#150 = CARTESIAN_POINT ( 'NONE',  ( 0.0000000000000000000, 0.0000000000000000000, 0.0000000000000000000 ) ) ;
#151 = CC_DESIGN_SECURITY_CLASSIFICATION ( #215, ( #108 ) ) ;
#152 = AXIS2_PLACEMENT_3D ( 'NONE', #141, #228, #83 ) ;
#153 = SHAPE_DEFINITION_REPRESENTATION ( #42, #20 ) ;
#154 = ADVANCED_FACE ( 'NONE', ( #24 ), #36, .F. ) ;
#155 = LINE ( 'NONE', #63, #93 ) ;
#156 = COORDINATED_UNIVERSAL_TIME_OFFSET ( 9, 0, .AHEAD. ) ;
#157 = FACE_OUTER_BOUND ( 'NONE', #80, .T. ) ;
#158 = DATE_TIME_ROLE ( 'classification_date' ) ;
#159 = EDGE_LOOP ( 'NONE', ( #32, #8, #55, #229 ) ) ;
#160 = CARTESIAN_POINT ( 'NONE',  ( 0.0000000000000000000, -2.708207260815279800, -2.250000000000000000 ) ) ;
#161 = ORIENTED_EDGE ( 'NONE', *, *, #13, .F. ) ;
#162 = APPROVAL_PERSON_ORGANIZATION ( #224, #111, #25 ) ;
#163 = DATE_AND_TIME ( #143, #217 ) ;
#164 = AXIS2_PLACEMENT_3D ( 'NONE', #130, #185, #136 ) ;
#165 = CARTESIAN_POINT ( 'NONE',  ( 0.0000000000000000000, 2.500000000000000400, 0.0000000000000000000 ) ) ;
#166 = CARTESIAN_POINT ( 'NONE',  ( 5.204748896376250700E-016, 2.500000000000000400, -4.250000000000000000 ) ) ;
#167 = CIRCLE ( 'NONE', #119, 4.250000000000000000 ) ;
#168 = DIRECTION ( 'NONE',  ( 0.0000000000000000000, 0.0000000000000000000, -1.000000000000000000 ) ) ;
#169 = EDGE_LOOP ( 'NONE', ( #240, #2, #57, #28 ) ) ;
#170 = PRODUCT_RELATED_PRODUCT_CATEGORY ( 'detail', '', ( #15 ) ) ;
#171 = DATE_AND_TIME ( #100, #259 ) ;
#172 = CALENDAR_DATE ( 2017, 18, 8 ) ;
#173 = AXIS2_PLACEMENT_3D ( 'NONE', #78, #133, #191 ) ;
#174 = CARTESIAN_POINT ( 'NONE',  ( 0.0000000000000000000, -2.708207260815279800, 0.0000000000000000000 ) ) ;
#175 = PERSON_AND_ORGANIZATION ( #64, #258 ) ;
#176 = EDGE_LOOP ( 'NONE', ( #234, #183 ) ) ;
#177 = PERSON_AND_ORGANIZATION ( #64, #258 ) ;
#178 = ORIENTED_EDGE ( 'NONE', *, *, #69, .T. ) ;
#179 = COORDINATED_UNIVERSAL_TIME_OFFSET ( 9, 0, .AHEAD. ) ;
#180 = CYLINDRICAL_SURFACE ( 'NONE', #186, 2.250000000000000000 ) ;
#181 = ADVANCED_FACE ( 'NONE', ( #58 ), #262, .T. ) ;
#182 = CARTESIAN_POINT ( 'NONE',  ( 0.0000000000000000000, 2.500000000000000400, 0.0000000000000000000 ) ) ;
#183 = ORIENTED_EDGE ( 'NONE', *, *, #13, .T. ) ;
#184 = ORIENTED_EDGE ( 'NONE', *, *, #76, .F. ) ;
#185 = DIRECTION ( 'NONE',  ( -0.0000000000000000000, -1.000000000000000000, -0.0000000000000000000 ) ) ;
#186 = AXIS2_PLACEMENT_3D ( 'NONE', #174, #94, #168 ) ;
#187 = CIRCLE ( 'NONE', #164, 4.250000000000000000 ) ;
#188 = ORIENTED_EDGE ( 'NONE', *, *, #90, .F. ) ;
#189 = APPROVAL_ROLE ( '' ) ;
#190 = ORIENTED_EDGE ( 'NONE', *, *, #194, .T. ) ;
#191 = DIRECTION ( 'NONE',  ( 0.0000000000000000000, 0.0000000000000000000, -1.000000000000000000 ) ) ;
#192 = AXIS2_PLACEMENT_3D ( 'NONE', #116, #12, #19 ) ;
#193 = CALENDAR_DATE ( 2017, 18, 8 ) ;
#194 = EDGE_CURVE ( 'NONE', #199, #204, #155, .T. ) ;
#195 = EDGE_CURVE ( 'NONE', #204, #140, #34, .T. ) ;
#196 = AXIS2_PLACEMENT_3D ( 'NONE', #115, #126, #127 ) ;
#197 = DIRECTION ( 'NONE',  ( -0.0000000000000000000, -1.000000000000000000, -0.0000000000000000000 ) ) ;
#198 = AXIS2_PLACEMENT_3D ( 'NONE', #95, #104, #113 ) ;
#199 = VERTEX_POINT ( 'NONE', #220 ) ;
#200 = PLANE ( 'NONE',  #173 ) ;
#201 = ORIENTED_EDGE ( 'NONE', *, *, #7, .F. ) ;
#202 = APPROVAL_STATUS ( 'not_yet_approved' ) ;
#203 = APPROVAL_DATE_TIME ( #163, #111 ) ;
#204 = VERTEX_POINT ( 'NONE', #81 ) ;
#205 = ADVANCED_FACE ( 'NONE', ( #88 ), #147, .F. ) ;
#206 = PERSON_AND_ORGANIZATION ( #64, #258 ) ;
#207 = CC_DESIGN_APPROVAL ( #111, ( #215 ) ) ;
#208 = AXIS2_PLACEMENT_3D ( 'NONE', #150, #68, #138 ) ;
#209 = DIRECTION ( 'NONE',  ( 0.0000000000000000000, 0.0000000000000000000, -1.000000000000000000 ) ) ;
#210 = CC_DESIGN_DATE_AND_TIME_ASSIGNMENT ( #120, #158, ( #215 ) ) ;
#211 = DIRECTION ( 'NONE',  ( -1.224646799147353200E-016, 0.0000000000000000000, -1.000000000000000000 ) ) ;
#212 = LOCAL_TIME ( 10, 35, 11.00000000000000000, #179 ) ;
#213 = ORIENTED_EDGE ( 'NONE', *, *, #53, .F. ) ;
#214 = CC_DESIGN_PERSON_AND_ORGANIZATION_ASSIGNMENT ( #177, #235, ( #215 ) ) ;
#215 = SECURITY_CLASSIFICATION ( '', '', #31 ) ;
#216 = CC_DESIGN_PERSON_AND_ORGANIZATION_ASSIGNMENT ( #175, #261, ( #108 ) ) ;
#217 = LOCAL_TIME ( 10, 35, 11.00000000000000000, #156 ) ;
#218 = CYLINDRICAL_SURFACE ( 'NONE', #227, 2.250000000000000000 ) ;
#219 = ORIENTED_EDGE ( 'NONE', *, *, #223, .T. ) ;
#220 = CARTESIAN_POINT ( 'NONE',  ( 0.0000000000000000000, 0.5000000000000065500, 2.250000000000000000 ) ) ;
#221 = ADVANCED_FACE ( 'NONE', ( #75 ), #255, .T. ) ;
#222 = VERTEX_POINT ( 'NONE', #77 ) ;
#223 = EDGE_CURVE ( 'NONE', #204, #9, #167, .T. ) ;
#224 = PERSON_AND_ORGANIZATION ( #64, #258 ) ;
#225 = COORDINATED_UNIVERSAL_TIME_OFFSET ( 9, 0, .AHEAD. ) ;
#226 = MECHANICAL_CONTEXT ( 'NONE', #236, 'mechanical' ) ;
#227 = AXIS2_PLACEMENT_3D ( 'NONE', #22, #29, #47 ) ;
#228 = DIRECTION ( 'NONE',  ( -0.0000000000000000000, -1.000000000000000000, -0.0000000000000000000 ) ) ;
#229 = ORIENTED_EDGE ( 'NONE', *, *, #69, .F. ) ;
#230 = CC_DESIGN_APPROVAL ( #253, ( #108 ) ) ;
#231 = CC_DESIGN_PERSON_AND_ORGANIZATION_ASSIGNMENT ( #206, #21, ( #108 ) ) ;
#232 = DIRECTION ( 'NONE',  ( -0.0000000000000000000, -1.000000000000000000, -0.0000000000000000000 ) ) ;
#233 = PRODUCT_DEFINITION ( 'UNKNOWN', '', #108, #72 ) ;
#234 = ORIENTED_EDGE ( 'NONE', *, *, #267, .T. ) ;
#235 = PERSON_AND_ORGANIZATION_ROLE ( 'classification_officer' ) ;
#236 = APPLICATION_CONTEXT ( 'configuration controlled 3d designs of mechanical parts and assemblies' ) ;
#237 = AXIS2_PLACEMENT_3D ( 'NONE', #165, #264, #30 ) ;
#238 = APPROVAL_STATUS ( 'not_yet_approved' ) ;
#239 = LOCAL_TIME ( 10, 35, 11.00000000000000000, #225 ) ;
#240 = ORIENTED_EDGE ( 'NONE', *, *, #7, .T. ) ;
#241 = LOCAL_TIME ( 10, 35, 11.00000000000000000, #117 ) ;
#242 = CIRCLE ( 'NONE', #208, 6.000000000000000000 ) ;
#243 = EDGE_CURVE ( 'NONE', #79, #199, #86, .T. ) ;
#244 = ORIENTED_EDGE ( 'NONE', *, *, #39, .T. ) ;
#245 = AXIS2_PLACEMENT_3D ( 'NONE', #252, #123, #107 ) ;
#246 = EDGE_CURVE ( 'NONE', #45, #56, #85, .T. ) ;
#247 = ADVANCED_FACE ( 'NONE', ( #137, #66 ), #200, .T. ) ;
#248 = ORIENTED_EDGE ( 'NONE', *, *, #195, .F. ) ;
#249 = EDGE_CURVE ( 'NONE', #9, #204, #187, .T. ) ;
#250 = ADVANCED_FACE ( 'NONE', ( #157 ), #180, .F. ) ;
#251 = APPROVAL_STATUS ( 'not_yet_approved' ) ;
#252 = CARTESIAN_POINT ( 'NONE',  ( 0.0000000000000000000, 0.5000000000000065500, 0.0000000000000000000 ) ) ;
#253 = APPROVAL ( #238, 'UNSPECIFIED' ) ;
#254 = VECTOR ( 'NONE', #62, 1000.000000000000000 ) ;
#255 = TOROIDAL_SURFACE ( 'NONE', #125, 3.502615682865734200, 2.499999999999999100 ) ;
#256 = CC_DESIGN_PERSON_AND_ORGANIZATION_ASSIGNMENT ( #271, #122, ( #15 ) ) ;
#257 = CIRCLE ( 'NONE', #46, 2.250000000000000000 ) ;
#258 = ORGANIZATION ( 'UNSPECIFIED', 'UNSPECIFIED', '' ) ;
#259 = LOCAL_TIME ( 10, 35, 11.00000000000000000, #41 ) ;
#260 = ORIENTED_EDGE ( 'NONE', *, *, #53, .T. ) ;
#261 = PERSON_AND_ORGANIZATION_ROLE ( 'design_supplier' ) ;
#262 = TOROIDAL_SURFACE ( 'NONE', #70, 3.502615682865734200, 2.499999999999999100 ) ;
#263 = APPROVAL_PERSON_ORGANIZATION ( #27, #1, #84 ) ;
#264 = DIRECTION ( 'NONE',  ( 0.0000000000000000000, 1.000000000000000000, 0.0000000000000000000 ) ) ;
#265 = CIRCLE ( 'NONE', #198, 2.499999999999999100 ) ;
#266 = ORIENTED_EDGE ( 'NONE', *, *, #246, .T. ) ;
#267 = EDGE_CURVE ( 'NONE', #222, #140, #242, .T. ) ;
#268 = CARTESIAN_POINT ( 'NONE',  ( 0.0000000000000000000, 0.5000000000000065500, 0.0000000000000000000 ) ) ;
#269 = ORIENTED_EDGE ( 'NONE', *, *, #246, .F. ) ;
#270 = DIRECTION ( 'NONE',  ( 0.0000000000000000000, 1.000000000000000000, 0.0000000000000000000 ) ) ;
#271 = PERSON_AND_ORGANIZATION ( #64, #258 ) ;
ENDSEC;
END-ISO-10303-21;
