ISO-10303-21;
HEADER;
FILE_DESCRIPTION (( 'STEP AP203' ),
    '1' );
FILE_NAME ('C-29-M3.STEP',
    '2017-08-18T01:32:40',
    ( '' ),
    ( '' ),
    'SwSTEP 2.0',
    'SolidWorks 2014',
    '' );
FILE_SCHEMA (( 'CONFIG_CONTROL_DESIGN' ));
ENDSEC;

DATA;
#1 = PERSON_AND_ORGANIZATION_ROLE ( 'creator' ) ;
#2 = PRODUCT_DEFINITION ( 'UNKNOWN', '', #114, #132 ) ;
#3 = DIRECTION ( 'NONE',  ( -0.0000000000000000000, -1.000000000000000000, -0.0000000000000000000 ) ) ;
#4 = CARTESIAN_POINT ( 'NONE',  ( 0.0000000000000000000, 2.000000000000001800, 0.0000000000000000000 ) ) ;
#5 = CARTESIAN_POINT ( 'NONE',  ( 0.0000000000000000000, -8.673617379884035500E-016, 0.0000000000000000000 ) ) ;
#6 = LOCAL_TIME ( 10, 32, 40.00000000000000000, #184 ) ;
#7 = APPROVAL_ROLE ( '' ) ;
#8 = ORIENTED_EDGE ( 'NONE', *, *, #91, .T. ) ;
#9 = APPROVAL_ROLE ( '' ) ;
#10 = CARTESIAN_POINT ( 'NONE',  ( 3.674015660485957500E-016, 0.01567877482181552100, 3.000061456939217200 ) ) ;
#11 = ADVANCED_BREP_SHAPE_REPRESENTATION ( 'C-29-M3', ( #226, #133 ), #225 ) ;
#12 = CARTESIAN_POINT ( 'NONE',  ( 0.0000000000000000000, 0.4999999999999993300, 0.0000000000000000000 ) ) ;
#13 = DIRECTION ( 'NONE',  ( 0.0000000000000000000, 0.0000000000000000000, -1.000000000000000000 ) ) ;
#14 = LINE ( 'NONE', #228, #202 ) ;
#15 = APPROVAL_DATE_TIME ( #206, #246 ) ;
#16 = LOCAL_TIME ( 10, 32, 40.00000000000000000, #124 ) ;
#17 = CARTESIAN_POINT ( 'NONE',  ( 0.0000000000000000000, 2.000000000000001800, 0.0000000000000000000 ) ) ;
#18 = LOCAL_TIME ( 10, 32, 40.00000000000000000, #142 ) ;
#19 = EDGE_CURVE ( 'NONE', #54, #56, #249, .T. ) ;
#20 = EDGE_CURVE ( 'NONE', #67, #94, #101, .T. ) ;
#21 = CIRCLE ( 'NONE', #55, 1.749999999999993300 ) ;
#22 = ORGANIZATION ( 'UNSPECIFIED', 'UNSPECIFIED', '' ) ;
#23 = ORIENTED_EDGE ( 'NONE', *, *, #260, .T. ) ;
#24 = DIRECTION ( 'NONE',  ( 0.0000000000000000000, 0.0000000000000000000, -1.000000000000000000 ) ) ;
#25 = APPROVAL_DATE_TIME ( #106, #87 ) ;
#26 = DIRECTION ( 'NONE',  ( -0.0000000000000000000, -1.000000000000000000, -0.0000000000000000000 ) ) ;
#27 =( NAMED_UNIT ( * ) PLANE_ANGLE_UNIT ( ) SI_UNIT ( $, .RADIAN. ) );
#28 = CONICAL_SURFACE ( 'NONE', #163, 3.250000000000000000, 0.7853981633974497200 ) ;
#29 = CC_DESIGN_PERSON_AND_ORGANIZATION_ASSIGNMENT ( #113, #263, ( #114 ) ) ;
#30 = DIRECTION ( 'NONE',  ( 8.659560562354946400E-017, 0.7071067811865465700, -0.7071067811865485700 ) ) ;
#31 = CARTESIAN_POINT ( 'NONE',  ( 0.0000000000000000000, -8.673617379884035500E-016, -5.000000000000000900 ) ) ;
#32 = EDGE_CURVE ( 'NONE', #67, #54, #42, .T. ) ;
#33 = AXIS2_PLACEMENT_3D ( 'NONE', #251, #3, #128 ) ;
#34 = CIRCLE ( 'NONE', #186, 5.000000000000000000 ) ;
#35 = CLOSED_SHELL ( 'NONE', ( #49, #48, #177, #92, #218, #200, #205 ) ) ;
#36 = DIRECTION ( 'NONE',  ( -1.000000000000000000, 0.0000000000000000000, 0.0000000000000000000 ) ) ;
#37 = DIRECTION ( 'NONE',  ( 0.0000000000000000000, 0.0000000000000000000, 1.000000000000000000 ) ) ;
#38 = DIRECTION ( 'NONE',  ( 0.0000000000000000000, 0.0000000000000000000, -1.000000000000000000 ) ) ;
#39 = DIRECTION ( 'NONE',  ( 0.0000000000000000000, 0.0000000000000000000, -1.000000000000000000 ) ) ;
#40 = CARTESIAN_POINT ( 'NONE',  ( 6.123233995736766300E-016, -8.673617379884035500E-016, 5.000000000000000900 ) ) ;
#41 = PERSON_AND_ORGANIZATION_ROLE ( 'design_owner' ) ;
#42 = LINE ( 'NONE', #120, #93 ) ;
#43 = DIRECTION ( 'NONE',  ( -0.0000000000000000000, -1.000000000000000000, -0.0000000000000000000 ) ) ;
#44 = CONICAL_SURFACE ( 'NONE', #68, 3.250000000000000000, 0.7853981633974497200 ) ;
#45 = CC_DESIGN_DATE_AND_TIME_ASSIGNMENT ( #250, #212, ( #134 ) ) ;
#46 = PERSON_AND_ORGANIZATION ( #75, #22 ) ;
#47 = DIRECTION ( 'NONE',  ( -0.0000000000000000000, -1.000000000000000000, -0.0000000000000000000 ) ) ;
#48 = ADVANCED_FACE ( 'NONE', ( #171 ), #44, .F. ) ;
#49 = ADVANCED_FACE ( 'NONE', ( #103 ), #121, .F. ) ;
#50 = CC_DESIGN_PERSON_AND_ORGANIZATION_ASSIGNMENT ( #137, #1, ( #114 ) ) ;
#51 = CARTESIAN_POINT ( 'NONE',  ( 0.0000000000000000000, 0.0000000000000000000, 0.0000000000000000000 ) ) ;
#52 = DIRECTION ( 'NONE',  ( 1.000000000000000000, 0.0000000000000000000, 0.0000000000000000000 ) ) ;
#53 = CARTESIAN_POINT ( 'NONE',  ( 3.061616997868379200E-016, 0.4999999999999993300, -1.749999999999993300 ) ) ;
#54 = VERTEX_POINT ( 'NONE', #136 ) ;
#55 = AXIS2_PLACEMENT_3D ( 'NONE', #12, #26, #24 ) ;
#56 = VERTEX_POINT ( 'NONE', #125 ) ;
#57 = ORIENTED_EDGE ( 'NONE', *, *, #259, .F. ) ;
#58 = ORIENTED_EDGE ( 'NONE', *, *, #32, .T. ) ;
#59 = AXIS2_PLACEMENT_3D ( 'NONE', #233, #70, #86 ) ;
#60 = VERTEX_POINT ( 'NONE', #31 ) ;
#61 = CC_DESIGN_APPROVAL ( #246, ( #114 ) ) ;
#62 = ORIENTED_EDGE ( 'NONE', *, *, #32, .F. ) ;
#63 = CC_DESIGN_PERSON_AND_ORGANIZATION_ASSIGNMENT ( #183, #41, ( #264 ) ) ;
#64 = DIRECTION ( 'NONE',  ( 0.0000000000000000000, 0.0000000000000000000, 1.000000000000000000 ) ) ;
#65 = CC_DESIGN_PERSON_AND_ORGANIZATION_ASSIGNMENT ( #46, #196, ( #134 ) ) ;
#66 = ORIENTED_EDGE ( 'NONE', *, *, #19, .T. ) ;
#67 = VERTEX_POINT ( 'NONE', #53 ) ;
#68 = AXIS2_PLACEMENT_3D ( 'NONE', #17, #207, #64 ) ;
#69 = EDGE_CURVE ( 'NONE', #109, #126, #96, .T. ) ;
#70 = DIRECTION ( 'NONE',  ( -0.0000000000000000000, -1.000000000000000000, -0.0000000000000000000 ) ) ;
#71 = DATE_TIME_ROLE ( 'creation_date' ) ;
#72 = ORIENTED_EDGE ( 'NONE', *, *, #216, .F. ) ;
#73 = APPROVAL_STATUS ( 'not_yet_approved' ) ;
#74 = EDGE_LOOP ( 'NONE', ( #111, #100 ) ) ;
#75 = PERSON ( 'UNSPECIFIED', 'UNSPECIFIED', 'UNSPECIFIED', ('UNSPECIFIED'), ('UNSPECIFIED'), ('UNSPECIFIED') ) ;
#76 = ORIENTED_EDGE ( 'NONE', *, *, #260, .F. ) ;
#77 = ORIENTED_EDGE ( 'NONE', *, *, #259, .T. ) ;
#78 = ORIENTED_EDGE ( 'NONE', *, *, #152, .T. ) ;
#79 = DIRECTION ( 'NONE',  ( 0.0000000000000000000, 1.000000000000000000, 0.0000000000000000000 ) ) ;
#80 = DIRECTION ( 'NONE',  ( -0.0000000000000000000, -1.000000000000000000, -0.0000000000000000000 ) ) ;
#81 = APPLICATION_CONTEXT ( 'configuration controlled 3d designs of mechanical parts and assemblies' ) ;
#82 = DIRECTION ( 'NONE',  ( 1.000000000000000000, 0.0000000000000000000, -1.224646799147353200E-016 ) ) ;
#83 = CARTESIAN_POINT ( 'NONE',  ( 0.0000000000000000000, 2.000000000000001800, 0.0000000000000000000 ) ) ;
#84 = VECTOR ( 'NONE', #30, 1000.000000000000000 ) ;
#85 = DATE_AND_TIME ( #223, #6 ) ;
#86 = DIRECTION ( 'NONE',  ( 0.0000000000000000000, 0.0000000000000000000, -1.000000000000000000 ) ) ;
#87 = APPROVAL ( #73, 'UNSPECIFIED' ) ;
#88 = EDGE_LOOP ( 'NONE', ( #190, #149, #78, #247 ) ) ;
#89 = MECHANICAL_CONTEXT ( 'NONE', #267, 'mechanical' ) ;
#90 = DIRECTION ( 'NONE',  ( -0.0000000000000000000, -1.000000000000000000, -0.0000000000000000000 ) ) ;
#91 = EDGE_CURVE ( 'NONE', #94, #109, #179, .T. ) ;
#92 = ADVANCED_FACE ( 'NONE', ( #130 ), #238, .T. ) ;
#93 = VECTOR ( 'NONE', #90, 1000.000000000000000 ) ;
#94 = VERTEX_POINT ( 'NONE', #185 ) ;
#95 = SHAPE_DEFINITION_REPRESENTATION ( #209, #11 ) ;
#96 = CIRCLE ( 'NONE', #153, 2.000000000000000400 ) ;
#97 = FACE_BOUND ( 'NONE', #74, .T. ) ;
#98 = DIRECTION ( 'NONE',  ( 0.0000000000000000000, 0.0000000000000000000, -1.000000000000000000 ) ) ;
#99 = ORIENTED_EDGE ( 'NONE', *, *, #216, .T. ) ;
#100 = ORIENTED_EDGE ( 'NONE', *, *, #154, .F. ) ;
#101 = LINE ( 'NONE', #230, #84 ) ;
#102 = DIRECTION ( 'NONE',  ( 0.0000000000000000000, 0.0000000000000000000, -1.000000000000000000 ) ) ;
#103 = FACE_OUTER_BOUND ( 'NONE', #161, .T. ) ;
#104 = LINE ( 'NONE', #105, #141 ) ;
#105 = CARTESIAN_POINT ( 'NONE',  ( 2.143131898507859900E-016, -1.046520917091248800, 1.749999999999993300 ) ) ;
#106 = DATE_AND_TIME ( #182, #217 ) ;
#107 = ORIENTED_EDGE ( 'NONE', *, *, #178, .T. ) ;
#108 = CARTESIAN_POINT ( 'NONE',  ( 5.051668046482833700E-016, 2.000000000000001800, 3.250000000000000400 ) ) ;
#109 = VERTEX_POINT ( 'NONE', #108 ) ;
#110 = AXIS2_PLACEMENT_3D ( 'NONE', #151, #148, #98 ) ;
#111 = ORIENTED_EDGE ( 'NONE', *, *, #19, .F. ) ;
#112 = COORDINATED_UNIVERSAL_TIME_OFFSET ( 9, 0, .AHEAD. ) ;
#113 = PERSON_AND_ORGANIZATION ( #75, #22 ) ;
#114 = PRODUCT_DEFINITION_FORMATION_WITH_SPECIFIED_SOURCE ( 'ANY', '', #264, .NOT_KNOWN. ) ;
#115 = CIRCLE ( 'NONE', #261, 5.000000000000000000 ) ;
#116 = ORIENTED_EDGE ( 'NONE', *, *, #119, .F. ) ;
#117 = PRODUCT_RELATED_PRODUCT_CATEGORY ( 'detail', '', ( #264 ) ) ;
#118 = ORIENTED_EDGE ( 'NONE', *, *, #245, .T. ) ;
#119 = EDGE_CURVE ( 'NONE', #60, #126, #34, .T. ) ;
#120 = CARTESIAN_POINT ( 'NONE',  ( 0.0000000000000000000, -1.046520917091248800, -1.749999999999993300 ) ) ;
#121 = CYLINDRICAL_SURFACE ( 'NONE', #110, 1.749999999999993300 ) ;
#122 = CIRCLE ( 'NONE', #204, 1.749999999999993300 ) ;
#123 = CALENDAR_DATE ( 2017, 18, 8 ) ;
#124 = COORDINATED_UNIVERSAL_TIME_OFFSET ( 9, 0, .AHEAD. ) ;
#125 = CARTESIAN_POINT ( 'NONE',  ( 2.143131898507859900E-016, -2.168404344971008900E-016, 1.749999999999993300 ) ) ;
#126 = VERTEX_POINT ( 'NONE', #40 ) ;
#127 = ORIENTED_EDGE ( 'NONE', *, *, #69, .T. ) ;
#128 = DIRECTION ( 'NONE',  ( 0.0000000000000000000, 0.0000000000000000000, -1.000000000000000000 ) ) ;
#129 = VERTEX_POINT ( 'NONE', #164 ) ;
#130 = FACE_OUTER_BOUND ( 'NONE', #241, .T. ) ;
#131 = DIRECTION ( 'NONE',  ( -0.0000000000000000000, -1.000000000000000000, -0.0000000000000000000 ) ) ;
#132 = DESIGN_CONTEXT ( 'detailed design', #81, 'design' ) ;
#133 = AXIS2_PLACEMENT_3D ( 'NONE', #51, #234, #52 ) ;
#134 = SECURITY_CLASSIFICATION ( '', '', #255 ) ;
#135 = UNCERTAINTY_MEASURE_WITH_UNIT (LENGTH_MEASURE( 1.000000000000000100E-005 ), #236, 'distance_accuracy_value', 'NONE');
#136 = CARTESIAN_POINT ( 'NONE',  ( 0.0000000000000000000, -2.168404344971008900E-016, -1.749999999999993300 ) ) ;
#137 = PERSON_AND_ORGANIZATION ( #75, #22 ) ;
#138 = EDGE_LOOP ( 'NONE', ( #57, #188, #58, #66 ) ) ;
#139 = DIRECTION ( 'NONE',  ( -0.0000000000000000000, -1.000000000000000000, -0.0000000000000000000 ) ) ;
#140 = AXIS2_PLACEMENT_3D ( 'NONE', #268, #47, #213 ) ;
#141 = VECTOR ( 'NONE', #139, 1000.000000000000000 ) ;
#142 = COORDINATED_UNIVERSAL_TIME_OFFSET ( 9, 0, .AHEAD. ) ;
#143 = APPROVAL_STATUS ( 'not_yet_approved' ) ;
#144 = AXIS2_PLACEMENT_3D ( 'NONE', #4, #254, #39 ) ;
#145 = PERSON_AND_ORGANIZATION ( #75, #22 ) ;
#146 = ORIENTED_EDGE ( 'NONE', *, *, #178, .F. ) ;
#147 = DIRECTION ( 'NONE',  ( -0.0000000000000000000, -1.000000000000000000, -0.0000000000000000000 ) ) ;
#148 = DIRECTION ( 'NONE',  ( -0.0000000000000000000, -1.000000000000000000, -0.0000000000000000000 ) ) ;
#149 = ORIENTED_EDGE ( 'NONE', *, *, #262, .T. ) ;
#150 = DATE_AND_TIME ( #232, #16 ) ;
#151 = CARTESIAN_POINT ( 'NONE',  ( 0.0000000000000000000, -1.046520917091248800, 0.0000000000000000000 ) ) ;
#152 = EDGE_CURVE ( 'NONE', #129, #109, #14, .T. ) ;
#153 = AXIS2_PLACEMENT_3D ( 'NONE', #10, #82, #199 ) ;
#154 = EDGE_CURVE ( 'NONE', #56, #54, #224, .T. ) ;
#155 = EDGE_LOOP ( 'NONE', ( #157, #23 ) ) ;
#156 = CALENDAR_DATE ( 2017, 18, 8 ) ;
#157 = ORIENTED_EDGE ( 'NONE', *, *, #119, .T. ) ;
#158 = ORIENTED_EDGE ( 'NONE', *, *, #152, .F. ) ;
#159 = EDGE_LOOP ( 'NONE', ( #99, #169, #244, #158 ) ) ;
#160 = AXIS2_PLACEMENT_3D ( 'NONE', #176, #192, #13 ) ;
#161 = EDGE_LOOP ( 'NONE', ( #72, #77, #166, #62 ) ) ;
#162 = APPROVAL_PERSON_ORGANIZATION ( #145, #87, #9 ) ;
#163 = AXIS2_PLACEMENT_3D ( 'NONE', #83, #79, #37 ) ;
#164 = CARTESIAN_POINT ( 'NONE',  ( 0.0000000000000000000, 0.4999999999999993300, 1.749999999999993300 ) ) ;
#165 = APPLICATION_PROTOCOL_DEFINITION ( 'international standard', 'config_control_design', 1994, #267 ) ;
#166 = ORIENTED_EDGE ( 'NONE', *, *, #154, .T. ) ;
#167 = EDGE_LOOP ( 'NONE', ( #8, #127, #116, #146 ) ) ;
#168 = APPROVAL_ROLE ( '' ) ;
#169 = ORIENTED_EDGE ( 'NONE', *, *, #20, .T. ) ;
#170 = AXIS2_PLACEMENT_3D ( 'NONE', #174, #36, #270 ) ;
#171 = FACE_OUTER_BOUND ( 'NONE', #159, .T. ) ;
#172 = CIRCLE ( 'NONE', #144, 3.250000000000000000 ) ;
#173 = COORDINATED_UNIVERSAL_TIME_OFFSET ( 9, 0, .AHEAD. ) ;
#174 = CARTESIAN_POINT ( 'NONE',  ( 0.0000000000000000000, 0.01567877482181552100, -3.000061456939217200 ) ) ;
#175 = APPLICATION_PROTOCOL_DEFINITION ( 'international standard', 'config_control_design', 1994, #81 ) ;
#176 = CARTESIAN_POINT ( 'NONE',  ( 0.0000000000000000000, 0.01567877482181552100, 0.0000000000000000000 ) ) ;
#177 = ADVANCED_FACE ( 'NONE', ( #214 ), #220, .T. ) ;
#178 = EDGE_CURVE ( 'NONE', #94, #60, #203, .T. ) ;
#179 = CIRCLE ( 'NONE', #33, 3.250000000000000000 ) ;
#180 =( NAMED_UNIT ( * ) SI_UNIT ( $, .STERADIAN. ) SOLID_ANGLE_UNIT ( ) );
#181 = AXIS2_PLACEMENT_3D ( 'NONE', #257, #227, #38 ) ;
#182 = CALENDAR_DATE ( 2017, 18, 8 ) ;
#183 = PERSON_AND_ORGANIZATION ( #75, #22 ) ;
#184 = COORDINATED_UNIVERSAL_TIME_OFFSET ( 9, 0, .AHEAD. ) ;
#185 = CARTESIAN_POINT ( 'NONE',  ( 0.0000000000000000000, 2.000000000000001800, -3.250000000000000000 ) ) ;
#186 = AXIS2_PLACEMENT_3D ( 'NONE', #210, #80, #193 ) ;
#187 = DIRECTION ( 'NONE',  ( 0.0000000000000000000, 0.0000000000000000000, -1.000000000000000000 ) ) ;
#188 = ORIENTED_EDGE ( 'NONE', *, *, #262, .F. ) ;
#189 = CC_DESIGN_APPROVAL ( #87, ( #134 ) ) ;
#190 = ORIENTED_EDGE ( 'NONE', *, *, #20, .F. ) ;
#191 = APPROVAL_PERSON_ORGANIZATION ( #229, #198, #168 ) ;
#192 = DIRECTION ( 'NONE',  ( -0.0000000000000000000, -1.000000000000000000, -0.0000000000000000000 ) ) ;
#193 = DIRECTION ( 'NONE',  ( 0.0000000000000000000, 0.0000000000000000000, -1.000000000000000000 ) ) ;
#194 = AXIS2_PLACEMENT_3D ( 'NONE', #269, #147, #201 ) ;
#195 = CC_DESIGN_SECURITY_CLASSIFICATION ( #134, ( #114 ) ) ;
#196 = PERSON_AND_ORGANIZATION_ROLE ( 'classification_officer' ) ;
#197 = DIRECTION ( 'NONE',  ( -0.0000000000000000000, -1.000000000000000000, -0.0000000000000000000 ) ) ;
#198 = APPROVAL ( #143, 'UNSPECIFIED' ) ;
#199 = DIRECTION ( 'NONE',  ( -1.224646799147353200E-016, 0.0000000000000000000, -1.000000000000000000 ) ) ;
#200 = ADVANCED_FACE ( 'NONE', ( #231 ), #237, .F. ) ;
#201 = DIRECTION ( 'NONE',  ( 0.0000000000000000000, 0.0000000000000000000, -1.000000000000000000 ) ) ;
#202 = VECTOR ( 'NONE', #242, 1000.000000000000000 ) ;
#203 = CIRCLE ( 'NONE', #170, 2.000000000000000400 ) ;
#204 = AXIS2_PLACEMENT_3D ( 'NONE', #219, #43, #102 ) ;
#205 = ADVANCED_FACE ( 'NONE', ( #248, #97 ), #239, .T. ) ;
#206 = DATE_AND_TIME ( #123, #222 ) ;
#207 = DIRECTION ( 'NONE',  ( 0.0000000000000000000, 1.000000000000000000, 0.0000000000000000000 ) ) ;
#208 = APPROVAL_PERSON_ORGANIZATION ( #215, #246, #7 ) ;
#209 = PRODUCT_DEFINITION_SHAPE ( 'NONE', 'NONE',  #2 ) ;
#210 = CARTESIAN_POINT ( 'NONE',  ( 0.0000000000000000000, -8.673617379884035500E-016, 0.0000000000000000000 ) ) ;
#211 = AXIS2_PLACEMENT_3D ( 'NONE', #266, #197, #256 ) ;
#212 = DATE_TIME_ROLE ( 'classification_date' ) ;
#213 = DIRECTION ( 'NONE',  ( 0.0000000000000000000, 0.0000000000000000000, -1.000000000000000000 ) ) ;
#214 = FACE_OUTER_BOUND ( 'NONE', #167, .T. ) ;
#215 = PERSON_AND_ORGANIZATION ( #75, #22 ) ;
#216 = EDGE_CURVE ( 'NONE', #129, #67, #122, .T. ) ;
#217 = LOCAL_TIME ( 10, 32, 40.00000000000000000, #173 ) ;
#218 = ADVANCED_FACE ( 'NONE', ( #221 ), #28, .F. ) ;
#219 = CARTESIAN_POINT ( 'NONE',  ( 0.0000000000000000000, 0.4999999999999993300, 0.0000000000000000000 ) ) ;
#220 = TOROIDAL_SURFACE ( 'NONE', #160, 3.000061456939217200, 2.000000000000000400 ) ;
#221 = FACE_OUTER_BOUND ( 'NONE', #88, .T. ) ;
#222 = LOCAL_TIME ( 10, 32, 40.00000000000000000, #112 ) ;
#223 = CALENDAR_DATE ( 2017, 18, 8 ) ;
#224 = CIRCLE ( 'NONE', #211, 1.749999999999993300 ) ;
#225 =( GEOMETRIC_REPRESENTATION_CONTEXT ( 3 ) GLOBAL_UNCERTAINTY_ASSIGNED_CONTEXT ( ( #135 ) ) GLOBAL_UNIT_ASSIGNED_CONTEXT ( ( #236, #27, #180 ) ) REPRESENTATION_CONTEXT ( 'NONE', 'WORKASPACE' ) );
#226 = MANIFOLD_SOLID_BREP ( '‰ñ“]1', #35 ) ;
#227 = DIRECTION ( 'NONE',  ( 0.0000000000000000000, -1.000000000000000000, -0.0000000000000000000 ) ) ;
#228 = CARTESIAN_POINT ( 'NONE',  ( 0.0000000000000000000, 2.000000000000001800, 3.250000000000000000 ) ) ;
#229 = PERSON_AND_ORGANIZATION ( #75, #22 ) ;
#230 = CARTESIAN_POINT ( 'NONE',  ( 3.980102097228897700E-016, 2.000000000000001800, -3.250000000000000000 ) ) ;
#231 = FACE_OUTER_BOUND ( 'NONE', #138, .T. ) ;
#232 = CALENDAR_DATE ( 2017, 18, 8 ) ;
#233 = CARTESIAN_POINT ( 'NONE',  ( 0.0000000000000000000, -2.168404344971008900E-016, 0.0000000000000000000 ) ) ;
#234 = DIRECTION ( 'NONE',  ( 0.0000000000000000000, 0.0000000000000000000, 1.000000000000000000 ) ) ;
#235 = ORIENTED_EDGE ( 'NONE', *, *, #69, .F. ) ;
#236 =( LENGTH_UNIT ( ) NAMED_UNIT ( * ) SI_UNIT ( .MILLI., .METRE. ) );
#237 = CYLINDRICAL_SURFACE ( 'NONE', #194, 1.749999999999993300 ) ;
#238 = TOROIDAL_SURFACE ( 'NONE', #140, 3.000061456939217200, 2.000000000000000400 ) ;
#239 = PLANE ( 'NONE',  #181 ) ;
#240 = CC_DESIGN_PERSON_AND_ORGANIZATION_ASSIGNMENT ( #252, #253, ( #2 ) ) ;
#241 = EDGE_LOOP ( 'NONE', ( #235, #118, #107, #76 ) ) ;
#242 = DIRECTION ( 'NONE',  ( 0.0000000000000000000, 0.7071067811865465700, 0.7071067811865485700 ) ) ;
#243 = CC_DESIGN_DATE_AND_TIME_ASSIGNMENT ( #85, #71, ( #2 ) ) ;
#244 = ORIENTED_EDGE ( 'NONE', *, *, #245, .F. ) ;
#245 = EDGE_CURVE ( 'NONE', #109, #94, #172, .T. ) ;
#246 = APPROVAL ( #265, 'UNSPECIFIED' ) ;
#247 = ORIENTED_EDGE ( 'NONE', *, *, #91, .F. ) ;
#248 = FACE_OUTER_BOUND ( 'NONE', #155, .T. ) ;
#249 = CIRCLE ( 'NONE', #59, 1.749999999999993300 ) ;
#250 = DATE_AND_TIME ( #156, #18 ) ;
#251 = CARTESIAN_POINT ( 'NONE',  ( 0.0000000000000000000, 2.000000000000001800, 0.0000000000000000000 ) ) ;
#252 = PERSON_AND_ORGANIZATION ( #75, #22 ) ;
#253 = PERSON_AND_ORGANIZATION_ROLE ( 'creator' ) ;
#254 = DIRECTION ( 'NONE',  ( -0.0000000000000000000, -1.000000000000000000, -0.0000000000000000000 ) ) ;
#255 = SECURITY_CLASSIFICATION_LEVEL ( 'unclassified' ) ;
#256 = DIRECTION ( 'NONE',  ( 0.0000000000000000000, 0.0000000000000000000, -1.000000000000000000 ) ) ;
#257 = CARTESIAN_POINT ( 'NONE',  ( 5.000000000000000000, -5.908901840045996200E-016, 0.0000000000000000000 ) ) ;
#258 = APPROVAL_DATE_TIME ( #150, #198 ) ;
#259 = EDGE_CURVE ( 'NONE', #129, #56, #104, .T. ) ;
#260 = EDGE_CURVE ( 'NONE', #126, #60, #115, .T. ) ;
#261 = AXIS2_PLACEMENT_3D ( 'NONE', #5, #131, #187 ) ;
#262 = EDGE_CURVE ( 'NONE', #67, #129, #21, .T. ) ;
#263 = PERSON_AND_ORGANIZATION_ROLE ( 'design_supplier' ) ;
#264 = PRODUCT ( 'C-29-M3', 'C-29-M3', '', ( #89 ) ) ;
#265 = APPROVAL_STATUS ( 'not_yet_approved' ) ;
#266 = CARTESIAN_POINT ( 'NONE',  ( 0.0000000000000000000, -2.168404344971008900E-016, 0.0000000000000000000 ) ) ;
#267 = APPLICATION_CONTEXT ( 'configuration controlled 3d designs of mechanical parts and assemblies' ) ;
#268 = CARTESIAN_POINT ( 'NONE',  ( 0.0000000000000000000, 0.01567877482181552100, 0.0000000000000000000 ) ) ;
#269 = CARTESIAN_POINT ( 'NONE',  ( 0.0000000000000000000, -1.046520917091248800, 0.0000000000000000000 ) ) ;
#270 = DIRECTION ( 'NONE',  ( 0.0000000000000000000, 0.0000000000000000000, 1.000000000000000000 ) ) ;
#271 = CC_DESIGN_APPROVAL ( #198, ( #2 ) ) ;
ENDSEC;
END-ISO-10303-21;
