ISO-10303-21;
HEADER;
FILE_DESCRIPTION (( 'STEP AP203' ),
    '1' );
FILE_NAME ('C-288-OP-2.STEP',
    '2012-04-11T00:54:44',
    ( '11sw' ),
    ( '^LQ»¢®ïÐ' ),
    'SwSTEP 2.0',
    'SolidWorks 2011',
    '' );
FILE_SCHEMA (( 'CONFIG_CONTROL_DESIGN' ));
ENDSEC;

DATA;
#1 = CC_DESIGN_PERSON_AND_ORGANIZATION_ASSIGNMENT ( #203, #332, ( #12 ) ) ;
#2 = SECURITY_CLASSIFICATION ( '', '', #333 ) ;
#3 = CC_DESIGN_PERSON_AND_ORGANIZATION_ASSIGNMENT ( #212, #328, ( #2 ) ) ;
#4 = CC_DESIGN_DATE_AND_TIME_ASSIGNMENT ( #209, #329, ( #2 ) ) ;
#5 = CC_DESIGN_PERSON_AND_ORGANIZATION_ASSIGNMENT ( #204, #335, ( #12 ) ) ;
#6 = CC_DESIGN_APPROVAL ( #11, ( #12 ) ) ;
#7 = CC_DESIGN_APPROVAL ( #8, ( #2 ) ) ;
#8 = APPROVAL ( #330, 'UNSPECIFIED' ) ;
#9 = PRODUCT_RELATED_PRODUCT_CATEGORY ( 'detail', '', ( #125 ) ) ;
#10 = CC_DESIGN_PERSON_AND_ORGANIZATION_ASSIGNMENT ( #193, #339, ( #19 ) ) ;
#11 = APPROVAL ( #337, 'UNSPECIFIED' ) ;
#12 = PRODUCT_DEFINITION_FORMATION_WITH_SPECIFIED_SOURCE ( 'ANY', '', #125, .NOT_KNOWN. ) ;
#13 = CC_DESIGN_DATE_AND_TIME_ASSIGNMENT ( #197, #336, ( #19 ) ) ;
#14 = VECTOR ( 'NONE', #253, 1000.000000000000000 ) ;
#15 = VECTOR ( 'NONE', #251, 1000.000000000000000 ) ;
#16 = AXIS2_PLACEMENT_3D ( 'NONE', #224, #223, #221 ) ;
#17 = CC_DESIGN_PERSON_AND_ORGANIZATION_ASSIGNMENT ( #192, #324, ( #125 ) ) ;
#18 = APPROVAL ( #327, 'UNSPECIFIED' ) ;
#19 = PRODUCT_DEFINITION ( 'UNKNOWN', '', #12, #23 ) ;
#20 = CC_DESIGN_SECURITY_CLASSIFICATION ( #2, ( #12 ) ) ;
#21 = CC_DESIGN_APPROVAL ( #18, ( #19 ) ) ;
#22 = PRODUCT_DEFINITION_SHAPE ( 'NONE', 'NONE',  #19 ) ;
#23 = DESIGN_CONTEXT ( 'detailed design', #325, 'design' ) ;
#24 = AXIS2_PLACEMENT_3D ( 'NONE', #299, #298, #297 ) ;
#25 = VECTOR ( 'NONE', #281, 1000.000000000000000 ) ;
#26 = AXIS2_PLACEMENT_3D ( 'NONE', #257, #256, #255 ) ;
#27 = AXIS2_PLACEMENT_3D ( 'NONE', #269, #268, #267 ) ;
#28 = VECTOR ( 'NONE', #291, 1000.000000000000000 ) ;
#29 = CIRCLE ( 'NONE', #26, 11.50000000000000000 ) ;
#30 = AXIS2_PLACEMENT_3D ( 'NONE', #279, #278, #276 ) ;
#31 = CIRCLE ( 'NONE', #37, 15.00000000000000000 ) ;
#32 = AXIS2_PLACEMENT_3D ( 'NONE', #290, #289, #288 ) ;
#33 = AXIS2_PLACEMENT_3D ( 'NONE', #266, #264, #263 ) ;
#34 = CIRCLE ( 'NONE', #27, 9.500000000000000000 ) ;
#35 = CIRCLE ( 'NONE', #30, 11.50000000000000000 ) ;
#36 = VECTOR ( 'NONE', #293, 1000.000000000000000 ) ;
#37 = AXIS2_PLACEMENT_3D ( 'NONE', #286, #285, #284 ) ;
#38 = CIRCLE ( 'NONE', #24, 9.500000000000000000 ) ;
#39 = CIRCLE ( 'NONE', #33, 11.00000000000000000 ) ;
#40 = VECTOR ( 'NONE', #273, 1000.000000000000000 ) ;
#41 = VECTOR ( 'NONE', #271, 1000.000000000000000 ) ;
#42 = CIRCLE ( 'NONE', #43, 11.00000000000000000 ) ;
#43 = AXIS2_PLACEMENT_3D ( 'NONE', #262, #261, #259 ) ;
#44 = LOCAL_TIME ( 9, 54, 44.00000000000000000, #200 ) ;
#45 = LOCAL_TIME ( 9, 54, 44.00000000000000000, #199 ) ;
#46 = LOCAL_TIME ( 9, 54, 44.00000000000000000, #189 ) ;
#47 = EDGE_CURVE ( 'NONE', #156, #157, #375, .T. ) ;
#48 = EDGE_CURVE ( 'NONE', #155, #150, #371, .T. ) ;
#49 = ADVANCED_FACE ( 'NONE', ( #159, #162 ), #352, .T. ) ;
#50 = ADVANCED_FACE ( 'NONE', ( #160 ), #161, .T. ) ;
#51 = ADVANCED_FACE ( 'NONE', ( #164 ), #378, .T. ) ;
#52 = ADVANCED_FACE ( 'NONE', ( #163 ), #166, .F. ) ;
#53 = ADVANCED_FACE ( 'NONE', ( #177 ), #176, .F. ) ;
#54 = ADVANCED_FACE ( 'NONE', ( #175 ), #174, .F. ) ;
#55 = ADVANCED_FACE ( 'NONE', ( #173, #172 ), #283, .T. ) ;
#56 = ADVANCED_FACE ( 'NONE', ( #171 ), #368, .T. ) ;
#57 = ADVANCED_FACE ( 'NONE', ( #170 ), #169, .F. ) ;
#58 = ADVANCED_FACE ( 'NONE', ( #168, #167 ), #342, .T. ) ;
#59 = EDGE_CURVE ( 'NONE', #118, #119, #367, .T. ) ;
#60 = EDGE_CURVE ( 'NONE', #158, #153, #360, .T. ) ;
#61 = EDGE_CURVE ( 'NONE', #154, #151, #354, .T. ) ;
#62 = EDGE_CURVE ( 'NONE', #157, #150, #185, .T. ) ;
#63 = ADVANCED_FACE ( 'NONE', ( #184 ), #165, .T. ) ;
#64 = EDGE_CURVE ( 'NONE', #121, #122, #363, .T. ) ;
#65 = EDGE_CURVE ( 'NONE', #157, #156, #38, .T. ) ;
#66 = EDGE_CURVE ( 'NONE', #154, #158, #183, .T. ) ;
#67 = EDGE_CURVE ( 'NONE', #156, #155, #182, .T. ) ;
#68 =( GEOMETRIC_REPRESENTATION_CONTEXT ( 3 ) GLOBAL_UNCERTAINTY_ASSIGNED_CONTEXT ( ( #127 ) ) GLOBAL_UNIT_ASSIGNED_CONTEXT ( ( #232, #231, #230 ) ) REPRESENTATION_CONTEXT ( 'NONE', 'WORKASPACE' ) );
#69 = EDGE_CURVE ( 'NONE', #119, #118, #361, .T. ) ;
#70 = EDGE_CURVE ( 'NONE', #122, #121, #31, .T. ) ;
#71 = EDGE_CURVE ( 'NONE', #151, #153, #181, .T. ) ;
#72 = EDGE_CURVE ( 'NONE', #120, #123, #35, .T. ) ;
#73 = EDGE_CURVE ( 'NONE', #123, #121, #180, .T. ) ;
#74 = EDGE_CURVE ( 'NONE', #119, #121, #179, .T. ) ;
#75 = EDGE_CURVE ( 'NONE', #150, #155, #34, .T. ) ;
#76 = EDGE_CURVE ( 'NONE', #151, #154, #39, .T. ) ;
#77 = EDGE_CURVE ( 'NONE', #153, #158, #42, .T. ) ;
#78 = EDGE_CURVE ( 'NONE', #123, #120, #29, .T. ) ;
#79 = EDGE_CURVE ( 'NONE', #120, #122, #178, .T. ) ;
#80 = EDGE_CURVE ( 'NONE', #118, #122, #186, .T. ) ;
#81 = LOCAL_TIME ( 9, 54, 44.00000000000000000, #213 ) ;
#82 = LOCAL_TIME ( 9, 54, 44.00000000000000000, #211 ) ;
#83 = MANIFOLD_SOLID_BREP ( 'ñ]1', #141 ) ;
#84 = ADVANCED_BREP_SHAPE_REPRESENTATION ( 'C-288-OP-2', ( #83, #16 ), #68 ) ;
#85 = ORIENTED_EDGE ( 'NONE', *, *, #60, .F. ) ;
#86 = ORIENTED_EDGE ( 'NONE', *, *, #61, .T. ) ;
#87 = ORIENTED_EDGE ( 'NONE', *, *, #77, .F. ) ;
#88 = ORIENTED_EDGE ( 'NONE', *, *, #79, .F. ) ;
#89 = ORIENTED_EDGE ( 'NONE', *, *, #60, .T. ) ;
#90 = ORIENTED_EDGE ( 'NONE', *, *, #76, .T. ) ;
#91 = ORIENTED_EDGE ( 'NONE', *, *, #75, .F. ) ;
#92 = ORIENTED_EDGE ( 'NONE', *, *, #71, .F. ) ;
#93 = ORIENTED_EDGE ( 'NONE', *, *, #61, .F. ) ;
#94 = ORIENTED_EDGE ( 'NONE', *, *, #70, .T. ) ;
#95 = ORIENTED_EDGE ( 'NONE', *, *, #72, .F. ) ;
#96 = ORIENTED_EDGE ( 'NONE', *, *, #79, .T. ) ;
#97 = ORIENTED_EDGE ( 'NONE', *, *, #66, .T. ) ;
#98 = ORIENTED_EDGE ( 'NONE', *, *, #64, .T. ) ;
#99 = ORIENTED_EDGE ( 'NONE', *, *, #71, .T. ) ;
#100 = ORIENTED_EDGE ( 'NONE', *, *, #69, .T. ) ;
#101 = ORIENTED_EDGE ( 'NONE', *, *, #64, .F. ) ;
#102 = ORIENTED_EDGE ( 'NONE', *, *, #73, .T. ) ;
#103 = ORIENTED_EDGE ( 'NONE', *, *, #66, .F. ) ;
#104 = ORIENTED_EDGE ( 'NONE', *, *, #67, .F. ) ;
#105 = ORIENTED_EDGE ( 'NONE', *, *, #62, .F. ) ;
#106 = ORIENTED_EDGE ( 'NONE', *, *, #62, .T. ) ;
#107 = ORIENTED_EDGE ( 'NONE', *, *, #74, .F. ) ;
#108 = ORIENTED_EDGE ( 'NONE', *, *, #75, .T. ) ;
#109 = ORIENTED_EDGE ( 'NONE', *, *, #78, .F. ) ;
#110 = ORIENTED_EDGE ( 'NONE', *, *, #48, .T. ) ;
#111 = ORIENTED_EDGE ( 'NONE', *, *, #78, .T. ) ;
#112 = ORIENTED_EDGE ( 'NONE', *, *, #48, .F. ) ;
#113 = ORIENTED_EDGE ( 'NONE', *, *, #65, .F. ) ;
#114 = ORIENTED_EDGE ( 'NONE', *, *, #47, .F. ) ;
#115 = ORIENTED_EDGE ( 'NONE', *, *, #67, .T. ) ;
#116 = ORIENTED_EDGE ( 'NONE', *, *, #76, .F. ) ;
#117 = ORIENTED_EDGE ( 'NONE', *, *, #73, .F. ) ;
#118 = VERTEX_POINT ( 'NONE', #250 ) ;
#119 = VERTEX_POINT ( 'NONE', #249 ) ;
#120 = VERTEX_POINT ( 'NONE', #248 ) ;
#121 = VERTEX_POINT ( 'NONE', #247 ) ;
#122 = VERTEX_POINT ( 'NONE', #246 ) ;
#123 = VERTEX_POINT ( 'NONE', #245 ) ;
#124 = ORIENTED_EDGE ( 'NONE', *, *, #80, .F. ) ;
#125 = PRODUCT ( 'C-288-OP-2', 'C-288-OP-2', '', ( #322 ) ) ;
#126 = PERSON ( 'UNSPECIFIED', 'UNSPECIFIED', 'UNSPECIFIED', ('UNSPECIFIED'), ('UNSPECIFIED'), ('UNSPECIFIED') ) ;
#127 = UNCERTAINTY_MEASURE_WITH_UNIT (LENGTH_MEASURE( 1.000000000000000100E-005 ), #232, 'distance_accuracy_value', 'NONE');
#128 = CALENDAR_DATE ( 2012, 11, 4 ) ;
#129 = DATE_AND_TIME ( #128, #81 ) ;
#130 = APPROVAL_DATE_TIME ( #129, #8 ) ;
#131 = ORIENTED_EDGE ( 'NONE', *, *, #59, .T. ) ;
#132 = ORIENTED_EDGE ( 'NONE', *, *, #70, .F. ) ;
#133 = EDGE_LOOP ( 'NONE', ( #116, #99, #216, #103 ) ) ;
#134 = ORIENTED_EDGE ( 'NONE', *, *, #65, .T. ) ;
#135 = ORIENTED_EDGE ( 'NONE', *, *, #69, .F. ) ;
#136 = ORIENTED_EDGE ( 'NONE', *, *, #59, .F. ) ;
#137 = EDGE_LOOP ( 'NONE', ( #135, #136 ) ) ;
#138 = EDGE_LOOP ( 'NONE', ( #215, #134 ) ) ;
#139 = EDGE_LOOP ( 'NONE', ( #92, #93, #97, #89 ) ) ;
#140 = EDGE_LOOP ( 'NONE', ( #112, #91 ) ) ;
#141 = CLOSED_SHELL ( 'NONE', ( #50, #51, #54, #52, #53, #55, #57, #58, #56, #63, #49 ) ) ;
#142 = EDGE_LOOP ( 'NONE', ( #86, #90 ) ) ;
#143 = EDGE_LOOP ( 'NONE', ( #109, #102, #98, #88 ) ) ;
#144 = EDGE_LOOP ( 'NONE', ( #105, #114, #115, #110 ) ) ;
#145 = EDGE_LOOP ( 'NONE', ( #85, #87 ) ) ;
#146 = EDGE_LOOP ( 'NONE', ( #219, #111 ) ) ;
#147 = EDGE_LOOP ( 'NONE', ( #113, #106, #108, #104 ) ) ;
#148 = EDGE_LOOP ( 'NONE', ( #117, #95, #96, #94 ) ) ;
#149 = EDGE_LOOP ( 'NONE', ( #100, #217, #101, #107 ) ) ;
#150 = VERTEX_POINT ( 'NONE', #244 ) ;
#151 = VERTEX_POINT ( 'NONE', #243 ) ;
#152 = EDGE_LOOP ( 'NONE', ( #124, #131, #218, #132 ) ) ;
#153 = VERTEX_POINT ( 'NONE', #242 ) ;
#154 = VERTEX_POINT ( 'NONE', #241 ) ;
#155 = VERTEX_POINT ( 'NONE', #240 ) ;
#156 = VERTEX_POINT ( 'NONE', #239 ) ;
#157 = VERTEX_POINT ( 'NONE', #238 ) ;
#158 = VERTEX_POINT ( 'NONE', #237 ) ;
#159 = FACE_BOUND ( 'NONE', #138, .T. ) ;
#160 = FACE_OUTER_BOUND ( 'NONE', #149, .T. ) ;
#161 = CYLINDRICAL_SURFACE ( 'NONE', #365, 15.00000000000000000 ) ;
#162 = FACE_OUTER_BOUND ( 'NONE', #137, .T. ) ;
#163 = FACE_OUTER_BOUND ( 'NONE', #147, .T. ) ;
#164 = FACE_OUTER_BOUND ( 'NONE', #143, .T. ) ;
#165 = CYLINDRICAL_SURFACE ( 'NONE', #362, 15.00000000000000000 ) ;
#166 = CYLINDRICAL_SURFACE ( 'NONE', #366, 9.500000000000000000 ) ;
#167 = FACE_BOUND ( 'NONE', #145, .T. ) ;
#168 = FACE_OUTER_BOUND ( 'NONE', #146, .T. ) ;
#169 = CYLINDRICAL_SURFACE ( 'NONE', #369, 11.00000000000000000 ) ;
#170 = FACE_OUTER_BOUND ( 'NONE', #139, .T. ) ;
#171 = FACE_OUTER_BOUND ( 'NONE', #148, .T. ) ;
#172 = FACE_BOUND ( 'NONE', #140, .T. ) ;
#173 = FACE_OUTER_BOUND ( 'NONE', #142, .T. ) ;
#174 = CYLINDRICAL_SURFACE ( 'NONE', #370, 11.00000000000000000 ) ;
#175 = FACE_OUTER_BOUND ( 'NONE', #133, .T. ) ;
#176 = CYLINDRICAL_SURFACE ( 'NONE', #372, 9.500000000000000000 ) ;
#177 = FACE_OUTER_BOUND ( 'NONE', #144, .T. ) ;
#178 = LINE ( 'NONE', #254, #14 ) ;
#179 = LINE ( 'NONE', #272, #41 ) ;
#180 = LINE ( 'NONE', #275, #40 ) ;
#181 = LINE ( 'NONE', #282, #25 ) ;
#182 = LINE ( 'NONE', #292, #28 ) ;
#183 = LINE ( 'NONE', #295, #36 ) ;
#184 = FACE_OUTER_BOUND ( 'NONE', #152, .T. ) ;
#185 = LINE ( 'NONE', #310, #364 ) ;
#186 = LINE ( 'NONE', #252, #15 ) ;
#187 = ORGANIZATION ( 'UNSPECIFIED', 'UNSPECIFIED', '' ) ;
#188 = SHAPE_DEFINITION_REPRESENTATION ( #22, #84 ) ;
#189 = COORDINATED_UNIVERSAL_TIME_OFFSET ( 9, 0, .AHEAD. ) ;
#190 = APPROVAL_PERSON_ORGANIZATION ( #191, #18, #338 ) ;
#191 = PERSON_AND_ORGANIZATION ( #126, #187 ) ;
#192 = PERSON_AND_ORGANIZATION ( #126, #187 ) ;
#193 = PERSON_AND_ORGANIZATION ( #126, #187 ) ;
#194 = APPROVAL_DATE_TIME ( #195, #18 ) ;
#195 = DATE_AND_TIME ( #196, #46 ) ;
#196 = CALENDAR_DATE ( 2012, 11, 4 ) ;
#197 = DATE_AND_TIME ( #198, #45 ) ;
#198 = CALENDAR_DATE ( 2012, 11, 4 ) ;
#199 = COORDINATED_UNIVERSAL_TIME_OFFSET ( 9, 0, .AHEAD. ) ;
#200 = COORDINATED_UNIVERSAL_TIME_OFFSET ( 9, 0, .AHEAD. ) ;
#201 = APPROVAL_PERSON_ORGANIZATION ( #202, #11, #334 ) ;
#202 = PERSON_AND_ORGANIZATION ( #126, #187 ) ;
#203 = PERSON_AND_ORGANIZATION ( #126, #187 ) ;
#204 = PERSON_AND_ORGANIZATION ( #126, #187 ) ;
#205 = APPROVAL_DATE_TIME ( #206, #11 ) ;
#206 = DATE_AND_TIME ( #207, #44 ) ;
#207 = CALENDAR_DATE ( 2012, 11, 4 ) ;
#208 = PERSON_AND_ORGANIZATION ( #126, #187 ) ;
#209 = DATE_AND_TIME ( #210, #82 ) ;
#210 = CALENDAR_DATE ( 2012, 11, 4 ) ;
#211 = COORDINATED_UNIVERSAL_TIME_OFFSET ( 9, 0, .AHEAD. ) ;
#212 = PERSON_AND_ORGANIZATION ( #126, #187 ) ;
#213 = COORDINATED_UNIVERSAL_TIME_OFFSET ( 9, 0, .AHEAD. ) ;
#214 = APPROVAL_PERSON_ORGANIZATION ( #208, #8, #331 ) ;
#215 = ORIENTED_EDGE ( 'NONE', *, *, #47, .T. ) ;
#216 = ORIENTED_EDGE ( 'NONE', *, *, #77, .T. ) ;
#217 = ORIENTED_EDGE ( 'NONE', *, *, #80, .T. ) ;
#218 = ORIENTED_EDGE ( 'NONE', *, *, #74, .T. ) ;
#219 = ORIENTED_EDGE ( 'NONE', *, *, #72, .T. ) ;
#220 = DIRECTION ( 'NONE',  ( 0.0000000000000000000, 0.0000000000000000000, -1.000000000000000000 ) ) ;
#221 = DIRECTION ( 'NONE',  ( 1.000000000000000000, 0.0000000000000000000, 0.0000000000000000000 ) ) ;
#222 = CARTESIAN_POINT ( 'NONE',  ( 0.0000000000000000000, -15.00000000000000000, 0.0000000000000000000 ) ) ;
#223 = DIRECTION ( 'NONE',  ( 0.0000000000000000000, 0.0000000000000000000, 1.000000000000000000 ) ) ;
#224 = CARTESIAN_POINT ( 'NONE',  ( 0.0000000000000000000, 0.0000000000000000000, 0.0000000000000000000 ) ) ;
#225 = DIRECTION ( 'NONE',  ( -1.000000000000000000, 0.0000000000000000000, 0.0000000000000000000 ) ) ;
#226 = CARTESIAN_POINT ( 'NONE',  ( 0.0000000000000000000, 0.0000000000000000000, 6.848067817522000700 ) ) ;
#227 = DIRECTION ( 'NONE',  ( -0.0000000000000000000, -0.0000000000000000000, 1.000000000000000000 ) ) ;
#228 = DIRECTION ( 'NONE',  ( 1.000000000000000000, 0.0000000000000000000, 0.0000000000000000000 ) ) ;
#229 = DIRECTION ( 'NONE',  ( 0.0000000000000000000, 0.0000000000000000000, -1.000000000000000000 ) ) ;
#230 =( NAMED_UNIT ( * ) SI_UNIT ( $, .STERADIAN. ) SOLID_ANGLE_UNIT ( ) );
#231 =( NAMED_UNIT ( * ) PLANE_ANGLE_UNIT ( ) SI_UNIT ( $, .RADIAN. ) );
#232 =( LENGTH_UNIT ( ) NAMED_UNIT ( * ) SI_UNIT ( .MILLI., .METRE. ) );
#233 = DIRECTION ( 'NONE',  ( -1.000000000000000000, 0.0000000000000000000, -0.0000000000000000000 ) ) ;
#234 = CARTESIAN_POINT ( 'NONE',  ( 0.0000000000000000000, 0.0000000000000000000, 6.848067817522000700 ) ) ;
#235 = DIRECTION ( 'NONE',  ( -0.0000000000000000000, -0.0000000000000000000, 1.000000000000000000 ) ) ;
#236 = DIRECTION ( 'NONE',  ( 1.000000000000000000, 0.0000000000000000000, 0.0000000000000000000 ) ) ;
#237 = CARTESIAN_POINT ( 'NONE',  ( 11.00000000000000000, 0.0000000000000000000, 6.000000000000000000 ) ) ;
#238 = CARTESIAN_POINT ( 'NONE',  ( -9.500000000000000000, 1.163414459189985500E-015, 0.0000000000000000000 ) ) ;
#239 = CARTESIAN_POINT ( 'NONE',  ( 9.500000000000000000, 0.0000000000000000000, 0.0000000000000000000 ) ) ;
#240 = CARTESIAN_POINT ( 'NONE',  ( 9.500000000000000000, 0.0000000000000000000, 2.400000000000001200 ) ) ;
#241 = CARTESIAN_POINT ( 'NONE',  ( 11.00000000000000000, 0.0000000000000000000, 2.400000000000000400 ) ) ;
#242 = CARTESIAN_POINT ( 'NONE',  ( -11.00000000000000000, 1.347111479062088400E-015, 6.000000000000000000 ) ) ;
#243 = CARTESIAN_POINT ( 'NONE',  ( -11.00000000000000000, 1.347111479062088400E-015, 2.400000000000000400 ) ) ;
#244 = CARTESIAN_POINT ( 'NONE',  ( -9.500000000000000000, 1.163414459189985500E-015, 2.400000000000001200 ) ) ;
#245 = CARTESIAN_POINT ( 'NONE',  ( 11.50000000000000000, 1.622657008870242900E-015, 6.000000000000000000 ) ) ;
#246 = CARTESIAN_POINT ( 'NONE',  ( -15.00000000000000000, 0.0000000000000000000, 0.5000000000000004400 ) ) ;
#247 = CARTESIAN_POINT ( 'NONE',  ( 15.00000000000000000, 1.836970198721029600E-015, 0.5000000000000004400 ) ) ;
#248 = CARTESIAN_POINT ( 'NONE',  ( -11.50000000000000000, 0.0000000000000000000, 6.000000000000000000 ) ) ;
#249 = CARTESIAN_POINT ( 'NONE',  ( 15.00000000000000000, 0.0000000000000000000, 0.0000000000000000000 ) ) ;
#250 = CARTESIAN_POINT ( 'NONE',  ( -15.00000000000000000, 1.836970198721029600E-015, 0.0000000000000000000 ) ) ;
#251 = DIRECTION ( 'NONE',  ( -0.0000000000000000000, -0.0000000000000000000, 1.000000000000000000 ) ) ;
#252 = CARTESIAN_POINT ( 'NONE',  ( -15.00000000000000000, 1.836970198721029600E-015, 6.848067817522000700 ) ) ;
#253 = DIRECTION ( 'NONE',  ( -0.5368754921931593300, 0.0000000000000000000, -0.8436614877321074700 ) ) ;
#254 = CARTESIAN_POINT ( 'NONE',  ( -11.50000000000000000, 0.0000000000000000000, 6.000000000000000000 ) ) ;
#255 = DIRECTION ( 'NONE',  ( 1.000000000000000000, 0.0000000000000000000, 0.0000000000000000000 ) ) ;
#256 = DIRECTION ( 'NONE',  ( -0.0000000000000000000, -0.0000000000000000000, 1.000000000000000000 ) ) ;
#257 = CARTESIAN_POINT ( 'NONE',  ( 0.0000000000000000000, 0.0000000000000000000, 6.000000000000000000 ) ) ;
#258 = CARTESIAN_POINT ( 'NONE',  ( 0.0000000000000000000, 0.0000000000000000000, 6.848067817522000700 ) ) ;
#259 = DIRECTION ( 'NONE',  ( 1.000000000000000000, 0.0000000000000000000, 0.0000000000000000000 ) ) ;
#260 = DIRECTION ( 'NONE',  ( -0.0000000000000000000, -0.0000000000000000000, 1.000000000000000000 ) ) ;
#261 = DIRECTION ( 'NONE',  ( -0.0000000000000000000, -0.0000000000000000000, 1.000000000000000000 ) ) ;
#262 = CARTESIAN_POINT ( 'NONE',  ( 0.0000000000000000000, 0.0000000000000000000, 6.000000000000000000 ) ) ;
#263 = DIRECTION ( 'NONE',  ( 1.000000000000000000, 0.0000000000000000000, 0.0000000000000000000 ) ) ;
#264 = DIRECTION ( 'NONE',  ( -0.0000000000000000000, -0.0000000000000000000, 1.000000000000000000 ) ) ;
#265 = DIRECTION ( 'NONE',  ( 1.000000000000000000, 0.0000000000000000000, 0.0000000000000000000 ) ) ;
#266 = CARTESIAN_POINT ( 'NONE',  ( 0.0000000000000000000, 0.0000000000000000000, 2.400000000000000400 ) ) ;
#267 = DIRECTION ( 'NONE',  ( 1.000000000000000000, 0.0000000000000000000, 0.0000000000000000000 ) ) ;
#268 = DIRECTION ( 'NONE',  ( -0.0000000000000000000, -0.0000000000000000000, 1.000000000000000000 ) ) ;
#269 = CARTESIAN_POINT ( 'NONE',  ( 0.0000000000000000000, 0.0000000000000000000, 2.400000000000001200 ) ) ;
#270 = CARTESIAN_POINT ( 'NONE',  ( 0.0000000000000000000, 0.0000000000000000000, 6.000000000000000000 ) ) ;
#271 = DIRECTION ( 'NONE',  ( -0.0000000000000000000, -0.0000000000000000000, 1.000000000000000000 ) ) ;
#272 = CARTESIAN_POINT ( 'NONE',  ( 15.00000000000000000, 0.0000000000000000000, 6.848067817522000700 ) ) ;
#273 = DIRECTION ( 'NONE',  ( 0.5368754921931593300, 6.574828530550123500E-017, -0.8436614877321074700 ) ) ;
#274 = CARTESIAN_POINT ( 'NONE',  ( 0.0000000000000000000, 0.0000000000000000000, 6.848067817522000700 ) ) ;
#275 = CARTESIAN_POINT ( 'NONE',  ( 11.50000000000000000, 1.408343819019456200E-015, 6.000000000000000000 ) ) ;
#276 = DIRECTION ( 'NONE',  ( 1.000000000000000000, 0.0000000000000000000, 0.0000000000000000000 ) ) ;
#277 = DIRECTION ( 'NONE',  ( -0.0000000000000000000, -0.0000000000000000000, 1.000000000000000000 ) ) ;
#278 = DIRECTION ( 'NONE',  ( -0.0000000000000000000, -0.0000000000000000000, 1.000000000000000000 ) ) ;
#279 = CARTESIAN_POINT ( 'NONE',  ( 0.0000000000000000000, 0.0000000000000000000, 6.000000000000000000 ) ) ;
#280 = DIRECTION ( 'NONE',  ( 1.000000000000000000, 0.0000000000000000000, 0.0000000000000000000 ) ) ;
#281 = DIRECTION ( 'NONE',  ( -0.0000000000000000000, -0.0000000000000000000, 1.000000000000000000 ) ) ;
#282 = CARTESIAN_POINT ( 'NONE',  ( -11.00000000000000000, 1.347111479062088400E-015, 6.848067817522000700 ) ) ;
#283 = PLANE ( 'NONE',  #358 ) ;
#284 = DIRECTION ( 'NONE',  ( 1.000000000000000000, 0.0000000000000000000, 0.0000000000000000000 ) ) ;
#285 = DIRECTION ( 'NONE',  ( -0.0000000000000000000, -0.0000000000000000000, 1.000000000000000000 ) ) ;
#286 = CARTESIAN_POINT ( 'NONE',  ( 0.0000000000000000000, 0.0000000000000000000, 0.5000000000000004400 ) ) ;
#287 = CARTESIAN_POINT ( 'NONE',  ( 0.0000000000000000000, -9.500000000000000000, 2.400000000000000400 ) ) ;
#288 = DIRECTION ( 'NONE',  ( 1.000000000000000000, 0.0000000000000000000, 0.0000000000000000000 ) ) ;
#289 = DIRECTION ( 'NONE',  ( -0.0000000000000000000, -0.0000000000000000000, 1.000000000000000000 ) ) ;
#290 = CARTESIAN_POINT ( 'NONE',  ( 0.0000000000000000000, 0.0000000000000000000, 0.0000000000000000000 ) ) ;
#291 = DIRECTION ( 'NONE',  ( -0.0000000000000000000, -0.0000000000000000000, 1.000000000000000000 ) ) ;
#292 = CARTESIAN_POINT ( 'NONE',  ( 9.500000000000000000, 0.0000000000000000000, 6.848067817522000700 ) ) ;
#293 = DIRECTION ( 'NONE',  ( -0.0000000000000000000, -0.0000000000000000000, 1.000000000000000000 ) ) ;
#294 = DIRECTION ( 'NONE',  ( 0.0000000000000000000, -0.0000000000000000000, 1.000000000000000000 ) ) ;
#295 = CARTESIAN_POINT ( 'NONE',  ( 11.00000000000000000, 0.0000000000000000000, 6.848067817522000700 ) ) ;
#296 = DIRECTION ( 'NONE',  ( 1.000000000000000000, 0.0000000000000000000, 0.0000000000000000000 ) ) ;
#297 = DIRECTION ( 'NONE',  ( 1.000000000000000000, 0.0000000000000000000, 0.0000000000000000000 ) ) ;
#298 = DIRECTION ( 'NONE',  ( -0.0000000000000000000, -0.0000000000000000000, 1.000000000000000000 ) ) ;
#299 = CARTESIAN_POINT ( 'NONE',  ( 0.0000000000000000000, 0.0000000000000000000, 0.0000000000000000000 ) ) ;
#300 = CARTESIAN_POINT ( 'NONE',  ( 0.0000000000000000000, 0.0000000000000000000, 6.000000000000000000 ) ) ;
#301 = DIRECTION ( 'NONE',  ( 1.000000000000000000, 0.0000000000000000000, 0.0000000000000000000 ) ) ;
#302 = DIRECTION ( 'NONE',  ( -0.0000000000000000000, -0.0000000000000000000, 1.000000000000000000 ) ) ;
#303 = CARTESIAN_POINT ( 'NONE',  ( 0.0000000000000000000, 0.0000000000000000000, 0.5000000000000004400 ) ) ;
#304 = DIRECTION ( 'NONE',  ( 0.0000000000000000000, 0.0000000000000000000, -1.000000000000000000 ) ) ;
#305 = DIRECTION ( 'NONE',  ( -1.000000000000000000, 0.0000000000000000000, 0.0000000000000000000 ) ) ;
#306 = DIRECTION ( 'NONE',  ( 1.000000000000000000, 0.0000000000000000000, 0.0000000000000000000 ) ) ;
#307 = DIRECTION ( 'NONE',  ( -0.0000000000000000000, -0.0000000000000000000, 1.000000000000000000 ) ) ;
#308 = CARTESIAN_POINT ( 'NONE',  ( 0.0000000000000000000, 0.0000000000000000000, 6.848067817522000700 ) ) ;
#309 = DIRECTION ( 'NONE',  ( -0.0000000000000000000, -0.0000000000000000000, 1.000000000000000000 ) ) ;
#310 = CARTESIAN_POINT ( 'NONE',  ( -9.500000000000000000, 1.163414459189985500E-015, 6.848067817522000700 ) ) ;
#311 = DIRECTION ( 'NONE',  ( 1.000000000000000000, 0.0000000000000000000, 0.0000000000000000000 ) ) ;
#312 = DIRECTION ( 'NONE',  ( -0.0000000000000000000, -0.0000000000000000000, 1.000000000000000000 ) ) ;
#313 = CARTESIAN_POINT ( 'NONE',  ( 0.0000000000000000000, 0.0000000000000000000, 2.400000000000000400 ) ) ;
#314 = DIRECTION ( 'NONE',  ( 1.000000000000000000, 0.0000000000000000000, 0.0000000000000000000 ) ) ;
#315 = DIRECTION ( 'NONE',  ( -0.0000000000000000000, -0.0000000000000000000, 1.000000000000000000 ) ) ;
#316 = CARTESIAN_POINT ( 'NONE',  ( 0.0000000000000000000, 0.0000000000000000000, 6.000000000000000000 ) ) ;
#317 = CARTESIAN_POINT ( 'NONE',  ( 0.0000000000000000000, 0.0000000000000000000, 6.848067817522000700 ) ) ;
#318 = DIRECTION ( 'NONE',  ( 1.000000000000000000, 0.0000000000000000000, 0.0000000000000000000 ) ) ;
#319 = CARTESIAN_POINT ( 'NONE',  ( 0.0000000000000000000, 0.0000000000000000000, 0.0000000000000000000 ) ) ;
#320 = DIRECTION ( 'NONE',  ( -0.0000000000000000000, -0.0000000000000000000, 1.000000000000000000 ) ) ;
#321 = APPLICATION_PROTOCOL_DEFINITION ( 'international standard', 'config_control_design', 1994, #323 ) ;
#322 = MECHANICAL_CONTEXT ( 'NONE', #323, 'mechanical' ) ;
#323 = APPLICATION_CONTEXT ( 'configuration controlled 3d designs of mechanical parts and assemblies' ) ;
#324 = PERSON_AND_ORGANIZATION_ROLE ( 'design_owner' ) ;
#325 = APPLICATION_CONTEXT ( 'configuration controlled 3d designs of mechanical parts and assemblies' ) ;
#326 = APPLICATION_PROTOCOL_DEFINITION ( 'international standard', 'config_control_design', 1994, #325 ) ;
#327 = APPROVAL_STATUS ( 'not_yet_approved' ) ;
#328 = PERSON_AND_ORGANIZATION_ROLE ( 'classification_officer' ) ;
#329 = DATE_TIME_ROLE ( 'classification_date' ) ;
#330 = APPROVAL_STATUS ( 'not_yet_approved' ) ;
#331 = APPROVAL_ROLE ( '' ) ;
#332 = PERSON_AND_ORGANIZATION_ROLE ( 'design_supplier' ) ;
#333 = SECURITY_CLASSIFICATION_LEVEL ( 'unclassified' ) ;
#334 = APPROVAL_ROLE ( '' ) ;
#335 = PERSON_AND_ORGANIZATION_ROLE ( 'creator' ) ;
#336 = DATE_TIME_ROLE ( 'creation_date' ) ;
#337 = APPROVAL_STATUS ( 'not_yet_approved' ) ;
#338 = APPROVAL_ROLE ( '' ) ;
#339 = PERSON_AND_ORGANIZATION_ROLE ( 'creator' ) ;
#340 = DIRECTION ( 'NONE',  ( -0.0000000000000000000, -0.0000000000000000000, 1.000000000000000000 ) ) ;
#341 = DIRECTION ( 'NONE',  ( 1.000000000000000000, 0.0000000000000000000, 0.0000000000000000000 ) ) ;
#342 = PLANE ( 'NONE',  #359 ) ;
#343 = CARTESIAN_POINT ( 'NONE',  ( 0.0000000000000000000, -11.00000000000000000, 6.000000000000000000 ) ) ;
#344 = CARTESIAN_POINT ( 'NONE',  ( 0.0000000000000000000, 0.0000000000000000000, 0.0000000000000000000 ) ) ;
#345 = DIRECTION ( 'NONE',  ( -0.0000000000000000000, -0.0000000000000000000, 1.000000000000000000 ) ) ;
#346 = DIRECTION ( 'NONE',  ( 1.000000000000000000, 0.0000000000000000000, 0.0000000000000000000 ) ) ;
#347 = DIRECTION ( 'NONE',  ( 0.0000000000000000000, -0.0000000000000000000, 1.000000000000000000 ) ) ;
#348 = DIRECTION ( 'NONE',  ( 1.000000000000000000, 0.0000000000000000000, 0.0000000000000000000 ) ) ;
#349 = CARTESIAN_POINT ( 'NONE',  ( 0.0000000000000000000, 0.0000000000000000000, 2.400000000000001200 ) ) ;
#350 = DIRECTION ( 'NONE',  ( -0.0000000000000000000, -0.0000000000000000000, 1.000000000000000000 ) ) ;
#351 = DIRECTION ( 'NONE',  ( 1.000000000000000000, 0.0000000000000000000, 0.0000000000000000000 ) ) ;
#352 = PLANE ( 'NONE',  #377 ) ;
#353 = AXIS2_PLACEMENT_3D ( 'NONE', #313, #312, #311 ) ;
#354 = CIRCLE ( 'NONE', #353, 11.00000000000000000 ) ;
#355 = AXIS2_PLACEMENT_3D ( 'NONE', #303, #302, #301 ) ;
#356 = AXIS2_PLACEMENT_3D ( 'NONE', #316, #315, #314 ) ;
#357 = AXIS2_PLACEMENT_3D ( 'NONE', #319, #320, #318 ) ;
#358 = AXIS2_PLACEMENT_3D ( 'NONE', #287, #294, #296 ) ;
#359 = AXIS2_PLACEMENT_3D ( 'NONE', #343, #347, #348 ) ;
#360 = CIRCLE ( 'NONE', #356, 11.00000000000000000 ) ;
#361 = CIRCLE ( 'NONE', #32, 15.00000000000000000 ) ;
#362 = AXIS2_PLACEMENT_3D ( 'NONE', #308, #307, #306 ) ;
#363 = CIRCLE ( 'NONE', #355, 15.00000000000000000 ) ;
#364 = VECTOR ( 'NONE', #309, 1000.000000000000000 ) ;
#365 = AXIS2_PLACEMENT_3D ( 'NONE', #258, #260, #265 ) ;
#366 = AXIS2_PLACEMENT_3D ( 'NONE', #226, #227, #228 ) ;
#367 = CIRCLE ( 'NONE', #357, 15.00000000000000000 ) ;
#368 = CONICAL_SURFACE ( 'NONE', #373, 11.50000000000000000, 0.5667292175235063600 ) ;
#369 = AXIS2_PLACEMENT_3D ( 'NONE', #317, #340, #341 ) ;
#370 = AXIS2_PLACEMENT_3D ( 'NONE', #274, #277, #280 ) ;
#371 = CIRCLE ( 'NONE', #376, 9.500000000000000000 ) ;
#372 = AXIS2_PLACEMENT_3D ( 'NONE', #234, #235, #236 ) ;
#373 = AXIS2_PLACEMENT_3D ( 'NONE', #300, #304, #305 ) ;
#374 = AXIS2_PLACEMENT_3D ( 'NONE', #344, #345, #346 ) ;
#375 = CIRCLE ( 'NONE', #374, 9.500000000000000000 ) ;
#376 = AXIS2_PLACEMENT_3D ( 'NONE', #349, #350, #351 ) ;
#377 = AXIS2_PLACEMENT_3D ( 'NONE', #222, #229, #233 ) ;
#378 = CONICAL_SURFACE ( 'NONE', #379, 11.50000000000000000, 0.5667292175235063600 ) ;
#379 = AXIS2_PLACEMENT_3D ( 'NONE', #270, #220, #225 ) ;
ENDSEC;
END-ISO-10303-21;
