ISO-10303-21;
HEADER;
FILE_DESCRIPTION (( 'STEP AP203' ),
    '1' );
FILE_NAME ('C-288-OP-1.STEP',
    '2012-04-11T00:53:42',
    ( '11sw' ),
    ( '^LQ»¢®ïÐ' ),
    'SwSTEP 2.0',
    'SolidWorks 2011',
    '' );
FILE_SCHEMA (( 'CONFIG_CONTROL_DESIGN' ));
ENDSEC;

DATA;
#1 = CC_DESIGN_DATE_AND_TIME_ASSIGNMENT ( #97, #308, ( #66 ) ) ;
#2 = CC_DESIGN_DATE_AND_TIME_ASSIGNMENT ( #85, #316, ( #11 ) ) ;
#3 = CC_DESIGN_PERSON_AND_ORGANIZATION_ASSIGNMENT ( #88, #315, ( #11 ) ) ;
#4 = APPROVAL ( #309, 'UNSPECIFIED' ) ;
#5 = PRODUCT_DEFINITION_FORMATION_WITH_SPECIFIED_SOURCE ( 'ANY', '', #16, .NOT_KNOWN. ) ;
#6 = CC_DESIGN_APPROVAL ( #9, ( #11 ) ) ;
#7 = CC_DESIGN_APPROVAL ( #4, ( #5 ) ) ;
#8 = CC_DESIGN_PERSON_AND_ORGANIZATION_ASSIGNMENT ( #90, #298, ( #5 ) ) ;
#9 = APPROVAL ( #317, 'UNSPECIFIED' ) ;
#10 = PRODUCT_RELATED_PRODUCT_CATEGORY ( 'detail', '', ( #16 ) ) ;
#11 = SECURITY_CLASSIFICATION ( '', '', #314 ) ;
#12 = CC_DESIGN_SECURITY_CLASSIFICATION ( #11, ( #5 ) ) ;
#13 = CC_DESIGN_PERSON_AND_ORGANIZATION_ASSIGNMENT ( #89, #313, ( #5 ) ) ;
#14 = DESIGN_CONTEXT ( 'detailed design', #284, 'design' ) ;
#15 = PRODUCT_DEFINITION_SHAPE ( 'NONE', 'NONE',  #66 ) ;
#16 = PRODUCT ( 'C-288-OP-1', 'C-288-OP-1', '', ( #282 ) ) ;
#17 = UNCERTAINTY_MEASURE_WITH_UNIT (LENGTH_MEASURE( 1.000000000000000100E-005 ), #228, 'distance_accuracy_value', 'NONE');
#18 = PERSON ( 'UNSPECIFIED', 'UNSPECIFIED', 'UNSPECIFIED', ('UNSPECIFIED'), ('UNSPECIFIED'), ('UNSPECIFIED') ) ;
#19 = EDGE_CURVE ( 'NONE', #173, #177, #378, .T. ) ;
#20 = EDGE_CURVE ( 'NONE', #170, #171, #344, .T. ) ;
#21 = EDGE_CURVE ( 'NONE', #171, #170, #354, .T. ) ;
#22 = EDGE_CURVE ( 'NONE', #176, #174, #357, .T. ) ;
#23 = EDGE_CURVE ( 'NONE', #169, #168, #377, .T. ) ;
#24 = EDGE_CURVE ( 'NONE', #172, #167, #372, .T. ) ;
#25 = EDGE_CURVE ( 'NONE', #178, #175, #373, .T. ) ;
#26 = EDGE_CURVE ( 'NONE', #165, #166, #346, .T. ) ;
#27 = ADVANCED_FACE ( 'NONE', ( #143, #142 ), #221, .T. ) ;
#28 = ADVANCED_FACE ( 'NONE', ( #144 ), #141, .F. ) ;
#29 = ADVANCED_FACE ( 'NONE', ( #140 ), #139, .F. ) ;
#30 = ADVANCED_FACE ( 'NONE', ( #138, #137 ), #332, .T. ) ;
#31 = ADVANCED_FACE ( 'NONE', ( #136 ), #135, .F. ) ;
#32 = ADVANCED_FACE ( 'NONE', ( #134 ), #133, .F. ) ;
#33 = ADVANCED_FACE ( 'NONE', ( #132 ), #359, .T. ) ;
#34 = ADVANCED_FACE ( 'NONE', ( #131 ), #128, .T. ) ;
#35 = ADVANCED_FACE ( 'NONE', ( #127, #123 ), #310, .T. ) ;
#36 = ADVANCED_FACE ( 'NONE', ( #122 ), #349, .T. ) ;
#37 = ADVANCED_FACE ( 'NONE', ( #121 ), #120, .T. ) ;
#38 =( GEOMETRIC_REPRESENTATION_CONTEXT ( 3 ) GLOBAL_UNCERTAINTY_ASSIGNED_CONTEXT ( ( #17 ) ) GLOBAL_UNIT_ASSIGNED_CONTEXT ( ( #228, #227, #226 ) ) REPRESENTATION_CONTEXT ( 'NONE', 'WORKASPACE' ) );
#39 = EDGE_CURVE ( 'NONE', #171, #176, #118, .T. ) ;
#40 = EDGE_CURVE ( 'NONE', #166, #167, #117, .T. ) ;
#41 = EDGE_CURVE ( 'NONE', #175, #178, #352, .T. ) ;
#42 = EDGE_CURVE ( 'NONE', #174, #176, #361, .T. ) ;
#43 = EDGE_CURVE ( 'NONE', #175, #167, #116, .T. ) ;
#44 = EDGE_CURVE ( 'NONE', #168, #177, #115, .T. ) ;
#45 = EDGE_CURVE ( 'NONE', #169, #173, #114, .T. ) ;
#46 = EDGE_CURVE ( 'NONE', #170, #174, #113, .T. ) ;
#47 = EDGE_CURVE ( 'NONE', #178, #172, #112, .T. ) ;
#48 = EDGE_CURVE ( 'NONE', #167, #172, #67, .T. ) ;
#49 = EDGE_CURVE ( 'NONE', #177, #173, #356, .T. ) ;
#50 = EDGE_CURVE ( 'NONE', #168, #169, #375, .T. ) ;
#51 = EDGE_CURVE ( 'NONE', #165, #172, #111, .T. ) ;
#52 = EDGE_CURVE ( 'NONE', #166, #165, #61, .T. ) ;
#53 = LOCAL_TIME ( 9, 53, 42.00000000000000000, #104 ) ;
#54 = LOCAL_TIME ( 9, 53, 42.00000000000000000, #94 ) ;
#55 = LOCAL_TIME ( 9, 53, 42.00000000000000000, #99 ) ;
#56 = LOCAL_TIME ( 9, 53, 42.00000000000000000, #82 ) ;
#57 = LOCAL_TIME ( 9, 53, 42.00000000000000000, #87 ) ;
#58 = ADVANCED_BREP_SHAPE_REPRESENTATION ( 'C-288-OP-1', ( #59, #64 ), #38 ) ;
#59 = MANIFOLD_SOLID_BREP ( 'ñ]1', #146 ) ;
#60 = AXIS2_PLACEMENT_3D ( 'NONE', #255, #254, #252 ) ;
#61 = CIRCLE ( 'NONE', #63, 15.00000000000000000 ) ;
#62 = VECTOR ( 'NONE', #249, 1000.000000000000000 ) ;
#63 = AXIS2_PLACEMENT_3D ( 'NONE', #248, #247, #245 ) ;
#64 = AXIS2_PLACEMENT_3D ( 'NONE', #225, #224, #223 ) ;
#65 = CC_DESIGN_PERSON_AND_ORGANIZATION_ASSIGNMENT ( #107, #283, ( #16 ) ) ;
#66 = PRODUCT_DEFINITION ( 'UNKNOWN', '', #5, #14 ) ;
#67 = CIRCLE ( 'NONE', #69, 15.00000000000000000 ) ;
#68 = AXIS2_PLACEMENT_3D ( 'NONE', #278, #276, #275 ) ;
#69 = AXIS2_PLACEMENT_3D ( 'NONE', #262, #261, #260 ) ;
#70 = CC_DESIGN_PERSON_AND_ORGANIZATION_ASSIGNMENT ( #100, #303, ( #66 ) ) ;
#71 = CC_DESIGN_APPROVAL ( #72, ( #66 ) ) ;
#72 = APPROVAL ( #286, 'UNSPECIFIED' ) ;
#73 = VECTOR ( 'NONE', #264, 1000.000000000000000 ) ;
#74 = VECTOR ( 'NONE', #273, 1000.000000000000000 ) ;
#75 = VECTOR ( 'NONE', #271, 1000.000000000000000 ) ;
#76 = VECTOR ( 'NONE', #269, 1000.000000000000000 ) ;
#77 = AXIS2_PLACEMENT_3D ( 'NONE', #259, #257, #256 ) ;
#78 = VECTOR ( 'NONE', #267, 1000.000000000000000 ) ;
#79 = APPROVAL_DATE_TIME ( #80, #9 ) ;
#80 = DATE_AND_TIME ( #81, #56 ) ;
#81 = CALENDAR_DATE ( 2012, 11, 4 ) ;
#82 = COORDINATED_UNIVERSAL_TIME_OFFSET ( 9, 0, .AHEAD. ) ;
#83 = APPROVAL_PERSON_ORGANIZATION ( #84, #9, #318 ) ;
#84 = PERSON_AND_ORGANIZATION ( #18, #109 ) ;
#85 = DATE_AND_TIME ( #86, #57 ) ;
#86 = CALENDAR_DATE ( 2012, 11, 4 ) ;
#87 = COORDINATED_UNIVERSAL_TIME_OFFSET ( 9, 0, .AHEAD. ) ;
#88 = PERSON_AND_ORGANIZATION ( #18, #109 ) ;
#89 = PERSON_AND_ORGANIZATION ( #18, #109 ) ;
#90 = PERSON_AND_ORGANIZATION ( #18, #109 ) ;
#91 = APPROVAL_DATE_TIME ( #92, #4 ) ;
#92 = DATE_AND_TIME ( #93, #54 ) ;
#93 = CALENDAR_DATE ( 2012, 11, 4 ) ;
#94 = COORDINATED_UNIVERSAL_TIME_OFFSET ( 9, 0, .AHEAD. ) ;
#95 = APPROVAL_PERSON_ORGANIZATION ( #96, #4, #297 ) ;
#96 = PERSON_AND_ORGANIZATION ( #18, #109 ) ;
#97 = DATE_AND_TIME ( #98, #55 ) ;
#98 = CALENDAR_DATE ( 2012, 11, 4 ) ;
#99 = COORDINATED_UNIVERSAL_TIME_OFFSET ( 9, 0, .AHEAD. ) ;
#100 = PERSON_AND_ORGANIZATION ( #18, #109 ) ;
#101 = APPROVAL_DATE_TIME ( #102, #72 ) ;
#102 = DATE_AND_TIME ( #103, #53 ) ;
#103 = CALENDAR_DATE ( 2012, 11, 4 ) ;
#104 = COORDINATED_UNIVERSAL_TIME_OFFSET ( 9, 0, .AHEAD. ) ;
#105 = APPROVAL_PERSON_ORGANIZATION ( #106, #72, #302 ) ;
#106 = PERSON_AND_ORGANIZATION ( #18, #109 ) ;
#107 = PERSON_AND_ORGANIZATION ( #18, #109 ) ;
#108 = SHAPE_DEFINITION_REPRESENTATION ( #15, #58 ) ;
#109 = ORGANIZATION ( 'UNSPECIFIED', 'UNSPECIFIED', '' ) ;
#110 = ORIENTED_EDGE ( 'NONE', *, *, #51, .T. ) ;
#111 = LINE ( 'NONE', #250, #62 ) ;
#112 = LINE ( 'NONE', #265, #73 ) ;
#113 = LINE ( 'NONE', #268, #78 ) ;
#114 = LINE ( 'NONE', #270, #76 ) ;
#115 = LINE ( 'NONE', #272, #75 ) ;
#116 = LINE ( 'NONE', #274, #74 ) ;
#117 = LINE ( 'NONE', #288, #358 ) ;
#118 = LINE ( 'NONE', #291, #348 ) ;
#119 = ORIENTED_EDGE ( 'NONE', *, *, #49, .T. ) ;
#120 = CYLINDRICAL_SURFACE ( 'NONE', #363, 15.00000000000000000 ) ;
#121 = FACE_OUTER_BOUND ( 'NONE', #149, .T. ) ;
#122 = FACE_OUTER_BOUND ( 'NONE', #150, .T. ) ;
#123 = FACE_OUTER_BOUND ( 'NONE', #147, .T. ) ;
#124 = ORIENTED_EDGE ( 'NONE', *, *, #44, .T. ) ;
#125 = ORIENTED_EDGE ( 'NONE', *, *, #52, .T. ) ;
#126 = ORIENTED_EDGE ( 'NONE', *, *, #48, .F. ) ;
#127 = FACE_BOUND ( 'NONE', #148, .T. ) ;
#128 = CYLINDRICAL_SURFACE ( 'NONE', #368, 15.00000000000000000 ) ;
#129 = ORIENTED_EDGE ( 'NONE', *, *, #52, .F. ) ;
#130 = ORIENTED_EDGE ( 'NONE', *, *, #40, .F. ) ;
#131 = FACE_OUTER_BOUND ( 'NONE', #151, .T. ) ;
#132 = FACE_OUTER_BOUND ( 'NONE', #159, .T. ) ;
#133 = CYLINDRICAL_SURFACE ( 'NONE', #362, 9.500000000000000000 ) ;
#134 = FACE_OUTER_BOUND ( 'NONE', #158, .T. ) ;
#135 = CYLINDRICAL_SURFACE ( 'NONE', #355, 11.00000000000000000 ) ;
#136 = FACE_OUTER_BOUND ( 'NONE', #154, .T. ) ;
#137 = FACE_BOUND ( 'NONE', #156, .T. ) ;
#138 = FACE_OUTER_BOUND ( 'NONE', #157, .T. ) ;
#139 = CYLINDRICAL_SURFACE ( 'NONE', #366, 9.500000000000000000 ) ;
#140 = FACE_OUTER_BOUND ( 'NONE', #155, .T. ) ;
#141 = CYLINDRICAL_SURFACE ( 'NONE', #353, 11.00000000000000000 ) ;
#142 = FACE_BOUND ( 'NONE', #152, .T. ) ;
#143 = FACE_OUTER_BOUND ( 'NONE', #153, .T. ) ;
#144 = FACE_OUTER_BOUND ( 'NONE', #145, .T. ) ;
#145 = EDGE_LOOP ( 'NONE', ( #205, #124, #119, #192 ) ) ;
#146 = CLOSED_SHELL ( 'NONE', ( #34, #33, #28, #32, #29, #30, #31, #27, #36, #37, #35 ) ) ;
#147 = EDGE_LOOP ( 'NONE', ( #129, #180 ) ) ;
#148 = EDGE_LOOP ( 'NONE', ( #181, #179 ) ) ;
#149 = EDGE_LOOP ( 'NONE', ( #184, #183, #185, #182 ) ) ;
#150 = EDGE_LOOP ( 'NONE', ( #188, #187, #186, #191 ) ) ;
#151 = EDGE_LOOP ( 'NONE', ( #125, #110, #126, #130 ) ) ;
#152 = EDGE_LOOP ( 'NONE', ( #196, #189 ) ) ;
#153 = EDGE_LOOP ( 'NONE', ( #194, #190 ) ) ;
#154 = EDGE_LOOP ( 'NONE', ( #198, #195, #197, #161 ) ) ;
#155 = EDGE_LOOP ( 'NONE', ( #201, #202, #164, #163 ) ) ;
#156 = EDGE_LOOP ( 'NONE', ( #210, #162 ) ) ;
#157 = EDGE_LOOP ( 'NONE', ( #209, #160 ) ) ;
#158 = EDGE_LOOP ( 'NONE', ( #193, #208, #207, #200 ) ) ;
#159 = EDGE_LOOP ( 'NONE', ( #199, #204, #206, #203 ) ) ;
#160 = ORIENTED_EDGE ( 'NONE', *, *, #50, .T. ) ;
#161 = ORIENTED_EDGE ( 'NONE', *, *, #19, .T. ) ;
#162 = ORIENTED_EDGE ( 'NONE', *, *, #42, .F. ) ;
#163 = ORIENTED_EDGE ( 'NONE', *, *, #22, .T. ) ;
#164 = ORIENTED_EDGE ( 'NONE', *, *, #39, .T. ) ;
#165 = VERTEX_POINT ( 'NONE', #243 ) ;
#166 = VERTEX_POINT ( 'NONE', #242 ) ;
#167 = VERTEX_POINT ( 'NONE', #241 ) ;
#168 = VERTEX_POINT ( 'NONE', #240 ) ;
#169 = VERTEX_POINT ( 'NONE', #239 ) ;
#170 = VERTEX_POINT ( 'NONE', #238 ) ;
#171 = VERTEX_POINT ( 'NONE', #237 ) ;
#172 = VERTEX_POINT ( 'NONE', #236 ) ;
#173 = VERTEX_POINT ( 'NONE', #235 ) ;
#174 = VERTEX_POINT ( 'NONE', #234 ) ;
#175 = VERTEX_POINT ( 'NONE', #233 ) ;
#176 = VERTEX_POINT ( 'NONE', #231 ) ;
#177 = VERTEX_POINT ( 'NONE', #230 ) ;
#178 = VERTEX_POINT ( 'NONE', #229 ) ;
#179 = ORIENTED_EDGE ( 'NONE', *, *, #20, .T. ) ;
#180 = ORIENTED_EDGE ( 'NONE', *, *, #26, .F. ) ;
#181 = ORIENTED_EDGE ( 'NONE', *, *, #21, .T. ) ;
#182 = ORIENTED_EDGE ( 'NONE', *, *, #24, .F. ) ;
#183 = ORIENTED_EDGE ( 'NONE', *, *, #26, .T. ) ;
#184 = ORIENTED_EDGE ( 'NONE', *, *, #51, .F. ) ;
#185 = ORIENTED_EDGE ( 'NONE', *, *, #40, .T. ) ;
#186 = ORIENTED_EDGE ( 'NONE', *, *, #47, .T. ) ;
#187 = ORIENTED_EDGE ( 'NONE', *, *, #25, .F. ) ;
#188 = ORIENTED_EDGE ( 'NONE', *, *, #43, .F. ) ;
#189 = ORIENTED_EDGE ( 'NONE', *, *, #49, .F. ) ;
#190 = ORIENTED_EDGE ( 'NONE', *, *, #41, .T. ) ;
#191 = ORIENTED_EDGE ( 'NONE', *, *, #24, .T. ) ;
#192 = ORIENTED_EDGE ( 'NONE', *, *, #45, .F. ) ;
#193 = ORIENTED_EDGE ( 'NONE', *, *, #20, .F. ) ;
#194 = ORIENTED_EDGE ( 'NONE', *, *, #25, .T. ) ;
#195 = ORIENTED_EDGE ( 'NONE', *, *, #23, .F. ) ;
#196 = ORIENTED_EDGE ( 'NONE', *, *, #19, .F. ) ;
#197 = ORIENTED_EDGE ( 'NONE', *, *, #45, .T. ) ;
#198 = ORIENTED_EDGE ( 'NONE', *, *, #44, .F. ) ;
#199 = ORIENTED_EDGE ( 'NONE', *, *, #41, .F. ) ;
#200 = ORIENTED_EDGE ( 'NONE', *, *, #39, .F. ) ;
#201 = ORIENTED_EDGE ( 'NONE', *, *, #46, .F. ) ;
#202 = ORIENTED_EDGE ( 'NONE', *, *, #21, .F. ) ;
#203 = ORIENTED_EDGE ( 'NONE', *, *, #47, .F. ) ;
#204 = ORIENTED_EDGE ( 'NONE', *, *, #43, .T. ) ;
#205 = ORIENTED_EDGE ( 'NONE', *, *, #50, .F. ) ;
#206 = ORIENTED_EDGE ( 'NONE', *, *, #48, .T. ) ;
#207 = ORIENTED_EDGE ( 'NONE', *, *, #42, .T. ) ;
#208 = ORIENTED_EDGE ( 'NONE', *, *, #46, .T. ) ;
#209 = ORIENTED_EDGE ( 'NONE', *, *, #23, .T. ) ;
#210 = ORIENTED_EDGE ( 'NONE', *, *, #22, .F. ) ;
#211 = APPLICATION_PROTOCOL_DEFINITION ( 'international standard', 'config_control_design', 1994, #212 ) ;
#212 = APPLICATION_CONTEXT ( 'configuration controlled 3d designs of mechanical parts and assemblies' ) ;
#213 = DIRECTION ( 'NONE',  ( -0.0000000000000000000, -0.0000000000000000000, 1.000000000000000000 ) ) ;
#214 = CARTESIAN_POINT ( 'NONE',  ( 0.0000000000000000000, 0.0000000000000000000, 7.799999999999999800 ) ) ;
#215 = DIRECTION ( 'NONE',  ( -0.0000000000000000000, -0.0000000000000000000, 1.000000000000000000 ) ) ;
#216 = DIRECTION ( 'NONE',  ( 1.000000000000000000, 0.0000000000000000000, 0.0000000000000000000 ) ) ;
#217 = CARTESIAN_POINT ( 'NONE',  ( 0.0000000000000000000, 0.0000000000000000000, 0.0000000000000000000 ) ) ;
#218 = DIRECTION ( 'NONE',  ( -0.0000000000000000000, -0.0000000000000000000, 1.000000000000000000 ) ) ;
#219 = DIRECTION ( 'NONE',  ( 1.000000000000000000, 0.0000000000000000000, 0.0000000000000000000 ) ) ;
#220 = DIRECTION ( 'NONE',  ( 1.000000000000000000, 0.0000000000000000000, 0.0000000000000000000 ) ) ;
#221 = PLANE ( 'NONE',  #347 ) ;
#222 = CARTESIAN_POINT ( 'NONE',  ( 0.0000000000000000000, -11.00000000000000200, 7.799999999999999800 ) ) ;
#223 = DIRECTION ( 'NONE',  ( 1.000000000000000000, 0.0000000000000000000, 0.0000000000000000000 ) ) ;
#224 = DIRECTION ( 'NONE',  ( 0.0000000000000000000, 0.0000000000000000000, 1.000000000000000000 ) ) ;
#225 = CARTESIAN_POINT ( 'NONE',  ( 0.0000000000000000000, 0.0000000000000000000, 0.0000000000000000000 ) ) ;
#226 =( NAMED_UNIT ( * ) SI_UNIT ( $, .STERADIAN. ) SOLID_ANGLE_UNIT ( ) );
#227 =( NAMED_UNIT ( * ) PLANE_ANGLE_UNIT ( ) SI_UNIT ( $, .RADIAN. ) );
#228 =( LENGTH_UNIT ( ) NAMED_UNIT ( * ) SI_UNIT ( .MILLI., .METRE. ) );
#229 = CARTESIAN_POINT ( 'NONE',  ( -11.50000000000000000, 0.0000000000000000000, 7.799999999999999800 ) ) ;
#230 = CARTESIAN_POINT ( 'NONE',  ( -11.00000000000000200, 1.347111479062088800E-015, 7.799999999999998900 ) ) ;
#231 = CARTESIAN_POINT ( 'NONE',  ( 9.500000000000000000, 0.0000000000000000000, 1.300000000000000000 ) ) ;
#232 = CARTESIAN_POINT ( 'NONE',  ( 0.0000000000000000000, 0.0000000000000000000, 1.300000000000000000 ) ) ;
#233 = CARTESIAN_POINT ( 'NONE',  ( 11.50000000000000000, 1.622657008870242900E-015, 7.799999999999999800 ) ) ;
#234 = CARTESIAN_POINT ( 'NONE',  ( -9.500000000000000000, 1.163414459189985500E-015, 1.300000000000000000 ) ) ;
#235 = CARTESIAN_POINT ( 'NONE',  ( 11.00000000000000200, 0.0000000000000000000, 7.799999999999998900 ) ) ;
#236 = CARTESIAN_POINT ( 'NONE',  ( -15.00000000000000000, 0.0000000000000000000, 0.5000000000000013300 ) ) ;
#237 = CARTESIAN_POINT ( 'NONE',  ( 9.500000000000000000, 0.0000000000000000000, 0.0000000000000000000 ) ) ;
#238 = CARTESIAN_POINT ( 'NONE',  ( -9.500000000000000000, 1.163414459189985500E-015, 0.0000000000000000000 ) ) ;
#239 = CARTESIAN_POINT ( 'NONE',  ( 11.00000000000000000, 0.0000000000000000000, 1.300000000000000000 ) ) ;
#240 = CARTESIAN_POINT ( 'NONE',  ( -11.00000000000000000, 1.347111479062088400E-015, 1.300000000000000000 ) ) ;
#241 = CARTESIAN_POINT ( 'NONE',  ( 15.00000000000000000, 1.836970198721029600E-015, 0.5000000000000013300 ) ) ;
#242 = CARTESIAN_POINT ( 'NONE',  ( 15.00000000000000000, 0.0000000000000000000, 0.0000000000000000000 ) ) ;
#243 = CARTESIAN_POINT ( 'NONE',  ( -15.00000000000000000, 1.836970198721029600E-015, 0.0000000000000000000 ) ) ;
#244 = DIRECTION ( 'NONE',  ( -0.0000000000000000000, -0.0000000000000000000, 1.000000000000000000 ) ) ;
#245 = DIRECTION ( 'NONE',  ( 1.000000000000000000, 0.0000000000000000000, 0.0000000000000000000 ) ) ;
#246 = DIRECTION ( 'NONE',  ( 1.000000000000000000, 0.0000000000000000000, 0.0000000000000000000 ) ) ;
#247 = DIRECTION ( 'NONE',  ( -0.0000000000000000000, -0.0000000000000000000, 1.000000000000000000 ) ) ;
#248 = CARTESIAN_POINT ( 'NONE',  ( 0.0000000000000000000, 0.0000000000000000000, 0.0000000000000000000 ) ) ;
#249 = DIRECTION ( 'NONE',  ( -0.0000000000000000000, -0.0000000000000000000, 1.000000000000000000 ) ) ;
#250 = CARTESIAN_POINT ( 'NONE',  ( -15.00000000000000000, 1.836970198721029600E-015, 6.848067817522000700 ) ) ;
#251 = CARTESIAN_POINT ( 'NONE',  ( 0.0000000000000000000, 0.0000000000000000000, 1.300000000000000000 ) ) ;
#252 = DIRECTION ( 'NONE',  ( 1.000000000000000000, 0.0000000000000000000, 0.0000000000000000000 ) ) ;
#253 = DIRECTION ( 'NONE',  ( -0.0000000000000000000, -0.0000000000000000000, 1.000000000000000000 ) ) ;
#254 = DIRECTION ( 'NONE',  ( -0.0000000000000000000, -0.0000000000000000000, 1.000000000000000000 ) ) ;
#255 = CARTESIAN_POINT ( 'NONE',  ( 0.0000000000000000000, 0.0000000000000000000, 1.300000000000000000 ) ) ;
#256 = DIRECTION ( 'NONE',  ( 1.000000000000000000, 0.0000000000000000000, 0.0000000000000000000 ) ) ;
#257 = DIRECTION ( 'NONE',  ( -0.0000000000000000000, -0.0000000000000000000, 1.000000000000000000 ) ) ;
#258 = DIRECTION ( 'NONE',  ( 1.000000000000000000, 0.0000000000000000000, 0.0000000000000000000 ) ) ;
#259 = CARTESIAN_POINT ( 'NONE',  ( 0.0000000000000000000, 0.0000000000000000000, 7.799999999999998900 ) ) ;
#260 = DIRECTION ( 'NONE',  ( 1.000000000000000000, 0.0000000000000000000, 0.0000000000000000000 ) ) ;
#261 = DIRECTION ( 'NONE',  ( -0.0000000000000000000, -0.0000000000000000000, 1.000000000000000000 ) ) ;
#262 = CARTESIAN_POINT ( 'NONE',  ( 0.0000000000000000000, 0.0000000000000000000, 0.5000000000000004400 ) ) ;
#263 = CARTESIAN_POINT ( 'NONE',  ( 0.0000000000000000000, 0.0000000000000000000, 0.5000000000000004400 ) ) ;
#264 = DIRECTION ( 'NONE',  ( -0.4323294554045275500, 0.0000000000000000000, -0.9017157212723002600 ) ) ;
#265 = CARTESIAN_POINT ( 'NONE',  ( -11.50000000000000000, 0.0000000000000000000, 7.799999999999999800 ) ) ;
#266 = DIRECTION ( 'NONE',  ( -0.0000000000000000000, -0.0000000000000000000, 1.000000000000000000 ) ) ;
#267 = DIRECTION ( 'NONE',  ( -0.0000000000000000000, -0.0000000000000000000, 1.000000000000000000 ) ) ;
#268 = CARTESIAN_POINT ( 'NONE',  ( -9.500000000000000000, 1.163414459189985500E-015, 6.848067817522000700 ) ) ;
#269 = DIRECTION ( 'NONE',  ( -0.0000000000000000000, -0.0000000000000000000, 1.000000000000000000 ) ) ;
#270 = CARTESIAN_POINT ( 'NONE',  ( 11.00000000000000000, 0.0000000000000000000, 6.848067817522000700 ) ) ;
#271 = DIRECTION ( 'NONE',  ( -0.0000000000000000000, -0.0000000000000000000, 1.000000000000000000 ) ) ;
#272 = CARTESIAN_POINT ( 'NONE',  ( -11.00000000000000000, 1.347111479062088400E-015, 6.848067817522000700 ) ) ;
#273 = DIRECTION ( 'NONE',  ( 0.4323294554045275500, 5.294508837382730100E-017, -0.9017157212723002600 ) ) ;
#274 = CARTESIAN_POINT ( 'NONE',  ( 11.50000000000000000, 1.408343819019456200E-015, 7.799999999999999800 ) ) ;
#275 = DIRECTION ( 'NONE',  ( 1.000000000000000000, 0.0000000000000000000, 0.0000000000000000000 ) ) ;
#276 = DIRECTION ( 'NONE',  ( -0.0000000000000000000, -0.0000000000000000000, 1.000000000000000000 ) ) ;
#277 = DIRECTION ( 'NONE',  ( 1.000000000000000000, 0.0000000000000000000, 0.0000000000000000000 ) ) ;
#278 = CARTESIAN_POINT ( 'NONE',  ( 0.0000000000000000000, 0.0000000000000000000, 1.300000000000000000 ) ) ;
#279 = DIRECTION ( 'NONE',  ( 1.000000000000000000, 0.0000000000000000000, 0.0000000000000000000 ) ) ;
#280 = DIRECTION ( 'NONE',  ( -0.0000000000000000000, -0.0000000000000000000, 1.000000000000000000 ) ) ;
#281 = CARTESIAN_POINT ( 'NONE',  ( 0.0000000000000000000, 0.0000000000000000000, 7.799999999999999800 ) ) ;
#282 = MECHANICAL_CONTEXT ( 'NONE', #212, 'mechanical' ) ;
#283 = PERSON_AND_ORGANIZATION_ROLE ( 'design_owner' ) ;
#284 = APPLICATION_CONTEXT ( 'configuration controlled 3d designs of mechanical parts and assemblies' ) ;
#285 = APPLICATION_PROTOCOL_DEFINITION ( 'international standard', 'config_control_design', 1994, #284 ) ;
#286 = APPROVAL_STATUS ( 'not_yet_approved' ) ;
#287 = DIRECTION ( 'NONE',  ( -0.0000000000000000000, -0.0000000000000000000, 1.000000000000000000 ) ) ;
#288 = CARTESIAN_POINT ( 'NONE',  ( 15.00000000000000000, 0.0000000000000000000, 6.848067817522000700 ) ) ;
#289 = DIRECTION ( 'NONE',  ( -0.0000000000000000000, -0.0000000000000000000, 1.000000000000000000 ) ) ;
#290 = DIRECTION ( 'NONE',  ( 0.0000000000000000000, -0.0000000000000000000, 1.000000000000000000 ) ) ;
#291 = CARTESIAN_POINT ( 'NONE',  ( 9.500000000000000000, 0.0000000000000000000, 6.848067817522000700 ) ) ;
#292 = DIRECTION ( 'NONE',  ( 1.000000000000000000, 0.0000000000000000000, 0.0000000000000000000 ) ) ;
#293 = DIRECTION ( 'NONE',  ( 1.000000000000000000, 0.0000000000000000000, 0.0000000000000000000 ) ) ;
#294 = DIRECTION ( 'NONE',  ( -0.0000000000000000000, -0.0000000000000000000, 1.000000000000000000 ) ) ;
#295 = CARTESIAN_POINT ( 'NONE',  ( 0.0000000000000000000, 0.0000000000000000000, 6.848067817522000700 ) ) ;
#296 = DIRECTION ( 'NONE',  ( -1.000000000000000000, 0.0000000000000000000, 0.0000000000000000000 ) ) ;
#297 = APPROVAL_ROLE ( '' ) ;
#298 = PERSON_AND_ORGANIZATION_ROLE ( 'creator' ) ;
#299 = DIRECTION ( 'NONE',  ( 0.0000000000000000000, 0.0000000000000000000, -1.000000000000000000 ) ) ;
#300 = CARTESIAN_POINT ( 'NONE',  ( 0.0000000000000000000, 0.0000000000000000000, 6.848067817522000700 ) ) ;
#301 = CARTESIAN_POINT ( 'NONE',  ( 0.0000000000000000000, 0.0000000000000000000, 7.799999999999999800 ) ) ;
#302 = APPROVAL_ROLE ( '' ) ;
#303 = PERSON_AND_ORGANIZATION_ROLE ( 'creator' ) ;
#304 = DIRECTION ( 'NONE',  ( -1.000000000000000000, 0.0000000000000000000, -0.0000000000000000000 ) ) ;
#305 = DIRECTION ( 'NONE',  ( -0.0000000000000000000, -0.0000000000000000000, 1.000000000000000000 ) ) ;
#306 = DIRECTION ( 'NONE',  ( 0.0000000000000000000, 0.0000000000000000000, -1.000000000000000000 ) ) ;
#307 = CARTESIAN_POINT ( 'NONE',  ( 0.0000000000000000000, -15.00000000000000000, 0.0000000000000000000 ) ) ;
#308 = DATE_TIME_ROLE ( 'creation_date' ) ;
#309 = APPROVAL_STATUS ( 'not_yet_approved' ) ;
#310 = PLANE ( 'NONE',  #370 ) ;
#311 = DIRECTION ( 'NONE',  ( 1.000000000000000000, 0.0000000000000000000, 0.0000000000000000000 ) ) ;
#312 = DIRECTION ( 'NONE',  ( 1.000000000000000000, 0.0000000000000000000, 0.0000000000000000000 ) ) ;
#313 = PERSON_AND_ORGANIZATION_ROLE ( 'design_supplier' ) ;
#314 = SECURITY_CLASSIFICATION_LEVEL ( 'unclassified' ) ;
#315 = PERSON_AND_ORGANIZATION_ROLE ( 'classification_officer' ) ;
#316 = DATE_TIME_ROLE ( 'classification_date' ) ;
#317 = APPROVAL_STATUS ( 'not_yet_approved' ) ;
#318 = APPROVAL_ROLE ( '' ) ;
#319 = DIRECTION ( 'NONE',  ( -0.0000000000000000000, -0.0000000000000000000, 1.000000000000000000 ) ) ;
#320 = CARTESIAN_POINT ( 'NONE',  ( 0.0000000000000000000, 0.0000000000000000000, 6.848067817522000700 ) ) ;
#321 = DIRECTION ( 'NONE',  ( -1.000000000000000000, 0.0000000000000000000, 0.0000000000000000000 ) ) ;
#322 = CARTESIAN_POINT ( 'NONE',  ( 0.0000000000000000000, 0.0000000000000000000, 6.848067817522000700 ) ) ;
#323 = DIRECTION ( 'NONE',  ( 0.0000000000000000000, 0.0000000000000000000, -1.000000000000000000 ) ) ;
#324 = CARTESIAN_POINT ( 'NONE',  ( 0.0000000000000000000, 0.0000000000000000000, 7.799999999999999800 ) ) ;
#325 = DIRECTION ( 'NONE',  ( -0.0000000000000000000, -0.0000000000000000000, 1.000000000000000000 ) ) ;
#326 = DIRECTION ( 'NONE',  ( 1.000000000000000000, 0.0000000000000000000, 0.0000000000000000000 ) ) ;
#327 = DIRECTION ( 'NONE',  ( -0.0000000000000000000, -0.0000000000000000000, 1.000000000000000000 ) ) ;
#328 = CARTESIAN_POINT ( 'NONE',  ( 0.0000000000000000000, 0.0000000000000000000, 6.848067817522000700 ) ) ;
#329 = DIRECTION ( 'NONE',  ( 1.000000000000000000, 0.0000000000000000000, 0.0000000000000000000 ) ) ;
#330 = DIRECTION ( 'NONE',  ( -0.0000000000000000000, -0.0000000000000000000, 1.000000000000000000 ) ) ;
#331 = DIRECTION ( 'NONE',  ( 1.000000000000000000, 0.0000000000000000000, 0.0000000000000000000 ) ) ;
#332 = PLANE ( 'NONE',  #351 ) ;
#333 = CARTESIAN_POINT ( 'NONE',  ( 0.0000000000000000000, -9.500000000000000000, 1.300000000000000000 ) ) ;
#334 = DIRECTION ( 'NONE',  ( 0.0000000000000000000, -0.0000000000000000000, 1.000000000000000000 ) ) ;
#335 = CARTESIAN_POINT ( 'NONE',  ( 0.0000000000000000000, 0.0000000000000000000, 7.799999999999998900 ) ) ;
#336 = DIRECTION ( 'NONE',  ( -0.0000000000000000000, -0.0000000000000000000, 1.000000000000000000 ) ) ;
#337 = DIRECTION ( 'NONE',  ( 1.000000000000000000, 0.0000000000000000000, 0.0000000000000000000 ) ) ;
#338 = DIRECTION ( 'NONE',  ( 1.000000000000000000, 0.0000000000000000000, 0.0000000000000000000 ) ) ;
#339 = CARTESIAN_POINT ( 'NONE',  ( 0.0000000000000000000, 0.0000000000000000000, 0.0000000000000000000 ) ) ;
#340 = DIRECTION ( 'NONE',  ( -0.0000000000000000000, -0.0000000000000000000, 1.000000000000000000 ) ) ;
#341 = DIRECTION ( 'NONE',  ( 1.000000000000000000, 0.0000000000000000000, 0.0000000000000000000 ) ) ;
#342 = CARTESIAN_POINT ( 'NONE',  ( 0.0000000000000000000, 0.0000000000000000000, 6.848067817522000700 ) ) ;
#343 = CARTESIAN_POINT ( 'NONE',  ( 0.0000000000000000000, 0.0000000000000000000, 0.0000000000000000000 ) ) ;
#344 = CIRCLE ( 'NONE', #369, 9.500000000000000000 ) ;
#345 = AXIS2_PLACEMENT_3D ( 'NONE', #214, #215, #216 ) ;
#346 = CIRCLE ( 'NONE', #371, 15.00000000000000000 ) ;
#347 = AXIS2_PLACEMENT_3D ( 'NONE', #222, #290, #293 ) ;
#348 = VECTOR ( 'NONE', #289, 1000.000000000000000 ) ;
#349 = CONICAL_SURFACE ( 'NONE', #379, 11.50000000000000000, 0.4470745408881887100 ) ;
#350 = AXIS2_PLACEMENT_3D ( 'NONE', #335, #336, #337 ) ;
#351 = AXIS2_PLACEMENT_3D ( 'NONE', #333, #334, #338 ) ;
#352 = CIRCLE ( 'NONE', #374, 11.50000000000000000 ) ;
#353 = AXIS2_PLACEMENT_3D ( 'NONE', #300, #305, #311 ) ;
#354 = CIRCLE ( 'NONE', #376, 9.500000000000000000 ) ;
#355 = AXIS2_PLACEMENT_3D ( 'NONE', #342, #330, #331 ) ;
#356 = CIRCLE ( 'NONE', #77, 11.00000000000000200 ) ;
#357 = CIRCLE ( 'NONE', #360, 9.500000000000000000 ) ;
#358 = VECTOR ( 'NONE', #287, 1000.000000000000000 ) ;
#359 = CONICAL_SURFACE ( 'NONE', #367, 11.50000000000000000, 0.4470745408881887100 ) ;
#360 = AXIS2_PLACEMENT_3D ( 'NONE', #232, #244, #246 ) ;
#361 = CIRCLE ( 'NONE', #68, 9.500000000000000000 ) ;
#362 = AXIS2_PLACEMENT_3D ( 'NONE', #328, #327, #326 ) ;
#363 = AXIS2_PLACEMENT_3D ( 'NONE', #295, #294, #292 ) ;
#364 = AXIS2_PLACEMENT_3D ( 'NONE', #263, #266, #277 ) ;
#365 = AXIS2_PLACEMENT_3D ( 'NONE', #251, #253, #258 ) ;
#366 = AXIS2_PLACEMENT_3D ( 'NONE', #322, #325, #329 ) ;
#367 = AXIS2_PLACEMENT_3D ( 'NONE', #324, #323, #321 ) ;
#368 = AXIS2_PLACEMENT_3D ( 'NONE', #320, #319, #312 ) ;
#369 = AXIS2_PLACEMENT_3D ( 'NONE', #339, #340, #341 ) ;
#370 = AXIS2_PLACEMENT_3D ( 'NONE', #307, #306, #304 ) ;
#371 = AXIS2_PLACEMENT_3D ( 'NONE', #217, #218, #220 ) ;
#372 = CIRCLE ( 'NONE', #364, 15.00000000000000000 ) ;
#373 = CIRCLE ( 'NONE', #345, 11.50000000000000000 ) ;
#374 = AXIS2_PLACEMENT_3D ( 'NONE', #281, #280, #279 ) ;
#375 = CIRCLE ( 'NONE', #60, 11.00000000000000000 ) ;
#376 = AXIS2_PLACEMENT_3D ( 'NONE', #343, #213, #219 ) ;
#377 = CIRCLE ( 'NONE', #365, 11.00000000000000000 ) ;
#378 = CIRCLE ( 'NONE', #350, 11.00000000000000200 ) ;
#379 = AXIS2_PLACEMENT_3D ( 'NONE', #301, #299, #296 ) ;
ENDSEC;
END-ISO-10303-21;
