ISO-10303-21;
HEADER;
FILE_DESCRIPTION (( 'STEP AP203' ),
    '1' );
FILE_NAME ('sone3D.STEP',
    '2015-08-31T10:50:26',
    ( '' ),
    ( '' ),
    'SwSTEP 2.0',
    'SolidWorks 2012',
    '' );
FILE_SCHEMA (( 'CONFIG_CONTROL_DESIGN' ));
ENDSEC;

DATA;
#1 = DIRECTION ( 'NONE',  ( 1.000000000000000000, 0.0000000000000000000, 0.0000000000000000000 ) ) ;
#2 = DIRECTION ( 'NONE',  ( 0.0000000000000000000, 0.0000000000000000000, 1.000000000000000000 ) ) ;
#3 = CARTESIAN_POINT ( 'NONE',  ( 8.000000000000000000, 5.573374202401986100, 0.0000000000000000000 ) ) ;
#4 = DIRECTION ( 'NONE',  ( -0.0000000000000000000, 1.000000000000000000, -0.0000000000000000000 ) ) ;
#5 = CARTESIAN_POINT ( 'NONE',  ( 0.0000000000000000000, 0.0000000000000000000, 1.500000000000000000 ) ) ;
#6 = DIRECTION ( 'NONE',  ( 1.000000000000000000, 0.0000000000000000000, 0.0000000000000000000 ) ) ;
#7 = DIRECTION ( 'NONE',  ( 1.000000000000000000, 0.0000000000000000000, 0.0000000000000000000 ) ) ;
#8 = DIRECTION ( 'NONE',  ( 1.000000000000000000, 0.0000000000000000000, 0.0000000000000000000 ) ) ;
#9 = DIRECTION ( 'NONE',  ( 0.0000000000000000000, 0.0000000000000000000, 1.000000000000000000 ) ) ;
#10 = DIRECTION ( 'NONE',  ( 0.0000000000000000000, 0.0000000000000000000, 1.000000000000000000 ) ) ;
#11 = LINE ( 'NONE', #3, #228 ) ;
#12 = DIRECTION ( 'NONE',  ( 1.000000000000000000, 0.0000000000000000000, 0.0000000000000000000 ) ) ;
#13 = DIRECTION ( 'NONE',  ( 1.000000000000000000, 0.0000000000000000000, 0.0000000000000000000 ) ) ;
#14 = CARTESIAN_POINT ( 'NONE',  ( 0.0000000000000000000, 0.0000000000000000000, 0.0000000000000000000 ) ) ;
#15 = CARTESIAN_POINT ( 'NONE',  ( 0.0000000000000000000, 0.0000000000000000000, 1.500000000000000000 ) ) ;
#16 = DIRECTION ( 'NONE',  ( 0.0000000000000000000, 0.0000000000000000000, 1.000000000000000000 ) ) ;
#17 = DIRECTION ( 'NONE',  ( -1.000000000000000000, 0.0000000000000000000, 0.0000000000000000000 ) ) ;
#18 = CARTESIAN_POINT ( 'NONE',  ( 8.000000000000000000, 5.573374202401986100, 1.500000000000000000 ) ) ;
#19 = CARTESIAN_POINT ( 'NONE',  ( 0.0000000000000000000, 0.0000000000000000000, 0.0000000000000000000 ) ) ;
#20 = DIRECTION ( 'NONE',  ( 0.0000000000000000000, 0.0000000000000000000, 1.000000000000000000 ) ) ;
#21 = CARTESIAN_POINT ( 'NONE',  ( 0.0000000000000000000, 0.0000000000000000000, 1.500000000000000000 ) ) ;
#22 = PLANE ( 'NONE',  #229 ) ;
#23 = DIRECTION ( 'NONE',  ( 0.0000000000000000000, 0.0000000000000000000, 1.000000000000000000 ) ) ;
#24 = SHAPE_DEFINITION_REPRESENTATION ( #31, #27 ) ;
#25 = PERSON ( 'UNSPECIFIED', 'UNSPECIFIED', 'UNSPECIFIED', ('UNSPECIFIED'), ('UNSPECIFIED'), ('UNSPECIFIED') ) ;
#26 = UNCERTAINTY_MEASURE_WITH_UNIT (LENGTH_MEASURE( 1.000000000000000100E-005 ), #162, 'distance_accuracy_value', 'NONE');
#27 = ADVANCED_BREP_SHAPE_REPRESENTATION ( 'sone3D', ( #30, #39 ), #28 ) ;
#28 =( GEOMETRIC_REPRESENTATION_CONTEXT ( 3 ) GLOBAL_UNCERTAINTY_ASSIGNED_CONTEXT ( ( #26 ) ) GLOBAL_UNIT_ASSIGNED_CONTEXT ( ( #162, #163, #164 ) ) REPRESENTATION_CONTEXT ( 'NONE', 'WORKASPACE' ) );
#29 = DESIGN_CONTEXT ( 'detailed design', #127, 'design' ) ;
#30 = MANIFOLD_SOLID_BREP ( 'ÎÞ½ - µoµ1', #231 ) ;
#31 = PRODUCT_DEFINITION_SHAPE ( 'NONE', 'NONE',  #275 ) ;
#32 = CALENDAR_DATE ( 2015, 31, 8 ) ;
#33 = APPROVAL_PERSON_ORGANIZATION ( #260, #277, #262 ) ;
#34 = APPROVAL_PERSON_ORGANIZATION ( #237, #274, #239 ) ;
#35 = CC_DESIGN_SECURITY_CLASSIFICATION ( #45, ( #36 ) ) ;
#36 = PRODUCT_DEFINITION_FORMATION_WITH_SPECIFIED_SOURCE ( 'ANY', '', #54, .NOT_KNOWN. ) ;
#37 = APPROVAL_PERSON_ORGANIZATION ( #246, #268, #248 ) ;
#38 = CC_DESIGN_APPROVAL ( #277, ( #45 ) ) ;
#39 = AXIS2_PLACEMENT_3D ( 'NONE', #232, #56, #55 ) ;
#40 = CALENDAR_DATE ( 2015, 31, 8 ) ;
#41 = COORDINATED_UNIVERSAL_TIME_OFFSET ( 9, 0, .AHEAD. ) ;
#42 = COORDINATED_UNIVERSAL_TIME_OFFSET ( 9, 0, .AHEAD. ) ;
#43 = CC_DESIGN_APPROVAL ( #268, ( #36 ) ) ;
#44 = VECTOR ( 'NONE', #161, 1000.000000000000000 ) ;
#45 = SECURITY_CLASSIFICATION ( '', '', #255 ) ;
#46 = COORDINATED_UNIVERSAL_TIME_OFFSET ( 9, 0, .AHEAD. ) ;
#47 = COORDINATED_UNIVERSAL_TIME_OFFSET ( 9, 0, .AHEAD. ) ;
#48 = ORGANIZATION ( 'UNSPECIFIED', 'UNSPECIFIED', '' ) ;
#49 = CALENDAR_DATE ( 2015, 31, 8 ) ;
#50 = CALENDAR_DATE ( 2015, 31, 8 ) ;
#51 = CC_DESIGN_APPROVAL ( #274, ( #275 ) ) ;
#52 = COORDINATED_UNIVERSAL_TIME_OFFSET ( 9, 0, .AHEAD. ) ;
#53 = CALENDAR_DATE ( 2015, 31, 8 ) ;
#54 = PRODUCT ( 'sone3D', 'sone3D', '', ( #233 ) ) ;
#55 = DIRECTION ( 'NONE',  ( 1.000000000000000000, 0.0000000000000000000, 0.0000000000000000000 ) ) ;
#56 = DIRECTION ( 'NONE',  ( 0.0000000000000000000, 0.0000000000000000000, 1.000000000000000000 ) ) ;
#57 = ORIENTED_EDGE ( 'NONE', *, *, #311, .F. ) ;
#58 = ORIENTED_EDGE ( 'NONE', *, *, #294, .F. ) ;
#59 = ORIENTED_EDGE ( 'NONE', *, *, #282, .T. ) ;
#60 = ORIENTED_EDGE ( 'NONE', *, *, #298, .F. ) ;
#61 = ORIENTED_EDGE ( 'NONE', *, *, #305, .F. ) ;
#62 = ORIENTED_EDGE ( 'NONE', *, *, #299, .T. ) ;
#63 = ORIENTED_EDGE ( 'NONE', *, *, #310, .T. ) ;
#64 = ORIENTED_EDGE ( 'NONE', *, *, #301, .F. ) ;
#65 = ORIENTED_EDGE ( 'NONE', *, *, #304, .F. ) ;
#66 = ORIENTED_EDGE ( 'NONE', *, *, #298, .T. ) ;
#67 = ORIENTED_EDGE ( 'NONE', *, *, #300, .T. ) ;
#68 = ORIENTED_EDGE ( 'NONE', *, *, #296, .F. ) ;
#69 = ORIENTED_EDGE ( 'NONE', *, *, #315, .F. ) ;
#70 = ORIENTED_EDGE ( 'NONE', *, *, #301, .T. ) ;
#71 = ORIENTED_EDGE ( 'NONE', *, *, #296, .T. ) ;
#72 = ORIENTED_EDGE ( 'NONE', *, *, #299, .F. ) ;
#73 = ORIENTED_EDGE ( 'NONE', *, *, #308, .F. ) ;
#74 = ORIENTED_EDGE ( 'NONE', *, *, #273, .T. ) ;
#75 = ORIENTED_EDGE ( 'NONE', *, *, #294, .T. ) ;
#76 = ORIENTED_EDGE ( 'NONE', *, *, #307, .F. ) ;
#77 = ORIENTED_EDGE ( 'NONE', *, *, #306, .T. ) ;
#78 = ORIENTED_EDGE ( 'NONE', *, *, #297, .F. ) ;
#79 = ORIENTED_EDGE ( 'NONE', *, *, #314, .F. ) ;
#80 = ORIENTED_EDGE ( 'NONE', *, *, #305, .T. ) ;
#81 = ORIENTED_EDGE ( 'NONE', *, *, #304, .T. ) ;
#82 = ORIENTED_EDGE ( 'NONE', *, *, #315, .T. ) ;
#83 = ORIENTED_EDGE ( 'NONE', *, *, #300, .F. ) ;
#84 = ORIENTED_EDGE ( 'NONE', *, *, #307, .T. ) ;
#85 = ORIENTED_EDGE ( 'NONE', *, *, #311, .T. ) ;
#86 = ORIENTED_EDGE ( 'NONE', *, *, #308, .T. ) ;
#87 = ORIENTED_EDGE ( 'NONE', *, *, #310, .F. ) ;
#88 = ORIENTED_EDGE ( 'NONE', *, *, #314, .T. ) ;
#89 = ORIENTED_EDGE ( 'NONE', *, *, #297, .T. ) ;
#90 = ORIENTED_EDGE ( 'NONE', *, *, #306, .F. ) ;
#91 = ORIENTED_EDGE ( 'NONE', *, *, #282, .F. ) ;
#92 = ORIENTED_EDGE ( 'NONE', *, *, #273, .F. ) ;
#93 = EDGE_LOOP ( 'NONE', ( #57, #89, #88, #58 ) ) ;
#94 = EDGE_LOOP ( 'NONE', ( #84, #85 ) ) ;
#95 = EDGE_LOOP ( 'NONE', ( #83, #92, #91, #87 ) ) ;
#96 = EDGE_LOOP ( 'NONE', ( #90, #79 ) ) ;
#97 = EDGE_LOOP ( 'NONE', ( #86, #82, #81, #80 ) ) ;
#98 = EDGE_LOOP ( 'NONE', ( #78, #76, #75, #77 ) ) ;
#99 = EDGE_LOOP ( 'NONE', ( #73, #72, #74, #71 ) ) ;
#100 = EDGE_LOOP ( 'NONE', ( #69, #68, #67, #70 ) ) ;
#101 = EDGE_LOOP ( 'NONE', ( #65, #64, #63, #66 ) ) ;
#102 = EDGE_LOOP ( 'NONE', ( #61, #60, #59, #62 ) ) ;
#103 = VERTEX_POINT ( 'NONE', #115 ) ;
#104 = VERTEX_POINT ( 'NONE', #116 ) ;
#105 = VERTEX_POINT ( 'NONE', #117 ) ;
#106 = VERTEX_POINT ( 'NONE', #118 ) ;
#107 = VERTEX_POINT ( 'NONE', #119 ) ;
#108 = VERTEX_POINT ( 'NONE', #120 ) ;
#109 = VERTEX_POINT ( 'NONE', #121 ) ;
#110 = VERTEX_POINT ( 'NONE', #122 ) ;
#111 = VERTEX_POINT ( 'NONE', #123 ) ;
#112 = VERTEX_POINT ( 'NONE', #124 ) ;
#113 = VERTEX_POINT ( 'NONE', #125 ) ;
#114 = VERTEX_POINT ( 'NONE', #129 ) ;
#115 = CARTESIAN_POINT ( 'NONE',  ( -8.000000000000001800, 5.573374202401986100, 0.0000000000000000000 ) ) ;
#116 = CARTESIAN_POINT ( 'NONE',  ( -8.000000000000001800, 5.573374202401986100, 1.500000000000000000 ) ) ;
#117 = CARTESIAN_POINT ( 'NONE',  ( -8.000000000000003600, -5.573374202401984300, 0.0000000000000000000 ) ) ;
#118 = CARTESIAN_POINT ( 'NONE',  ( 8.000000000000000000, 5.573374202401986100, 0.0000000000000000000 ) ) ;
#119 = CARTESIAN_POINT ( 'NONE',  ( 8.000000000000000000, -5.573374202401986100, 0.0000000000000000000 ) ) ;
#120 = CARTESIAN_POINT ( 'NONE',  ( 8.000000000000000000, 5.573374202401986100, 1.500000000000000000 ) ) ;
#121 = CARTESIAN_POINT ( 'NONE',  ( 8.000000000000000000, -5.573374202401986100, 1.500000000000000000 ) ) ;
#122 = CARTESIAN_POINT ( 'NONE',  ( -12.50000000000000000, 0.0000000000000000000, 0.0000000000000000000 ) ) ;
#123 = CARTESIAN_POINT ( 'NONE',  ( -8.000000000000003600, -5.573374202401984300, 1.500000000000000000 ) ) ;
#124 = CARTESIAN_POINT ( 'NONE',  ( 12.50000000000000000, 1.530808498934191500E-015, 1.500000000000000000 ) ) ;
#125 = CARTESIAN_POINT ( 'NONE',  ( -12.50000000000000000, 0.0000000000000000000, 1.500000000000000000 ) ) ;
#126 = APPLICATION_CONTEXT ( 'configuration controlled 3d designs of mechanical parts and assemblies' ) ;
#127 = APPLICATION_CONTEXT ( 'configuration controlled 3d designs of mechanical parts and assemblies' ) ;
#128 = LINE ( 'NONE', #139, #212 ) ;
#129 = CARTESIAN_POINT ( 'NONE',  ( 12.50000000000000000, 1.530808498934191500E-015, 0.0000000000000000000 ) ) ;
#130 = CARTESIAN_POINT ( 'NONE',  ( 0.0000000000000000000, 0.0000000000000000000, 1.500000000000000000 ) ) ;
#131 = DIRECTION ( 'NONE',  ( -0.0000000000000000000, -0.0000000000000000000, -1.000000000000000000 ) ) ;
#132 = DIRECTION ( 'NONE',  ( 1.000000000000000000, 0.0000000000000000000, 0.0000000000000000000 ) ) ;
#133 = DIRECTION ( 'NONE',  ( 0.0000000000000000000, 0.0000000000000000000, 1.000000000000000000 ) ) ;
#134 = DIRECTION ( 'NONE',  ( 1.000000000000000000, 0.0000000000000000000, 0.0000000000000000000 ) ) ;
#135 = DIRECTION ( 'NONE',  ( -1.000000000000000000, 0.0000000000000000000, 0.0000000000000000000 ) ) ;
#136 = CARTESIAN_POINT ( 'NONE',  ( 0.0000000000000000000, 0.0000000000000000000, 1.500000000000000000 ) ) ;
#137 = LINE ( 'NONE', #138, #227 ) ;
#138 = CARTESIAN_POINT ( 'NONE',  ( 8.000000000000000000, 5.573374202401986100, 1.500000000000000000 ) ) ;
#139 = CARTESIAN_POINT ( 'NONE',  ( -12.50000000000000000, 0.0000000000000000000, 1.500000000000000000 ) ) ;
#140 = CARTESIAN_POINT ( 'NONE',  ( -8.000000000000001800, -5.573374202401986100, 1.500000000000000000 ) ) ;
#141 = DIRECTION ( 'NONE',  ( -0.0000000000000000000, 1.000000000000000000, -0.0000000000000000000 ) ) ;
#142 = DIRECTION ( 'NONE',  ( -0.0000000000000000000, -0.0000000000000000000, -1.000000000000000000 ) ) ;
#143 = DIRECTION ( 'NONE',  ( -1.000000000000000000, 0.0000000000000000000, 0.0000000000000000000 ) ) ;
#144 = PLANE ( 'NONE',  #202 ) ;
#145 = PLANE ( 'NONE',  #205 ) ;
#146 = DIRECTION ( 'NONE',  ( -1.000000000000000000, 0.0000000000000000000, 0.0000000000000000000 ) ) ;
#147 = DIRECTION ( 'NONE',  ( -0.0000000000000000000, -0.0000000000000000000, -1.000000000000000000 ) ) ;
#148 = DIRECTION ( 'NONE',  ( -0.0000000000000000000, -0.0000000000000000000, -1.000000000000000000 ) ) ;
#149 = CARTESIAN_POINT ( 'NONE',  ( 0.0000000000000000000, 0.0000000000000000000, 1.500000000000000000 ) ) ;
#150 = DIRECTION ( 'NONE',  ( 0.0000000000000000000, 0.0000000000000000000, -1.000000000000000000 ) ) ;
#151 = CARTESIAN_POINT ( 'NONE',  ( 0.0000000000000000000, 0.0000000000000000000, 1.500000000000000000 ) ) ;
#152 = DIRECTION ( 'NONE',  ( 1.000000000000000000, 0.0000000000000000000, -0.0000000000000000000 ) ) ;
#153 = DIRECTION ( 'NONE',  ( 0.0000000000000000000, 0.0000000000000000000, 1.000000000000000000 ) ) ;
#154 = CARTESIAN_POINT ( 'NONE',  ( 0.0000000000000000000, 0.0000000000000000000, 1.500000000000000000 ) ) ;
#155 = APPLICATION_PROTOCOL_DEFINITION ( 'international standard', 'config_control_design', 1994, #126 ) ;
#156 = CARTESIAN_POINT ( 'NONE',  ( 0.0000000000000000000, 0.0000000000000000000, 0.0000000000000000000 ) ) ;
#157 = DIRECTION ( 'NONE',  ( 0.0000000000000000000, 0.0000000000000000000, 1.000000000000000000 ) ) ;
#158 = DIRECTION ( 'NONE',  ( 1.000000000000000000, 0.0000000000000000000, 0.0000000000000000000 ) ) ;
#159 = LINE ( 'NONE', #160, #44 ) ;
#160 = CARTESIAN_POINT ( 'NONE',  ( -8.000000000000001800, -5.573374202401986100, 0.0000000000000000000 ) ) ;
#161 = DIRECTION ( 'NONE',  ( -0.0000000000000000000, -1.000000000000000000, -0.0000000000000000000 ) ) ;
#162 =( LENGTH_UNIT ( ) NAMED_UNIT ( * ) SI_UNIT ( .MILLI., .METRE. ) );
#163 =( NAMED_UNIT ( * ) PLANE_ANGLE_UNIT ( ) SI_UNIT ( $, .RADIAN. ) );
#164 =( NAMED_UNIT ( * ) SI_UNIT ( $, .STERADIAN. ) SOLID_ANGLE_UNIT ( ) );
#165 = PLANE ( 'NONE',  #210 ) ;
#166 = CARTESIAN_POINT ( 'NONE',  ( 0.0000000000000000000, 0.0000000000000000000, 0.0000000000000000000 ) ) ;
#167 = DIRECTION ( 'NONE',  ( 0.0000000000000000000, 0.0000000000000000000, 1.000000000000000000 ) ) ;
#168 = DIRECTION ( 'NONE',  ( 1.000000000000000000, 0.0000000000000000000, -0.0000000000000000000 ) ) ;
#169 = LINE ( 'NONE', #170, #218 ) ;
#170 = CARTESIAN_POINT ( 'NONE',  ( -8.000000000000001800, 5.573374202401986100, 1.500000000000000000 ) ) ;
#171 = DIRECTION ( 'NONE',  ( -0.0000000000000000000, -0.0000000000000000000, -1.000000000000000000 ) ) ;
#172 = CARTESIAN_POINT ( 'NONE',  ( 0.0000000000000000000, 0.0000000000000000000, 1.500000000000000000 ) ) ;
#173 = LINE ( 'NONE', #174, #219 ) ;
#174 = CARTESIAN_POINT ( 'NONE',  ( 12.50000000000000000, 1.530808498934191500E-015, 1.500000000000000000 ) ) ;
#175 = DIRECTION ( 'NONE',  ( -0.0000000000000000000, -0.0000000000000000000, -1.000000000000000000 ) ) ;
#176 = LINE ( 'NONE', #177, #221 ) ;
#177 = CARTESIAN_POINT ( 'NONE',  ( 8.000000000000000000, -5.573374202401986100, 1.500000000000000000 ) ) ;
#178 = DIRECTION ( 'NONE',  ( -0.0000000000000000000, -0.0000000000000000000, -1.000000000000000000 ) ) ;
#179 = LINE ( 'NONE', #180, #222 ) ;
#180 = CARTESIAN_POINT ( 'NONE',  ( 8.000000000000000000, 5.573374202401986100, 1.500000000000000000 ) ) ;
#181 = DIRECTION ( 'NONE',  ( -0.0000000000000000000, -0.0000000000000000000, -1.000000000000000000 ) ) ;
#182 = LINE ( 'NONE', #183, #224 ) ;
#183 = CARTESIAN_POINT ( 'NONE',  ( -8.000000000000001800, -5.573374202401986100, 1.500000000000000000 ) ) ;
#184 = DIRECTION ( 'NONE',  ( -0.0000000000000000000, -1.000000000000000000, -0.0000000000000000000 ) ) ;
#185 = LINE ( 'NONE', #186, #226 ) ;
#186 = CARTESIAN_POINT ( 'NONE',  ( -8.000000000000003600, -5.573374202401984300, 1.500000000000000000 ) ) ;
#187 = DIRECTION ( 'NONE',  ( -0.0000000000000000000, -0.0000000000000000000, -1.000000000000000000 ) ) ;
#188 = DIRECTION ( 'NONE',  ( -0.0000000000000000000, -0.0000000000000000000, -1.000000000000000000 ) ) ;
#189 = DIRECTION ( 'NONE',  ( -1.000000000000000000, 0.0000000000000000000, 0.0000000000000000000 ) ) ;
#190 = CARTESIAN_POINT ( 'NONE',  ( 0.0000000000000000000, 0.0000000000000000000, 0.0000000000000000000 ) ) ;
#191 = DIRECTION ( 'NONE',  ( 0.0000000000000000000, 0.0000000000000000000, 1.000000000000000000 ) ) ;
#192 = AXIS2_PLACEMENT_3D ( 'NONE', #14, #9, #1 ) ;
#193 = CYLINDRICAL_SURFACE ( 'NONE', #206, 12.50000000000000000 ) ;
#194 = CYLINDRICAL_SURFACE ( 'NONE', #195, 9.750000000000000000 ) ;
#195 = AXIS2_PLACEMENT_3D ( 'NONE', #149, #148, #146 ) ;
#196 = FACE_OUTER_BOUND ( 'NONE', #94, .T. ) ;
#197 = FACE_OUTER_BOUND ( 'NONE', #101, .T. ) ;
#198 = FACE_OUTER_BOUND ( 'NONE', #100, .T. ) ;
#199 = FACE_OUTER_BOUND ( 'NONE', #96, .T. ) ;
#200 = FACE_BOUND ( 'NONE', #95, .T. ) ;
#201 = AXIS2_PLACEMENT_3D ( 'NONE', #130, #133, #134 ) ;
#202 = AXIS2_PLACEMENT_3D ( 'NONE', #140, #132, #150 ) ;
#203 = FACE_OUTER_BOUND ( 'NONE', #98, .T. ) ;
#204 = AXIS2_PLACEMENT_3D ( 'NONE', #136, #142, #143 ) ;
#205 = AXIS2_PLACEMENT_3D ( 'NONE', #154, #153, #152 ) ;
#206 = AXIS2_PLACEMENT_3D ( 'NONE', #151, #147, #135 ) ;
#207 = FACE_OUTER_BOUND ( 'NONE', #99, .T. ) ;
#208 = CYLINDRICAL_SURFACE ( 'NONE', #225, 9.750000000000000000 ) ;
#209 = AXIS2_PLACEMENT_3D ( 'NONE', #156, #157, #158 ) ;
#210 = AXIS2_PLACEMENT_3D ( 'NONE', #166, #167, #168 ) ;
#211 = FACE_OUTER_BOUND ( 'NONE', #93, .T. ) ;
#212 = VECTOR ( 'NONE', #131, 1000.000000000000000 ) ;
#213 = AXIS2_PLACEMENT_3D ( 'NONE', #19, #23, #8 ) ;
#214 = AXIS2_PLACEMENT_3D ( 'NONE', #5, #16, #6 ) ;
#215 = FACE_BOUND ( 'NONE', #97, .T. ) ;
#216 = FACE_OUTER_BOUND ( 'NONE', #102, .T. ) ;
#217 = CYLINDRICAL_SURFACE ( 'NONE', #204, 12.50000000000000000 ) ;
#218 = VECTOR ( 'NONE', #171, 1000.000000000000000 ) ;
#219 = VECTOR ( 'NONE', #175, 1000.000000000000000 ) ;
#220 = AXIS2_PLACEMENT_3D ( 'NONE', #15, #10, #13 ) ;
#221 = VECTOR ( 'NONE', #178, 1000.000000000000000 ) ;
#222 = VECTOR ( 'NONE', #181, 1000.000000000000000 ) ;
#223 = AXIS2_PLACEMENT_3D ( 'NONE', #190, #191, #7 ) ;
#224 = VECTOR ( 'NONE', #184, 1000.000000000000000 ) ;
#225 = AXIS2_PLACEMENT_3D ( 'NONE', #172, #188, #189 ) ;
#226 = VECTOR ( 'NONE', #187, 1000.000000000000000 ) ;
#227 = VECTOR ( 'NONE', #141, 1000.000000000000000 ) ;
#228 = VECTOR ( 'NONE', #4, 1000.000000000000000 ) ;
#229 = AXIS2_PLACEMENT_3D ( 'NONE', #18, #17, #20 ) ;
#230 = AXIS2_PLACEMENT_3D ( 'NONE', #21, #2, #12 ) ;
#231 = CLOSED_SHELL ( 'NONE', ( #283, #286, #295, #287, #302, #284, #285, #309 ) ) ;
#232 = CARTESIAN_POINT ( 'NONE',  ( 0.0000000000000000000, 0.0000000000000000000, 0.0000000000000000000 ) ) ;
#233 = MECHANICAL_CONTEXT ( 'NONE', #126, 'mechanical' ) ;
#234 = PERSON_AND_ORGANIZATION ( #25, #48 ) ;
#235 = PERSON_AND_ORGANIZATION_ROLE ( 'design_owner' ) ;
#236 = APPLICATION_PROTOCOL_DEFINITION ( 'international standard', 'config_control_design', 1994, #127 ) ;
#237 = PERSON_AND_ORGANIZATION ( #25, #48 ) ;
#238 = APPROVAL_STATUS ( 'not_yet_approved' ) ;
#239 = APPROVAL_ROLE ( '' ) ;
#240 = DATE_AND_TIME ( #40, #272 ) ;
#241 = APPROVAL_DATE_TIME ( #240, #274 ) ;
#242 = PERSON_AND_ORGANIZATION ( #25, #48 ) ;
#243 = PERSON_AND_ORGANIZATION_ROLE ( 'creator' ) ;
#244 = DATE_AND_TIME ( #49, #270 ) ;
#245 = DATE_TIME_ROLE ( 'creation_date' ) ;
#246 = PERSON_AND_ORGANIZATION ( #25, #48 ) ;
#247 = APPROVAL_STATUS ( 'not_yet_approved' ) ;
#248 = APPROVAL_ROLE ( '' ) ;
#249 = DATE_AND_TIME ( #50, #267 ) ;
#250 = APPROVAL_DATE_TIME ( #249, #268 ) ;
#251 = PERSON_AND_ORGANIZATION ( #25, #48 ) ;
#252 = PERSON_AND_ORGANIZATION_ROLE ( 'creator' ) ;
#253 = PERSON_AND_ORGANIZATION ( #25, #48 ) ;
#254 = PERSON_AND_ORGANIZATION_ROLE ( 'design_supplier' ) ;
#255 = SECURITY_CLASSIFICATION_LEVEL ( 'unclassified' ) ;
#256 = PERSON_AND_ORGANIZATION ( #25, #48 ) ;
#257 = PERSON_AND_ORGANIZATION_ROLE ( 'classification_officer' ) ;
#258 = DATE_AND_TIME ( #32, #313 ) ;
#259 = DATE_TIME_ROLE ( 'classification_date' ) ;
#260 = PERSON_AND_ORGANIZATION ( #25, #48 ) ;
#261 = APPROVAL_STATUS ( 'not_yet_approved' ) ;
#262 = APPROVAL_ROLE ( '' ) ;
#263 = DATE_AND_TIME ( #53, #292 ) ;
#264 = APPROVAL_DATE_TIME ( #263, #277 ) ;
#265 = CC_DESIGN_PERSON_AND_ORGANIZATION_ASSIGNMENT ( #253, #254, ( #36 ) ) ;
#266 = CC_DESIGN_PERSON_AND_ORGANIZATION_ASSIGNMENT ( #251, #252, ( #36 ) ) ;
#267 = LOCAL_TIME ( 19, 50, 26.00000000000000000, #41 ) ;
#268 = APPROVAL ( #247, 'UNSPECIFIED' ) ;
#269 = CC_DESIGN_DATE_AND_TIME_ASSIGNMENT ( #244, #245, ( #275 ) ) ;
#270 = LOCAL_TIME ( 19, 50, 26.00000000000000000, #47 ) ;
#271 = CC_DESIGN_PERSON_AND_ORGANIZATION_ASSIGNMENT ( #242, #243, ( #275 ) ) ;
#272 = LOCAL_TIME ( 19, 50, 26.00000000000000000, #42 ) ;
#273 = EDGE_CURVE ( 'NONE', #108, #104, #303, .T. ) ;
#274 = APPROVAL ( #238, 'UNSPECIFIED' ) ;
#275 = PRODUCT_DEFINITION ( 'UNKNOWN', '', #36, #29 ) ;
#276 = PRODUCT_RELATED_PRODUCT_CATEGORY ( 'detail', '', ( #54 ) ) ;
#277 = APPROVAL ( #261, 'UNSPECIFIED' ) ;
#278 = CC_DESIGN_PERSON_AND_ORGANIZATION_ASSIGNMENT ( #234, #235, ( #54 ) ) ;
#279 = CC_DESIGN_PERSON_AND_ORGANIZATION_ASSIGNMENT ( #256, #257, ( #45 ) ) ;
#280 = CIRCLE ( 'NONE', #209, 12.50000000000000000 ) ;
#281 = CIRCLE ( 'NONE', #220, 9.750000000000000000 ) ;
#282 = EDGE_CURVE ( 'NONE', #109, #108, #137, .T. ) ;
#283 = ADVANCED_FACE ( 'NONE', ( #211 ), #217, .T. ) ;
#284 = ADVANCED_FACE ( 'NONE', ( #198 ), #144, .T. ) ;
#285 = ADVANCED_FACE ( 'NONE', ( #197 ), #194, .F. ) ;
#286 = ADVANCED_FACE ( 'NONE', ( #196, #200 ), #145, .T. ) ;
#287 = ADVANCED_FACE ( 'NONE', ( #203 ), #193, .T. ) ;
#288 = CIRCLE ( 'NONE', #192, 9.750000000000000000 ) ;
#289 = CIRCLE ( 'NONE', #230, 12.50000000000000000 ) ;
#290 = CIRCLE ( 'NONE', #223, 9.750000000000000000 ) ;
#291 = CIRCLE ( 'NONE', #213, 12.50000000000000000 ) ;
#292 = LOCAL_TIME ( 19, 50, 26.00000000000000000, #52 ) ;
#293 = CIRCLE ( 'NONE', #214, 12.50000000000000000 ) ;
#294 = EDGE_CURVE ( 'NONE', #113, #110, #128, .T. ) ;
#295 = ADVANCED_FACE ( 'NONE', ( #199, #215 ), #165, .F. ) ;
#296 = EDGE_CURVE ( 'NONE', #104, #103, #169, .T. ) ;
#297 = EDGE_CURVE ( 'NONE', #112, #114, #173, .T. ) ;
#298 = EDGE_CURVE ( 'NONE', #109, #107, #176, .T. ) ;
#299 = EDGE_CURVE ( 'NONE', #108, #106, #179, .T. ) ;
#300 = EDGE_CURVE ( 'NONE', #104, #111, #182, .T. ) ;
#301 = EDGE_CURVE ( 'NONE', #111, #105, #185, .T. ) ;
#302 = ADVANCED_FACE ( 'NONE', ( #207 ), #208, .F. ) ;
#303 = CIRCLE ( 'NONE', #201, 9.750000000000000000 ) ;
#304 = EDGE_CURVE ( 'NONE', #105, #107, #290, .T. ) ;
#305 = EDGE_CURVE ( 'NONE', #107, #106, #11, .T. ) ;
#306 = EDGE_CURVE ( 'NONE', #110, #114, #291, .T. ) ;
#307 = EDGE_CURVE ( 'NONE', #113, #112, #289, .T. ) ;
#308 = EDGE_CURVE ( 'NONE', #106, #103, #288, .T. ) ;
#309 = ADVANCED_FACE ( 'NONE', ( #216 ), #22, .T. ) ;
#310 = EDGE_CURVE ( 'NONE', #111, #109, #281, .T. ) ;
#311 = EDGE_CURVE ( 'NONE', #112, #113, #293, .T. ) ;
#312 = CC_DESIGN_DATE_AND_TIME_ASSIGNMENT ( #258, #259, ( #45 ) ) ;
#313 = LOCAL_TIME ( 19, 50, 26.00000000000000000, #46 ) ;
#314 = EDGE_CURVE ( 'NONE', #114, #110, #280, .T. ) ;
#315 = EDGE_CURVE ( 'NONE', #103, #105, #159, .T. ) ;
ENDSEC;
END-ISO-10303-21;
