ISO-10303-21;
HEADER;
FILE_DESCRIPTION (( 'STEP AP203' ),
    '1' );
FILE_NAME ('C-1029-S-M8.STEP',
    '2012-03-27T07:43:28',
    ( '11sw' ),
    ( '^LQ»¢®ïÐ' ),
    'SwSTEP 2.0',
    'SolidWorks 2011',
    '' );
FILE_SCHEMA (( 'CONFIG_CONTROL_DESIGN' ));
ENDSEC;

DATA;
#1 = PRODUCT_RELATED_PRODUCT_CATEGORY ( 'detail', '', ( #277 ) ) ;
#2 = CC_DESIGN_DATE_AND_TIME_ASSIGNMENT ( #155, #26, ( #18 ) ) ;
#3 = AXIS2_PLACEMENT_3D ( 'NONE', #60, #59, #57 ) ;
#4 = PRODUCT_DEFINITION_FORMATION_WITH_SPECIFIED_SOURCE ( 'ANY', '', #277, .NOT_KNOWN. ) ;
#5 = CC_DESIGN_APPROVAL ( #14, ( #4 ) ) ;
#6 = CC_DESIGN_PERSON_AND_ORGANIZATION_ASSIGNMENT ( #89, #41, ( #277 ) ) ;
#7 = CC_DESIGN_APPROVAL ( #9, ( #15 ) ) ;
#8 = CC_DESIGN_PERSON_AND_ORGANIZATION_ASSIGNMENT ( #156, #30, ( #4 ) ) ;
#9 = APPROVAL ( #38, 'UNSPECIFIED' ) ;
#10 = CC_DESIGN_SECURITY_CLASSIFICATION ( #18, ( #4 ) ) ;
#11 = CC_DESIGN_APPROVAL ( #13, ( #18 ) ) ;
#12 = CC_DESIGN_PERSON_AND_ORGANIZATION_ASSIGNMENT ( #79, #31, ( #4 ) ) ;
#13 = APPROVAL ( #25, 'UNSPECIFIED' ) ;
#14 = APPROVAL ( #34, 'UNSPECIFIED' ) ;
#15 = PRODUCT_DEFINITION ( 'UNKNOWN', '', #4, #192 ) ;
#16 = CIRCLE ( 'NONE', #3, 9.499999999999998200 ) ;
#17 = CC_DESIGN_DATE_AND_TIME_ASSIGNMENT ( #100, #35, ( #15 ) ) ;
#18 = SECURITY_CLASSIFICATION ( '', '', #29 ) ;
#19 = CC_DESIGN_PERSON_AND_ORGANIZATION_ASSIGNMENT ( #159, #28, ( #18 ) ) ;
#20 = CC_DESIGN_PERSON_AND_ORGANIZATION_ASSIGNMENT ( #101, #36, ( #15 ) ) ;
#21 = AXIS2_PLACEMENT_3D ( 'NONE', #52, #51, #49 ) ;
#22 = VECTOR ( 'NONE', #62, 999.9999999999998900 ) ;
#23 = APPROVAL_ROLE ( '' ) ;
#24 = DIRECTION ( 'NONE',  ( 0.0000000000000000000, 0.0000000000000000000, 1.000000000000000000 ) ) ;
#25 = APPROVAL_STATUS ( 'not_yet_approved' ) ;
#26 = DATE_TIME_ROLE ( 'classification_date' ) ;
#27 = DIRECTION ( 'NONE',  ( -0.0000000000000000000, 1.000000000000000000, -0.0000000000000000000 ) ) ;
#28 = PERSON_AND_ORGANIZATION_ROLE ( 'classification_officer' ) ;
#29 = SECURITY_CLASSIFICATION_LEVEL ( 'unclassified' ) ;
#30 = PERSON_AND_ORGANIZATION_ROLE ( 'design_supplier' ) ;
#31 = PERSON_AND_ORGANIZATION_ROLE ( 'creator' ) ;
#32 = CARTESIAN_POINT ( 'NONE',  ( 0.0000000000000000000, 3.499999999999999600, 0.0000000000000000000 ) ) ;
#33 = APPROVAL_ROLE ( '' ) ;
#34 = APPROVAL_STATUS ( 'not_yet_approved' ) ;
#35 = DATE_TIME_ROLE ( 'creation_date' ) ;
#36 = PERSON_AND_ORGANIZATION_ROLE ( 'creator' ) ;
#37 = APPROVAL_ROLE ( '' ) ;
#38 = APPROVAL_STATUS ( 'not_yet_approved' ) ;
#39 = APPLICATION_PROTOCOL_DEFINITION ( 'international standard', 'config_control_design', 1994, #40 ) ;
#40 = APPLICATION_CONTEXT ( 'configuration controlled 3d designs of mechanical parts and assemblies' ) ;
#41 = PERSON_AND_ORGANIZATION_ROLE ( 'design_owner' ) ;
#42 = DIRECTION ( 'NONE',  ( 0.0000000000000000000, 0.0000000000000000000, 1.000000000000000000 ) ) ;
#43 = MECHANICAL_CONTEXT ( 'NONE', #46, 'mechanical' ) ;
#44 = APPLICATION_PROTOCOL_DEFINITION ( 'international standard', 'config_control_design', 1994, #46 ) ;
#45 = DIRECTION ( 'NONE',  ( -0.0000000000000000000, 1.000000000000000000, -0.0000000000000000000 ) ) ;
#46 = APPLICATION_CONTEXT ( 'configuration controlled 3d designs of mechanical parts and assemblies' ) ;
#47 = CARTESIAN_POINT ( 'NONE',  ( 0.0000000000000000000, 0.0000000000000000000, 0.0000000000000000000 ) ) ;
#48 = DIRECTION ( 'NONE',  ( 0.0000000000000000000, 0.0000000000000000000, 1.000000000000000000 ) ) ;
#49 = DIRECTION ( 'NONE',  ( 1.000000000000000000, 0.0000000000000000000, 0.0000000000000000000 ) ) ;
#50 = DIRECTION ( 'NONE',  ( -0.0000000000000000000, 1.000000000000000000, -0.0000000000000000000 ) ) ;
#51 = DIRECTION ( 'NONE',  ( 0.0000000000000000000, 0.0000000000000000000, 1.000000000000000000 ) ) ;
#52 = CARTESIAN_POINT ( 'NONE',  ( 0.0000000000000000000, 0.0000000000000000000, 0.0000000000000000000 ) ) ;
#53 = CARTESIAN_POINT ( 'NONE',  ( 0.0000000000000000000, 0.0000000000000000000, 0.0000000000000000000 ) ) ;
#54 =( NAMED_UNIT ( * ) SI_UNIT ( $, .STERADIAN. ) SOLID_ANGLE_UNIT ( ) );
#55 =( NAMED_UNIT ( * ) PLANE_ANGLE_UNIT ( ) SI_UNIT ( $, .RADIAN. ) );
#56 =( LENGTH_UNIT ( ) NAMED_UNIT ( * ) SI_UNIT ( .MILLI., .METRE. ) );
#57 = DIRECTION ( 'NONE',  ( 0.0000000000000000000, 0.0000000000000000000, 1.000000000000000000 ) ) ;
#58 = DIRECTION ( 'NONE',  ( 0.0000000000000000000, 0.0000000000000000000, 1.000000000000000000 ) ) ;
#59 = DIRECTION ( 'NONE',  ( -0.0000000000000000000, 1.000000000000000000, -0.0000000000000000000 ) ) ;
#60 = CARTESIAN_POINT ( 'NONE',  ( 0.0000000000000000000, 4.999999999999999100, 0.0000000000000000000 ) ) ;
#61 = DIRECTION ( 'NONE',  ( -0.0000000000000000000, 1.000000000000000000, -0.0000000000000000000 ) ) ;
#62 = DIRECTION ( 'NONE',  ( 0.0000000000000000000, 0.7071067811865510100, 0.7071067811865441300 ) ) ;
#63 = CARTESIAN_POINT ( 'NONE',  ( 0.0000000000000000000, 1.000000000000000000, 4.499999999999999100 ) ) ;
#64 = CARTESIAN_POINT ( 'NONE',  ( 0.0000000000000000000, 4.999999999999999100, 0.0000000000000000000 ) ) ;
#65 = DIRECTION ( 'NONE',  ( 0.0000000000000000000, 0.0000000000000000000, 1.000000000000000000 ) ) ;
#66 = DIRECTION ( 'NONE',  ( -0.0000000000000000000, 1.000000000000000000, -0.0000000000000000000 ) ) ;
#67 = CARTESIAN_POINT ( 'NONE',  ( 0.0000000000000000000, 4.999999999999999100, 0.0000000000000000000 ) ) ;
#68 = DIRECTION ( 'NONE',  ( 0.0000000000000000000, 0.0000000000000000000, 1.000000000000000000 ) ) ;
#69 = DIRECTION ( 'NONE',  ( 0.0000000000000000000, 0.0000000000000000000, 1.000000000000000000 ) ) ;
#70 = DIRECTION ( 'NONE',  ( -0.0000000000000000000, 1.000000000000000000, -0.0000000000000000000 ) ) ;
#71 = DIRECTION ( 'NONE',  ( -0.0000000000000000000, 1.000000000000000000, -0.0000000000000000000 ) ) ;
#72 = CARTESIAN_POINT ( 'NONE',  ( 0.0000000000000000000, 0.0000000000000000000, 0.0000000000000000000 ) ) ;
#73 = VERTEX_POINT ( 'NONE', #347 ) ;
#74 = CALENDAR_DATE ( 2012, 27, 3 ) ;
#75 = APPROVAL_DATE_TIME ( #76, #13 ) ;
#76 = DATE_AND_TIME ( #149, #263 ) ;
#77 = COORDINATED_UNIVERSAL_TIME_OFFSET ( 9, 0, .AHEAD. ) ;
#78 = VERTEX_POINT ( 'NONE', #334 ) ;
#79 = PERSON_AND_ORGANIZATION ( #278, #90 ) ;
#80 = VERTEX_POINT ( 'NONE', #342 ) ;
#81 = VERTEX_POINT ( 'NONE', #338 ) ;
#82 = COORDINATED_UNIVERSAL_TIME_OFFSET ( 9, 0, .AHEAD. ) ;
#83 = APPROVAL_PERSON_ORGANIZATION ( #154, #13, #23 ) ;
#84 = FACE_BOUND ( 'NONE', #120, .T. ) ;
#85 = VERTEX_POINT ( 'NONE', #339 ) ;
#86 = VERTEX_POINT ( 'NONE', #336 ) ;
#87 = VERTEX_POINT ( 'NONE', #351 ) ;
#88 = SHAPE_DEFINITION_REPRESENTATION ( #191, #238 ) ;
#89 = PERSON_AND_ORGANIZATION ( #278, #90 ) ;
#90 = ORGANIZATION ( 'UNSPECIFIED', 'UNSPECIFIED', '' ) ;
#91 = FACE_OUTER_BOUND ( 'NONE', #104, .T. ) ;
#92 = PERSON_AND_ORGANIZATION ( #278, #90 ) ;
#93 = FACE_OUTER_BOUND ( 'NONE', #119, .T. ) ;
#94 = APPROVAL_PERSON_ORGANIZATION ( #92, #14, #33 ) ;
#95 = APPROVAL_PERSON_ORGANIZATION ( #158, #9, #37 ) ;
#96 = VERTEX_POINT ( 'NONE', #345 ) ;
#97 = DATE_AND_TIME ( #166, #255 ) ;
#98 = CYLINDRICAL_SURFACE ( 'NONE', #203, 4.499999999999999100 ) ;
#99 = LINE ( 'NONE', #349, #237 ) ;
#100 = DATE_AND_TIME ( #74, #253 ) ;
#101 = PERSON_AND_ORGANIZATION ( #278, #90 ) ;
#102 = EDGE_LOOP ( 'NONE', ( #186, #176, #180, #181 ) ) ;
#103 = EDGE_LOOP ( 'NONE', ( #179, #183, #184, #182 ) ) ;
#104 = EDGE_LOOP ( 'NONE', ( #185, #178, #175, #174 ) ) ;
#105 = FACE_OUTER_BOUND ( 'NONE', #116, .T. ) ;
#106 = CYLINDRICAL_SURFACE ( 'NONE', #205, 11.00000000000000000 ) ;
#107 = FACE_BOUND ( 'NONE', #123, .T. ) ;
#108 = LINE ( 'NONE', #307, #231 ) ;
#109 = CYLINDRICAL_SURFACE ( 'NONE', #206, 4.499999999999999100 ) ;
#110 = LINE ( 'NONE', #294, #213 ) ;
#111 = FACE_OUTER_BOUND ( 'NONE', #103, .T. ) ;
#112 = FACE_OUTER_BOUND ( 'NONE', #117, .T. ) ;
#113 = FACE_OUTER_BOUND ( 'NONE', #102, .T. ) ;
#114 = FACE_OUTER_BOUND ( 'NONE', #122, .T. ) ;
#115 = FACE_OUTER_BOUND ( 'NONE', #124, .T. ) ;
#116 = EDGE_LOOP ( 'NONE', ( #171, #170, #177, #133 ) ) ;
#117 = EDGE_LOOP ( 'NONE', ( #144, #143, #164, #140 ) ) ;
#118 = LINE ( 'NONE', #344, #227 ) ;
#119 = EDGE_LOOP ( 'NONE', ( #169, #167, #168, #165 ) ) ;
#120 = EDGE_LOOP ( 'NONE', ( #145, #146 ) ) ;
#121 = EDGE_LOOP ( 'NONE', ( #162, #147 ) ) ;
#122 = EDGE_LOOP ( 'NONE', ( #139, #138, #141, #135 ) ) ;
#123 = EDGE_LOOP ( 'NONE', ( #134, #131 ) ) ;
#124 = EDGE_LOOP ( 'NONE', ( #129, #128, #127, #132 ) ) ;
#125 = CLOSED_SHELL ( 'NONE', ( #265, #259, #254, #256, #257, #258, #260, #264, #261, #262 ) ) ;
#126 = EDGE_LOOP ( 'NONE', ( #136, #130 ) ) ;
#127 = ORIENTED_EDGE ( 'NONE', *, *, #251, .T. ) ;
#128 = ORIENTED_EDGE ( 'NONE', *, *, #268, .F. ) ;
#129 = ORIENTED_EDGE ( 'NONE', *, *, #241, .F. ) ;
#130 = ORIENTED_EDGE ( 'NONE', *, *, #269, .F. ) ;
#131 = ORIENTED_EDGE ( 'NONE', *, *, #243, .T. ) ;
#132 = ORIENTED_EDGE ( 'NONE', *, *, #250, .T. ) ;
#133 = ORIENTED_EDGE ( 'NONE', *, *, #274, .F. ) ;
#134 = ORIENTED_EDGE ( 'NONE', *, *, #268, .T. ) ;
#135 = ORIENTED_EDGE ( 'NONE', *, *, #270, .F. ) ;
#136 = ORIENTED_EDGE ( 'NONE', *, *, #272, .F. ) ;
#137 = COORDINATED_UNIVERSAL_TIME_OFFSET ( 9, 0, .AHEAD. ) ;
#138 = ORIENTED_EDGE ( 'NONE', *, *, #269, .T. ) ;
#139 = ORIENTED_EDGE ( 'NONE', *, *, #245, .F. ) ;
#140 = ORIENTED_EDGE ( 'NONE', *, *, #246, .F. ) ;
#141 = ORIENTED_EDGE ( 'NONE', *, *, #242, .T. ) ;
#142 = CALENDAR_DATE ( 2012, 27, 3 ) ;
#143 = ORIENTED_EDGE ( 'NONE', *, *, #270, .T. ) ;
#144 = ORIENTED_EDGE ( 'NONE', *, *, #249, .F. ) ;
#145 = ORIENTED_EDGE ( 'NONE', *, *, #273, .F. ) ;
#146 = ORIENTED_EDGE ( 'NONE', *, *, #266, .F. ) ;
#147 = ORIENTED_EDGE ( 'NONE', *, *, #246, .T. ) ;
#148 = DATE_AND_TIME ( #142, #252 ) ;
#149 = CALENDAR_DATE ( 2012, 27, 3 ) ;
#150 = COORDINATED_UNIVERSAL_TIME_OFFSET ( 9, 0, .AHEAD. ) ;
#151 = APPROVAL_DATE_TIME ( #148, #14 ) ;
#152 = CALENDAR_DATE ( 2012, 27, 3 ) ;
#153 = FACE_OUTER_BOUND ( 'NONE', #121, .T. ) ;
#154 = PERSON_AND_ORGANIZATION ( #278, #90 ) ;
#155 = DATE_AND_TIME ( #152, #267 ) ;
#156 = PERSON_AND_ORGANIZATION ( #278, #90 ) ;
#157 = CYLINDRICAL_SURFACE ( 'NONE', #236, 11.00000000000000000 ) ;
#158 = PERSON_AND_ORGANIZATION ( #278, #90 ) ;
#159 = PERSON_AND_ORGANIZATION ( #278, #90 ) ;
#160 = APPROVAL_DATE_TIME ( #97, #9 ) ;
#161 = LINE ( 'NONE', #63, #22 ) ;
#162 = ORIENTED_EDGE ( 'NONE', *, *, #275, .T. ) ;
#163 = COORDINATED_UNIVERSAL_TIME_OFFSET ( 9, 0, .AHEAD. ) ;
#164 = ORIENTED_EDGE ( 'NONE', *, *, #244, .T. ) ;
#165 = ORIENTED_EDGE ( 'NONE', *, *, #273, .T. ) ;
#166 = CALENDAR_DATE ( 2012, 27, 3 ) ;
#167 = ORIENTED_EDGE ( 'NONE', *, *, #250, .F. ) ;
#168 = ORIENTED_EDGE ( 'NONE', *, *, #274, .T. ) ;
#169 = ORIENTED_EDGE ( 'NONE', *, *, #247, .F. ) ;
#170 = ORIENTED_EDGE ( 'NONE', *, *, #247, .T. ) ;
#171 = ORIENTED_EDGE ( 'NONE', *, *, #248, .F. ) ;
#172 = LINE ( 'NONE', #323, #212 ) ;
#173 = FACE_OUTER_BOUND ( 'NONE', #126, .T. ) ;
#174 = ORIENTED_EDGE ( 'NONE', *, *, #244, .F. ) ;
#175 = ORIENTED_EDGE ( 'NONE', *, *, #275, .F. ) ;
#176 = ORIENTED_EDGE ( 'NONE', *, *, #241, .T. ) ;
#177 = ORIENTED_EDGE ( 'NONE', *, *, #266, .T. ) ;
#178 = ORIENTED_EDGE ( 'NONE', *, *, #249, .T. ) ;
#179 = ORIENTED_EDGE ( 'NONE', *, *, #272, .T. ) ;
#180 = ORIENTED_EDGE ( 'NONE', *, *, #248, .T. ) ;
#181 = ORIENTED_EDGE ( 'NONE', *, *, #251, .F. ) ;
#182 = ORIENTED_EDGE ( 'NONE', *, *, #242, .F. ) ;
#183 = ORIENTED_EDGE ( 'NONE', *, *, #245, .T. ) ;
#184 = ORIENTED_EDGE ( 'NONE', *, *, #240, .F. ) ;
#185 = ORIENTED_EDGE ( 'NONE', *, *, #240, .T. ) ;
#186 = ORIENTED_EDGE ( 'NONE', *, *, #243, .F. ) ;
#187 = VERTEX_POINT ( 'NONE', #341 ) ;
#188 = VERTEX_POINT ( 'NONE', #348 ) ;
#189 = VERTEX_POINT ( 'NONE', #337 ) ;
#190 = VERTEX_POINT ( 'NONE', #340 ) ;
#191 = PRODUCT_DEFINITION_SHAPE ( 'NONE', 'NONE',  #15 ) ;
#192 = DESIGN_CONTEXT ( 'detailed design', #40, 'design' ) ;
#193 = AXIS2_PLACEMENT_3D ( 'NONE', #32, #27, #24 ) ;
#194 = AXIS2_PLACEMENT_3D ( 'NONE', #47, #45, #42 ) ;
#195 = AXIS2_PLACEMENT_3D ( 'NONE', #67, #66, #65 ) ;
#196 = CIRCLE ( 'NONE', #195, 8.499999999999959100 ) ;
#197 = AXIS2_PLACEMENT_3D ( 'NONE', #53, #50, #48 ) ;
#198 = CIRCLE ( 'NONE', #232, 11.00000000000000000 ) ;
#199 = AXIS2_PLACEMENT_3D ( 'NONE', #64, #61, #58 ) ;
#200 = CIRCLE ( 'NONE', #193, 11.00000000000000000 ) ;
#201 = CIRCLE ( 'NONE', #199, 8.499999999999959100 ) ;
#202 = CIRCLE ( 'NONE', #194, 11.00000000000000000 ) ;
#203 = AXIS2_PLACEMENT_3D ( 'NONE', #280, #71, #69 ) ;
#204 = AXIS2_PLACEMENT_3D ( 'NONE', #308, #303, #302 ) ;
#205 = AXIS2_PLACEMENT_3D ( 'NONE', #295, #293, #283 ) ;
#206 = AXIS2_PLACEMENT_3D ( 'NONE', #300, #298, #297 ) ;
#207 = AXIS2_PLACEMENT_3D ( 'NONE', #289, #288, #287 ) ;
#208 = CIRCLE ( 'NONE', #228, 4.499999999999999100 ) ;
#209 = AXIS2_PLACEMENT_3D ( 'NONE', #321, #325, #328 ) ;
#210 = AXIS2_PLACEMENT_3D ( 'NONE', #346, #335, #343 ) ;
#211 = CIRCLE ( 'NONE', #197, 4.499999999999999100 ) ;
#212 = VECTOR ( 'NONE', #310, 1000.000000000000000 ) ;
#213 = VECTOR ( 'NONE', #311, 999.9999999999998900 ) ;
#214 = CIRCLE ( 'NONE', #230, 1.500000000000001300 ) ;
#215 = CIRCLE ( 'NONE', #210, 11.00000000000000000 ) ;
#216 = CONICAL_SURFACE ( 'NONE', #207, 4.499999999999999100, 0.7853981633974433900 ) ;
#217 = AXIS2_PLACEMENT_3D ( 'NONE', #322, #333, #318 ) ;
#218 = CIRCLE ( 'NONE', #221, 9.499999999999998200 ) ;
#219 = TOROIDAL_SURFACE ( 'NONE', #234, 9.499999999999998200, 1.500000000000000400 ) ;
#220 = AXIS2_PLACEMENT_3D ( 'NONE', #286, #306, #324 ) ;
#221 = AXIS2_PLACEMENT_3D ( 'NONE', #299, #327, #285 ) ;
#222 = CIRCLE ( 'NONE', #209, 4.499999999999999100 ) ;
#223 = CIRCLE ( 'NONE', #217, 1.500000000000001300 ) ;
#224 = AXIS2_PLACEMENT_3D ( 'NONE', #282, #281, #279 ) ;
#225 = AXIS2_PLACEMENT_3D ( 'NONE', #292, #291, #290 ) ;
#226 = TOROIDAL_SURFACE ( 'NONE', #235, 9.499999999999998200, 1.500000000000000400 ) ;
#227 = VECTOR ( 'NONE', #320, 1000.000000000000000 ) ;
#228 = AXIS2_PLACEMENT_3D ( 'NONE', #305, #319, #332 ) ;
#229 = CONICAL_SURFACE ( 'NONE', #225, 4.499999999999999100, 0.7853981633974433900 ) ;
#230 = AXIS2_PLACEMENT_3D ( 'NONE', #329, #330, #331 ) ;
#231 = VECTOR ( 'NONE', #326, 1000.000000000000000 ) ;
#232 = AXIS2_PLACEMENT_3D ( 'NONE', #72, #70, #68 ) ;
#233 = CIRCLE ( 'NONE', #220, 4.499999999999999100 ) ;
#234 = AXIS2_PLACEMENT_3D ( 'NONE', #314, #313, #312 ) ;
#235 = AXIS2_PLACEMENT_3D ( 'NONE', #304, #301, #296 ) ;
#236 = AXIS2_PLACEMENT_3D ( 'NONE', #317, #316, #315 ) ;
#237 = VECTOR ( 'NONE', #350, 1000.000000000000000 ) ;
#238 = ADVANCED_BREP_SHAPE_REPRESENTATION ( 'C-1029-S-M8', ( #239, #21 ), #271 ) ;
#239 = MANIFOLD_SOLID_BREP ( 'ñ]1', #125 ) ;
#240 = EDGE_CURVE ( 'NONE', #96, #85, #215, .T. ) ;
#241 = EDGE_CURVE ( 'NONE', #190, #188, #99, .T. ) ;
#242 = EDGE_CURVE ( 'NONE', #73, #96, #118, .T. ) ;
#243 = EDGE_CURVE ( 'NONE', #190, #78, #222, .T. ) ;
#244 = EDGE_CURVE ( 'NONE', #96, #86, #214, .T. ) ;
#245 = EDGE_CURVE ( 'NONE', #87, #85, #108, .T. ) ;
#246 = EDGE_CURVE ( 'NONE', #80, #86, #218, .T. ) ;
#247 = EDGE_CURVE ( 'NONE', #188, #189, #110, .T. ) ;
#248 = EDGE_CURVE ( 'NONE', #188, #187, #208, .T. ) ;
#249 = EDGE_CURVE ( 'NONE', #85, #80, #223, .T. ) ;
#250 = EDGE_CURVE ( 'NONE', #187, #188, #233, .T. ) ;
#251 = EDGE_CURVE ( 'NONE', #78, #187, #172, .T. ) ;
#252 = LOCAL_TIME ( 16, 43, 28.00000000000000000, #137 ) ;
#253 = LOCAL_TIME ( 16, 43, 28.00000000000000000, #77 ) ;
#254 = ADVANCED_FACE ( 'NONE', ( #91 ), #226, .T. ) ;
#255 = LOCAL_TIME ( 16, 43, 28.00000000000000000, #163 ) ;
#256 = ADVANCED_FACE ( 'NONE', ( #105 ), #229, .F. ) ;
#257 = ADVANCED_FACE ( 'NONE', ( #93 ), #216, .F. ) ;
#258 = ADVANCED_FACE ( 'NONE', ( #153, #84 ), #284, .T. ) ;
#259 = ADVANCED_FACE ( 'NONE', ( #111 ), #157, .T. ) ;
#260 = ADVANCED_FACE ( 'NONE', ( #112 ), #219, .T. ) ;
#261 = ADVANCED_FACE ( 'NONE', ( #107, #173 ), #309, .T. ) ;
#262 = ADVANCED_FACE ( 'NONE', ( #115 ), #109, .F. ) ;
#263 = LOCAL_TIME ( 16, 43, 28.00000000000000000, #150 ) ;
#264 = ADVANCED_FACE ( 'NONE', ( #114 ), #106, .T. ) ;
#265 = ADVANCED_FACE ( 'NONE', ( #113 ), #98, .F. ) ;
#266 = EDGE_CURVE ( 'NONE', #189, #81, #201, .T. ) ;
#267 = LOCAL_TIME ( 16, 43, 28.00000000000000000, #82 ) ;
#268 = EDGE_CURVE ( 'NONE', #78, #190, #211, .T. ) ;
#269 = EDGE_CURVE ( 'NONE', #87, #73, #202, .T. ) ;
#270 = EDGE_CURVE ( 'NONE', #85, #96, #200, .T. ) ;
#271 =( GEOMETRIC_REPRESENTATION_CONTEXT ( 3 ) GLOBAL_UNCERTAINTY_ASSIGNED_CONTEXT ( ( #276 ) ) GLOBAL_UNIT_ASSIGNED_CONTEXT ( ( #56, #55, #54 ) ) REPRESENTATION_CONTEXT ( 'NONE', 'WORKASPACE' ) );
#272 = EDGE_CURVE ( 'NONE', #73, #87, #198, .T. ) ;
#273 = EDGE_CURVE ( 'NONE', #81, #189, #196, .T. ) ;
#274 = EDGE_CURVE ( 'NONE', #187, #81, #161, .T. ) ;
#275 = EDGE_CURVE ( 'NONE', #86, #80, #16, .T. ) ;
#276 = UNCERTAINTY_MEASURE_WITH_UNIT (LENGTH_MEASURE( 1.000000000000000100E-005 ), #56, 'distance_accuracy_value', 'NONE');
#277 = PRODUCT ( 'C-1029-S-M8', 'C-1029-S-M8', '', ( #43 ) ) ;
#278 = PERSON ( 'UNSPECIFIED', 'UNSPECIFIED', 'UNSPECIFIED', ('UNSPECIFIED'), ('UNSPECIFIED'), ('UNSPECIFIED') ) ;
#279 = DIRECTION ( 'NONE',  ( 0.0000000000000000000, 0.0000000000000000000, 1.000000000000000000 ) ) ;
#280 = CARTESIAN_POINT ( 'NONE',  ( 0.0000000000000000000, 7.283860049783210200, 0.0000000000000000000 ) ) ;
#281 = DIRECTION ( 'NONE',  ( -0.0000000000000000000, 1.000000000000000000, 0.0000000000000000000 ) ) ;
#282 = CARTESIAN_POINT ( 'NONE',  ( 0.0000000000000000000, 4.999999999999999100, 8.499999999999959100 ) ) ;
#283 = DIRECTION ( 'NONE',  ( 0.0000000000000000000, 0.0000000000000000000, 1.000000000000000000 ) ) ;
#284 = PLANE ( 'NONE',  #224 ) ;
#285 = DIRECTION ( 'NONE',  ( 0.0000000000000000000, 0.0000000000000000000, 1.000000000000000000 ) ) ;
#286 = CARTESIAN_POINT ( 'NONE',  ( 0.0000000000000000000, 1.000000000000000000, 0.0000000000000000000 ) ) ;
#287 = DIRECTION ( 'NONE',  ( 0.0000000000000000000, 0.0000000000000000000, 1.000000000000000000 ) ) ;
#288 = DIRECTION ( 'NONE',  ( -0.0000000000000000000, 1.000000000000000000, -0.0000000000000000000 ) ) ;
#289 = CARTESIAN_POINT ( 'NONE',  ( 0.0000000000000000000, 1.000000000000000000, 0.0000000000000000000 ) ) ;
#290 = DIRECTION ( 'NONE',  ( 0.0000000000000000000, 0.0000000000000000000, 1.000000000000000000 ) ) ;
#291 = DIRECTION ( 'NONE',  ( -0.0000000000000000000, 1.000000000000000000, -0.0000000000000000000 ) ) ;
#292 = CARTESIAN_POINT ( 'NONE',  ( 0.0000000000000000000, 1.000000000000000000, 0.0000000000000000000 ) ) ;
#293 = DIRECTION ( 'NONE',  ( -0.0000000000000000000, 1.000000000000000000, -0.0000000000000000000 ) ) ;
#294 = CARTESIAN_POINT ( 'NONE',  ( 5.510910596163087600E-016, 1.000000000000000000, -4.499999999999999100 ) ) ;
#295 = CARTESIAN_POINT ( 'NONE',  ( 0.0000000000000000000, 7.283860049783210200, 0.0000000000000000000 ) ) ;
#296 = DIRECTION ( 'NONE',  ( 0.0000000000000000000, 0.0000000000000000000, 1.000000000000000000 ) ) ;
#297 = DIRECTION ( 'NONE',  ( 0.0000000000000000000, 0.0000000000000000000, 1.000000000000000000 ) ) ;
#298 = DIRECTION ( 'NONE',  ( -0.0000000000000000000, 1.000000000000000000, -0.0000000000000000000 ) ) ;
#299 = CARTESIAN_POINT ( 'NONE',  ( 0.0000000000000000000, 4.999999999999999100, 0.0000000000000000000 ) ) ;
#300 = CARTESIAN_POINT ( 'NONE',  ( 0.0000000000000000000, 7.283860049783210200, 0.0000000000000000000 ) ) ;
#301 = DIRECTION ( 'NONE',  ( -0.0000000000000000000, 1.000000000000000000, -0.0000000000000000000 ) ) ;
#302 = DIRECTION ( 'NONE',  ( 0.0000000000000000000, -0.0000000000000000000, -1.000000000000000000 ) ) ;
#303 = DIRECTION ( 'NONE',  ( 0.0000000000000000000, -1.000000000000000000, 0.0000000000000000000 ) ) ;
#304 = CARTESIAN_POINT ( 'NONE',  ( 0.0000000000000000000, 3.499999999999999600, 0.0000000000000000000 ) ) ;
#305 = CARTESIAN_POINT ( 'NONE',  ( 0.0000000000000000000, 1.000000000000000000, 0.0000000000000000000 ) ) ;
#306 = DIRECTION ( 'NONE',  ( -0.0000000000000000000, 1.000000000000000000, -0.0000000000000000000 ) ) ;
#307 = CARTESIAN_POINT ( 'NONE',  ( 1.347111479062088400E-015, 7.283860049783210200, -11.00000000000000000 ) ) ;
#308 = CARTESIAN_POINT ( 'NONE',  ( 0.0000000000000000000, 0.0000000000000000000, 11.00000000000000000 ) ) ;
#309 = PLANE ( 'NONE',  #204 ) ;
#310 = DIRECTION ( 'NONE',  ( -0.0000000000000000000, 1.000000000000000000, -0.0000000000000000000 ) ) ;
#311 = DIRECTION ( 'NONE',  ( 8.659560562354890900E-017, 0.7071067811865510100, -0.7071067811865441300 ) ) ;
#312 = DIRECTION ( 'NONE',  ( 0.0000000000000000000, 0.0000000000000000000, 1.000000000000000000 ) ) ;
#313 = DIRECTION ( 'NONE',  ( -0.0000000000000000000, 1.000000000000000000, -0.0000000000000000000 ) ) ;
#314 = CARTESIAN_POINT ( 'NONE',  ( 0.0000000000000000000, 3.499999999999999600, 0.0000000000000000000 ) ) ;
#315 = DIRECTION ( 'NONE',  ( 0.0000000000000000000, 0.0000000000000000000, 1.000000000000000000 ) ) ;
#316 = DIRECTION ( 'NONE',  ( -0.0000000000000000000, 1.000000000000000000, -0.0000000000000000000 ) ) ;
#317 = CARTESIAN_POINT ( 'NONE',  ( 0.0000000000000000000, 7.283860049783210200, 0.0000000000000000000 ) ) ;
#318 = DIRECTION ( 'NONE',  ( 1.224646799147352000E-016, 0.0000000000000000000, -1.000000000000000000 ) ) ;
#319 = DIRECTION ( 'NONE',  ( -0.0000000000000000000, 1.000000000000000000, -0.0000000000000000000 ) ) ;
#320 = DIRECTION ( 'NONE',  ( -0.0000000000000000000, 1.000000000000000000, -0.0000000000000000000 ) ) ;
#321 = CARTESIAN_POINT ( 'NONE',  ( 0.0000000000000000000, 0.0000000000000000000, 0.0000000000000000000 ) ) ;
#322 = CARTESIAN_POINT ( 'NONE',  ( 1.163414459189985300E-015, 3.499999999999999600, -9.499999999999998200 ) ) ;
#323 = CARTESIAN_POINT ( 'NONE',  ( 0.0000000000000000000, 7.283860049783210200, 4.499999999999999100 ) ) ;
#324 = DIRECTION ( 'NONE',  ( 0.0000000000000000000, 0.0000000000000000000, 1.000000000000000000 ) ) ;
#325 = DIRECTION ( 'NONE',  ( -0.0000000000000000000, 1.000000000000000000, -0.0000000000000000000 ) ) ;
#326 = DIRECTION ( 'NONE',  ( -0.0000000000000000000, 1.000000000000000000, -0.0000000000000000000 ) ) ;
#327 = DIRECTION ( 'NONE',  ( -0.0000000000000000000, 1.000000000000000000, -0.0000000000000000000 ) ) ;
#328 = DIRECTION ( 'NONE',  ( 0.0000000000000000000, 0.0000000000000000000, 1.000000000000000000 ) ) ;
#329 = CARTESIAN_POINT ( 'NONE',  ( 0.0000000000000000000, 3.499999999999999600, 9.499999999999998200 ) ) ;
#330 = DIRECTION ( 'NONE',  ( -1.000000000000000000, 0.0000000000000000000, 0.0000000000000000000 ) ) ;
#331 = DIRECTION ( 'NONE',  ( 0.0000000000000000000, 0.0000000000000000000, 1.000000000000000000 ) ) ;
#332 = DIRECTION ( 'NONE',  ( 0.0000000000000000000, 0.0000000000000000000, 1.000000000000000000 ) ) ;
#333 = DIRECTION ( 'NONE',  ( 1.000000000000000000, 0.0000000000000000000, 1.224646799147353200E-016 ) ) ;
#334 = CARTESIAN_POINT ( 'NONE',  ( 0.0000000000000000000, 0.0000000000000000000, 4.499999999999999100 ) ) ;
#335 = DIRECTION ( 'NONE',  ( -0.0000000000000000000, 1.000000000000000000, -0.0000000000000000000 ) ) ;
#336 = CARTESIAN_POINT ( 'NONE',  ( 0.0000000000000000000, 4.999999999999999100, 9.499999999999998200 ) ) ;
#337 = CARTESIAN_POINT ( 'NONE',  ( 1.040949779275245200E-015, 4.999999999999999100, -8.499999999999959100 ) ) ;
#338 = CARTESIAN_POINT ( 'NONE',  ( 0.0000000000000000000, 4.999999999999999100, 8.499999999999959100 ) ) ;
#339 = CARTESIAN_POINT ( 'NONE',  ( 1.347111479062088400E-015, 3.499999999999999600, -11.00000000000000000 ) ) ;
#340 = CARTESIAN_POINT ( 'NONE',  ( 5.510910596163087600E-016, 0.0000000000000000000, -4.499999999999999100 ) ) ;
#341 = CARTESIAN_POINT ( 'NONE',  ( 0.0000000000000000000, 1.000000000000000000, 4.499999999999999100 ) ) ;
#342 = CARTESIAN_POINT ( 'NONE',  ( 1.255262969126037000E-015, 4.999999999999999100, -9.499999999999998200 ) ) ;
#343 = DIRECTION ( 'NONE',  ( 0.0000000000000000000, 0.0000000000000000000, 1.000000000000000000 ) ) ;
#344 = CARTESIAN_POINT ( 'NONE',  ( 0.0000000000000000000, 7.283860049783210200, 11.00000000000000000 ) ) ;
#345 = CARTESIAN_POINT ( 'NONE',  ( 0.0000000000000000000, 3.499999999999999600, 11.00000000000000000 ) ) ;
#346 = CARTESIAN_POINT ( 'NONE',  ( 0.0000000000000000000, 3.499999999999999600, 0.0000000000000000000 ) ) ;
#347 = CARTESIAN_POINT ( 'NONE',  ( 0.0000000000000000000, 0.0000000000000000000, 11.00000000000000000 ) ) ;
#348 = CARTESIAN_POINT ( 'NONE',  ( 7.960204194457770800E-016, 1.000000000000000000, -4.499999999999999100 ) ) ;
#349 = CARTESIAN_POINT ( 'NONE',  ( 5.510910596163087600E-016, 7.283860049783210200, -4.499999999999999100 ) ) ;
#350 = DIRECTION ( 'NONE',  ( -0.0000000000000000000, 1.000000000000000000, -0.0000000000000000000 ) ) ;
#351 = CARTESIAN_POINT ( 'NONE',  ( 1.347111479062088400E-015, 0.0000000000000000000, -11.00000000000000000 ) ) ;
ENDSEC;
END-ISO-10303-21;
